  0
SECTION
  2
HEADER
  9
$ACADVER
  1
AC1009
  9
$INSBASE
 10
0.0
 20
0.0
 30
0.0
  9
$EXTMIN
 10
17.492617917692652
 20
47.978447745559613
 30
0.0
  9
$EXTMAX
 10
3890.0
 20
4939.593807197276
 30
0.0
  9
$LIMMIN
 10
0.0
 20
0.0
  9
$LIMMAX
 10
3890.0
 20
2660.0
  9
$ORTHOMODE
 70
     1
  9
$REGENMODE
 70
     1
  9
$FILLMODE
 70
     1
  9
$QTEXTMODE
 70
     0
  9
$MIRRTEXT
 70
     0
  9
$DRAGMODE
 70
     2
  9
$LTSCALE
 40
300.0
  9
$OSMODE
 70
   935
  9
$ATTMODE
 70
     1
  9
$TEXTSIZE
 40
30.0
  9
$TRACEWID
 40
0.05
  9
$TEXTSTYLE
  7
TITLE3
  9
$CLAYER
  8
0
  9
$CELTYPE
  6
BYLAYER
  9
$CECOLOR
 62
   256
  9
$DIMSCALE
 40
1.0
  9
$DIMASZ
 40
0.18
  9
$DIMEXO
 40
0.0625
  9
$DIMDLI
 40
0.38
  9
$DIMRND
 40
0.0
  9
$DIMDLE
 40
0.0
  9
$DIMEXE
 40
0.18
  9
$DIMTP
 40
0.0
  9
$DIMTM
 40
0.0
  9
$DIMTXT
 40
0.18
  9
$DIMCEN
 40
0.09
  9
$DIMTSZ
 40
0.0
  9
$DIMTOL
 70
     0
  9
$DIMLIM
 70
     0
  9
$DIMTIH
 70
     1
  9
$DIMTOH
 70
     1
  9
$DIMSE1
 70
     0
  9
$DIMSE2
 70
     0
  9
$DIMTAD
 70
     0
  9
$DIMZIN
 70
     0
  9
$DIMBLK
  1

  9
$DIMASO
 70
     0
  9
$DIMSHO
 70
     0
  9
$DIMPOST
  1

  9
$DIMAPOST
  1

  9
$DIMALT
 70
     0
  9
$DIMALTD
 70
     2
  9
$DIMALTF
 40
25.399999999999999
  9
$DIMLFAC
 40
1.0
  9
$DIMTOFL
 70
     0
  9
$DIMTVP
 40
0.0
  9
$DIMTIX
 70
     0
  9
$DIMSOXD
 70
     0
  9
$DIMSAH
 70
     0
  9
$DIMBLK1
  1

  9
$DIMBLK2
  1

  9
$DIMSTYLE
  2
ANNOTATIVE
  9
$DIMCLRD
 70
     0
  9
$DIMCLRE
 70
     0
  9
$DIMCLRT
 70
     0
  9
$DIMTFAC
 40
1.0
  9
$DIMGAP
 40
0.09
  9
$LUNITS
 70
     2
  9
$LUPREC
 70
     2
  9
$SKETCHINC
 40
0.1
  9
$FILLETRAD
 40
0.0
  9
$AUNITS
 70
     0
  9
$AUPREC
 70
     2
  9
$MENU
  1
\acad12\support\cnc
  9
$ELEVATION
 40
0.0
  9
$PELEVATION
 40
0.0
  9
$THICKNESS
 40
0.0
  9
$LIMCHECK
 70
     0
  9
$BLIPMODE
 70
     0
  9
$CHAMFERA
 40
20.0
  9
$CHAMFERB
 40
20.0
  9
$SKPOLY
 70
     0
  9
$TDCREATE
 40
2450610.4026309028
  9
$TDUPDATE
 40
2456169.4767629858
  9
$TDINDWG
 40
0.4887345602
  9
$TDUSRTIMER
 40
0.4887330556
  9
$USRTIMER
 70
     1
  9
$ANGBASE
 50
0.0
  9
$ANGDIR
 70
     0
  9
$PDMODE
 70
     2
  9
$PDSIZE
 40
10.0
  9
$PLINEWID
 40
2.0
  9
$COORDS
 70
     1
  9
$SPLFRAME
 70
     0
  9
$SPLINETYPE
 70
     6
  9
$SPLINESEGS
 70
     8
  9
$ATTDIA
 70
     0
  9
$ATTREQ
 70
     1
  9
$HANDLING
 70
     1
  9
$HANDSEED
  5
9670
  9
$SURFTAB1
 70
     6
  9
$SURFTAB2
 70
     6
  9
$SURFTYPE
 70
     6
  9
$SURFU
 70
     6
  9
$SURFV
 70
     6
  9
$UCSNAME
  2

  9
$UCSORG
 10
0.0
 20
0.0
 30
0.0
  9
$UCSXDIR
 10
1.0
 20
0.0
 30
0.0
  9
$UCSYDIR
 10
0.0
 20
1.0
 30
0.0
  9
$PUCSNAME
  2

  9
$PUCSORG
 10
0.0
 20
0.0
 30
0.0
  9
$PUCSXDIR
 10
1.0
 20
0.0
 30
0.0
  9
$PUCSYDIR
 10
0.0
 20
1.0
 30
0.0
  9
$USERI1
 70
     0
  9
$USERI2
 70
     0
  9
$USERI3
 70
     0
  9
$USERI4
 70
     0
  9
$USERI5
 70
     0
  9
$USERR1
 40
0.0
  9
$USERR2
 40
0.0
  9
$USERR3
 40
0.0
  9
$USERR4
 40
0.0
  9
$USERR5
 40
0.0
  9
$WORLDVIEW
 70
     1
  9
$SHADEDGE
 70
     3
  9
$SHADEDIF
 70
    70
  9
$TILEMODE
 70
     1
  9
$MAXACTVP
 70
    16
  9
$PLIMCHECK
 70
     0
  9
$PEXTMIN
 10
1.1294166384719471
 20
0.7730833676856337
 30
0.0
  9
$PEXTMAX
 10
10.164749746247541
 20
6.9577503091706978
 30
0.0
  9
$PLIMMIN
 10
-0.1979161059762549
 20
-0.2679166643638311
  9
$PLIMMAX
 10
11.49541659617987
 20
8.0004168307687351
  9
$UNITMODE
 70
     0
  9
$VISRETAIN
 70
     0
  9
$PLINEGEN
 70
     0
  9
$PSLTSCALE
 70
     0
  0
ENDSEC
  0
SECTION
  2
TABLES
  0
TABLE
  2
VPORT
 70
     1
  0
VPORT
  2
*ACTIVE
 70
     0
 10
0.0
 20
0.0
 11
1.0
 21
1.0
 12
-103.6574059020768
 22
161.2813083224805
 13
0.0
 23
0.0
 14
25.0
 24
25.0
 15
100.0
 25
100.0
 16
0.0
 26
0.0
 36
1.0
 17
2057.4809357017289
 27
2332.5223501042879
 37
0.0
 40
4927.1119939662567
 41
2.283132530120481
 42
50.0
 43
0.0
 44
0.0
 50
0.0
 51
0.0
 71
     0
 72
   100
 73
     1
 74
     0
 75
     0
 76
     0
 77
     0
 78
     0
  0
ENDTAB
  0
TABLE
  2
LTYPE
 70
     6
  0
LTYPE
  2
CONTINUOUS
 70
     0
  3
Solid line
 72
    65
 73
     0
 40
0.0
  0
LTYPE
  2
HIDDEN
 70
     0
  3
_ _ _ _ _ _ _ _ _ _ _ _ _ _ _ _ _ _ _ _ _ _ _
 72
    65
 73
     2
 40
0.375
 49
0.25
 49
-0.125
  0
LTYPE
  2
PHANTOM2
 70
     0
  3
Phantom (.5x) ___ _ _ ___ _ _ ___ _ _ ___ _ _
 72
    65
 73
     6
 40
1.25
 49
0.625
 49
-0.125
 49
0.125
 49
-0.125
 49
0.125
 49
-0.125
  0
LTYPE
  2
HIDDEN2
 70
     0
  3
Hidden (.5x) _ _ _ _ _ _ _ _ _ _ _ _ _ _ _ _ _
 72
    65
 73
     2
 40
0.1875
 49
0.125
 49
-0.0625
  0
LTYPE
  2
DASHED
 70
     0
  3
Dashed __ __ __ __ __ __ __ __ __ __ __ __ __ _
 72
    65
 73
     2
 40
0.75
 49
0.5
 49
-0.25
  0
LTYPE
  2
DOT
 70
     0
  3
Dot . . . . . . . . . . . . . . . . . . . . . .
 72
    65
 73
     2
 40
0.25
 49
0.0
 49
-0.25
  0
ENDTAB
  0
TABLE
  2
LAYER
 70
     1
  0
LAYER
  2
0
 70
     0
 62
     7
  6
CONTINUOUS
  0
ENDTAB
  0
TABLE
  2
STYLE
 70
     6
  0
STYLE
  2
STANDARD
 70
     0
 40
0.0
 41
1.0
 50
0.0
 71
     0
 42
0.2
  3
txt
  4

  0
STYLE
  2
ANNOTATIVE
 70
     0
 40
0.0
 41
1.0
 50
0.0
 71
     0
 42
0.2
  3
txt
  4

  0
STYLE
  2
TITLE3
 70
     0
 40
30.0
 41
1.0
 50
0.0
 71
     0
 42
30.0
  3
SIMPLEX
  4

  0
STYLE
  2
TITLE5
 70
     0
 40
50.0
 41
1.0
 50
0.0
 71
     0
 42
50.0
  3
SIMPLEX
  4

  0
STYLE
  2
SIMPLEX
 70
     0
 40
30.0
 41
1.0
 50
0.0
 71
     0
 42
25.0
  3
SIMPLEX.shx
  4

  0
STYLE
  2
TITLE
 70
     0
 40
60.0
 41
1.0
 50
0.0
 71
     0
 42
60.0
  3
simplex.shx
  4

  0
ENDTAB
  0
TABLE
  2
VIEW
 70
     0
  0
ENDTAB
  0
TABLE
  2
UCS
 70
     0
  0
ENDTAB
  0
TABLE
  2
APPID
 70
    21
  0
APPID
  2
ACAD
 70
     0
  0
APPID
  2
ACADANNOTATIVE
 70
     0
  0
APPID
  2
ACAD_MLEADERVER
 70
     0
  0
APPID
  2
GENIUS_GENDIM_13
 70
     0
  0
APPID
  2
GENIUS_GENDTOL_13
 70
     0
  0
APPID
  2
GENIUS_GE3DTOL_13
 70
     0
  0
APPID
  2
MCAD_NO_VIS
 70
     0
  0
APPID
  2
ACAD_TEMP_GRAPHIC
 70
     0
  0
APPID
  2
AD_DRAW
 70
     0
  0
APPID
  2
ACATTRIBSERVICES
 70
     0
  0
APPID
  2
ASURF_PCURVE_APPNAME
 70
     0
  0
APPID
  2
AMG_3D2D_5_0
 70
     0
  0
APPID
  2
DESIGNERASSEMBLIES
 70
     0
  0
APPID
  2
ACADM_DIM_EDIT
 70
     0
  0
APPID
  2
AMDT_DM_ADJ
 70
     0
  0
APPID
  2
ACAD_PSEXT
 70
     0
  0
APPID
  2
AMG_3D2D_5_00
 70
     0
  0
APPID
  2
ACAD_EXEMPT_FROM_CAD_STANDARDS
 70
     0
  0
APPID
  2
AMG_3D2D_5_01
 70
     0
  0
APPID
  2
ACAD_NAV_VCDISPLAY
 70
     0
  0
APPID
  2
ACAD_DSTYLE_DIMRADIAL_EXTENSION
 70
     0
  0
ENDTAB
  0
TABLE
  2
DIMSTYLE
 70
     3
  0
DIMSTYLE
  2
STANDARD
 70
     0
  3

  4

  5

  6

  7

 40
1.0
 41
0.18
 42
0.0625
 43
0.38
 44
0.18
 45
0.0
 46
0.0
 47
0.0
 48
0.0
140
0.18
141
0.09
142
0.0
143
25.399999999999999
144
1.0
145
0.0
146
1.0
147
0.09
 71
     0
 72
     0
 73
     1
 74
     1
 75
     0
 76
     0
 77
     0
 78
     0
170
     0
171
     2
172
     0
173
     0
174
     0
175
     0
176
     0
177
     0
178
     0
  0
DIMSTYLE
  2
ANNOTATIVE
 70
     0
  3

  4

  5

  6

  7

 40
1.0
 41
0.18
 42
0.0625
 43
0.38
 44
0.18
 45
0.0
 46
0.0
 47
0.0
 48
0.0
140
0.18
141
0.09
142
0.0
143
25.399999999999999
144
1.0
145
0.0
146
1.0
147
0.09
 71
     0
 72
     0
 73
     1
 74
     1
 75
     0
 76
     0
 77
     0
 78
     0
170
     0
171
     2
172
     0
173
     0
174
     0
175
     0
176
     0
177
     0
178
     0
  0
DIMSTYLE
  2
AM_ANSI
 70
     0
  3

  4
mm
  5

  6

  7

 40
1.0
 41
0.12
 42
0.05
 43
0.5
 44
0.1
 45
0.0
 46
0.0
 47
0.1
 48
0.1
140
0.12
141
0.0
142
0.0
143
25.399999999999999
144
1.0
145
0.0
146
0.71
147
0.06
 71
     0
 72
     0
 73
     1
 74
     1
 75
     0
 76
     0
 77
     0
 78
     7
170
     0
171
     2
172
     0
173
     0
174
     0
175
     0
176
   256
177
   256
178
     2
  0
ENDTAB
  0
ENDSEC
  0
SECTION
  2
BLOCKS
  0
BLOCK
  8
0
  2
$MODEL_SPACE
 70
     0
 10
0.0
 20
0.0
 30
0.0
  3
$MODEL_SPACE
  1

  0
ENDBLK
  5
95E7
  8
0
  0
BLOCK
 67
     1
  8
0
  2
$PAPER_SPACE
 70
     0
 10
0.0
 20
0.0
 30
0.0
  3
$PAPER_SPACE
  1

  0
ENDBLK
  5
95E3
 67
     1
  8
0
  0
ENDSEC
  0
SECTION
  2
ENTITIES
  0
LINE
  5
8200
  8
0
 62
     7
 10
17.492617917692652
 20
47.978447745559613
 30
0.0
 11
3890.0
 21
47.978447745559613
 31
0.0
  0
LINE
  5
8201
  8
0
 62
     7
 10
3890.0
 20
47.978447745559613
 30
0.0
 11
3890.0
 21
4939.5938071972751
 31
0.0
  0
LINE
  5
8203
  8
0
 62
     7
 10
17.492617917692652
 20
4939.593807197276
 30
0.0
 11
17.492617917692652
 21
47.978447745559613
 31
0.0
  0
TEXT
  5
8205
  8
0
 62
     7
 10
2752.253664782811
 20
3367.3208598574311
 30
0.0
 40
30.0
  1
2000 min CLEARANCE
  7
TITLE3
  0
LINE
  5
8212
  8
0
 62
     7
 10
2365.4807775940471
 20
219.8686565477351
 30
0.0
 11
2449.4807775940449
 21
219.8686565477351
 31
0.0
  0
SOLID
  5
8232
  8
0
 62
     7
 10
3160.1958401556831
 20
3754.4764207971639
 30
0.0
 11
3135.1958401556849
 21
3904.476420797168
 31
0.0
 12
3110.195840155684
 22
3754.4764207971639
 32
0.0
 13
3110.195840155684
 23
3754.4764207971639
 33
0.0
1001
ACAD
1000
DSTYLE
1002
{
1070
    41
1040
60.0
1070
    42
1040
40.0
1070
    44
1040
40.0
1070
    73
1070
     0
1070
    74
1070
     0
1070
   140
1040
60.0
1070
   147
1040
40.0
1070
   176
1070
    52
1070
   177
1070
    52
1070
   178
1070
    50
1070
   179
1070
     2
1070
   271
1070
     2
1070
   272
1070
     2
1070
   279
1070
     2
1070
   340
1005
FC6
1002
}
  0
LINE
  5
8233
  8
0
 62
     7
 10
2472.430777594047
 20
3974.190952834258
 30
0.0
 11
2472.430777594047
 21
4000.1909528342599
 31
0.0
  0
LINE
  5
8234
  8
0
 62
     7
 10
2342.530777594046
 20
3974.190952834258
 30
0.0
 11
2342.530777594046
 21
4000.190952834258
 31
0.0
  0
LINE
  5
8235
  8
0
 62
     7
 10
2342.530777594046
 20
3974.190952834258
 30
0.0
 11
2472.430777594047
 21
3974.190952834258
 31
0.0
  0
LINE
  5
8237
  8
0
 62
     7
 10
256.68066995773103
 20
3974.190952834258
 30
0.0
 11
256.68066995773091
 21
4736.1909528342549
 31
0.0
  0
LINE
  5
8238
  8
0
 62
     7
 10
276.63066995773198
 20
4709.5409528342543
 30
0.0
 11
289.68066995773358
 21
4709.5409528342543
 31
0.0
  0
LINE
  5
823C
  8
0
 62
     7
 10
276.63066995773198
 20
4709.5409528342543
 30
0.0
 11
276.63066995773198
 21
4717.4409528342549
 31
0.0
  0
LINE
  5
823E
  8
0
 62
     7
 10
276.63066995773198
 20
4000.3909528342579
 30
0.0
 11
289.68066995773358
 21
4000.3909528342579
 31
0.0
  0
LINE
  5
8242
  8
0
 62
     7
 10
276.63066995773198
 20
4000.3909528342579
 30
0.0
 11
276.63066995773198
 21
3992.940952834258
 31
0.0
  0
LINE
  5
8243
  8
0
 62
     7
 10
256.68066995773103
 20
3974.190952834258
 30
0.0
 11
257.88066995772999
 21
3974.190952834258
 31
0.0
  0
LINE
  5
8244
  8
0
 62
     7
 10
257.88066995772999
 20
3974.190952834258
 30
0.0
 11
276.63066995773198
 21
3992.940952834258
 31
0.0
  0
LINE
  5
824E
  8
0
 62
     7
 10
2204.4807775940449
 20
1412.8686565477351
 30
0.0
 11
2204.4807775940449
 21
252.86865654773609
 31
0.0
  0
LINE
  5
824F
  8
0
 62
     7
 10
3679.4807775940458
 20
252.86865654773521
 30
0.0
 11
2204.4807775940449
 21
252.86865654773609
 31
0.0
  0
LINE
  5
8250
  8
0
 62
     7
 10
3679.4807775940508
 20
1412.868656547734
 30
0.0
 11
3679.4807775940458
 21
252.86865654773521
 31
0.0
  0
LINE
  5
8255
  8
0
 62
     7
 10
1449.683010350351
 20
4710.1909528342549
 30
0.0
 11
289.68066995773358
 21
4710.1909528342594
 31
0.0
  0
LINE
  5
8256
  8
0
 62
     7
 10
1449.683010350351
 20
4000.190952834258
 30
0.0
 11
289.68066995773358
 21
4000.190952834258
 31
0.0
  0
LINE
  5
8257
  8
0
 62
     7
 10
289.68066995773358
 20
4710.1909528342594
 30
0.0
 11
289.68066995773358
 21
4000.190952834258
 31
0.0
  0
LINE
  5
8258
  8
0
 62
     7
 10
3679.4807775940449
 20
4710.1909528342549
 30
0.0
 11
3679.4807775940449
 21
4000.190952834258
 31
0.0
  0
LINE
  5
8259
  8
0
 62
     7
 10
2204.4807775940449
 20
4710.1909528342549
 30
0.0
 11
2204.4807775940449
 21
4000.190952834258
 31
0.0
  0
LINE
  5
825A
  8
0
 62
     7
 10
2204.4807775940449
 20
4000.190952834258
 30
0.0
 11
3679.4807775940449
 21
4000.190952834258
 31
0.0
  0
LINE
  5
825B
  8
0
 62
     7
 10
3679.4807775940449
 20
4710.1909528342549
 30
0.0
 11
2204.4807775940449
 21
4710.1909528342549
 31
0.0
  0
LINE
  5
825E
  8
0
 62
     7
 10
2204.4807775940449
 20
1412.8686565477351
 30
0.0
 11
3679.4807775940508
 21
1412.868656547734
 31
0.0
  0
LINE
  5
8260
  8
0
 62
     7
 10
1449.683010350351
 20
4710.1909528342549
 30
0.0
 11
1449.683010350351
 21
4000.1909528342571
 31
0.0
  0
LINE
  5
8267
  8
0
  6
PHANTOM2
 62
     7
 10
3679.4807775940449
 20
3975.190952834258
 30
0.0
 11
3679.4807775940449
 21
3500.190952834258
 31
0.0
  0
LINE
  5
8268
  8
0
  6
PHANTOM2
 62
     7
 10
2204.4807775940449
 20
3975.190952834259
 30
0.0
 11
2204.4807775940449
 21
3500.190952834259
 31
0.0
  0
LINE
  5
8269
  8
0
  6
PHANTOM2
 62
     7
 10
2204.4807775940449
 20
3500.190952834259
 30
0.0
 11
3679.4807775940449
 21
3500.190952834258
 31
0.0
  0
LINE
  5
826A
  8
0
  6
PHANTOM2
 62
     7
 10
1704.480777594044
 20
4710.1909528342549
 30
0.0
 11
1704.480777594044
 21
4000.190952834258
 31
0.0
  0
LINE
  5
826B
  8
0
  6
PHANTOM2
 62
     7
 10
2179.4807775940449
 20
4000.190952834258
 30
0.0
 11
1704.480777594044
 21
4000.190952834258
 31
0.0
  0
LINE
  5
826C
  8
0
  6
PHANTOM2
 62
     7
 10
2179.4807775940449
 20
4710.1909528342549
 30
0.0
 11
1704.480777594044
 21
4710.1909528342549
 31
0.0
  0
LINE
  5
826D
  8
0
  6
PHANTOM2
 62
     7
 10
3829.4807775940449
 20
4710.1909528342549
 30
0.0
 11
3829.4807775940449
 21
4000.190952834258
 31
0.0
  0
LINE
  5
826E
  8
0
  6
PHANTOM2
 62
     7
 10
3679.4807775940449
 20
4860.1909528342558
 30
0.0
 11
2204.4807775940449
 21
4860.1909528342567
 31
0.0
  0
LINE
  5
826F
  8
0
  6
PHANTOM2
 62
     7
 10
2204.4807775940449
 20
4735.1909528342567
 30
0.0
 11
2204.4807775940449
 21
4860.1909528342567
 31
0.0
  0
LINE
  5
8270
  8
0
  6
PHANTOM2
 62
     7
 10
3679.4807775940449
 20
4735.1909528342567
 30
0.0
 11
3679.4807775940449
 21
4860.1909528342558
 31
0.0
  0
LINE
  5
8271
  8
0
  6
PHANTOM2
 62
     7
 10
3829.4807775940449
 20
4000.190952834258
 30
0.0
 11
3704.4807775940449
 21
4000.190952834258
 31
0.0
  0
LINE
  5
8272
  8
0
  6
PHANTOM2
 62
     7
 10
3704.4807775940449
 20
4710.1909528342539
 30
0.0
 11
3829.4807775940449
 21
4710.1909528342549
 31
0.0
  0
LINE
  5
8273
  8
0
  6
PHANTOM2
 62
     7
 10
2204.4807775940449
 20
3412.8686565477351
 30
0.0
 11
3679.4807775940508
 21
3412.8686565477351
 31
0.0
  0
LINE
  5
8274
  8
0
  6
PHANTOM2
 62
     7
 10
2204.4807775940449
 20
1437.8686565477351
 30
0.0
 11
2204.4807775940449
 21
3412.8686565477351
 31
0.0
  0
LINE
  5
8275
  8
0
  6
PHANTOM2
 62
     7
 10
3679.4807775940508
 20
1437.868656547734
 30
0.0
 11
3679.4807775940508
 21
3412.8686565477351
 31
0.0
  0
TEXT
  5
8276
  8
0
 62
     7
 10
2670.9167601096751
 20
779.42502880780035
 30
0.0
 40
56.25
  1
OSA184RKTV
  7
TITLE5
 72
     1
 11
2933.4167601096751
 21
779.42502880780035
 31
0.0
  0
SOLID
  5
827E
  8
0
 62
     7
 10
3130.7307568842671
 20
1635.2064682791729
 30
0.0
 11
3105.7307568842671
 21
1785.206468279174
 31
0.0
 12
3080.7307568842662
 22
1635.2064682791729
 32
0.0
 13
3080.7307568842662
 23
1635.2064682791729
 33
0.0
1001
ACAD
1000
DSTYLE
1002
{
1070
    41
1040
60.0
1070
    42
1040
40.0
1070
    44
1040
40.0
1070
    73
1070
     0
1070
    74
1070
     0
1070
   140
1040
60.0
1070
   147
1040
40.0
1070
   176
1070
    52
1070
   177
1070
    52
1070
   178
1070
    50
1070
   179
1070
     2
1070
   271
1070
     2
1070
   272
1070
     2
1070
   279
1070
     2
1070
   340
1005
FC6
1002
}
  0
TEXT
  5
8283
  8
0
 62
     7
 10
1797.28968704047
 20
4225.1823510126123
 30
0.0
 40
30.0
  1
CLEARANCE
 50
90.0
  7
TITLE3
  0
TEXT
  5
8284
  8
0
 62
     7
 10
1745.861115611897
 20
4260.5418743219543
 30
0.0
 40
30.0
  1
500 min
 50
90.0
  7
TITLE3
  0
TEXT
  5
8285
  8
0
 62
     7
 10
2767.7460451793781
 20
3515.7387495245589
 30
0.0
 40
30.0
  1
500 min CLEARANCE
  7
TITLE3
  0
TEXT
  5
8286
  8
0
 62
     7
 10
3764.3091906985028
 20
4242.5315574637189
 30
0.0
 40
30.0
  1
CLEARANCE
 50
90.0
  7
TITLE3
  0
TEXT
  5
8287
  8
0
 62
     7
 10
580.26859960838931
 20
4329.9506723443892
 30
0.0
 40
56.25
  1
OSA184RKTV
  7
TITLE5
 72
     1
 11
842.76859960838942
 21
4329.9506723443892
 31
0.0
  0
TEXT
  5
8288
  8
0
 62
     7
 10
2574.9493470361749
 20
4419.0349287849258
 30
0.0
 40
56.25
  1
OSA
  7
TITLE5
 72
     1
 11
2652.627918464746
 21
4419.0349287849258
 31
0.0
  0
TEXT
  5
828A
  8
0
 62
     7
 10
2728.188129142753
 20
4809.8120010909206
 30
0.0
 40
30.0
  1
150 min CLEARANCE
  7
TITLE3
  0
LINE
  5
828B
  8
0
  6
HIDDEN2
 62
     7
 10
3405.280777594046
 20
4076.1909528342512
 30
0.0
 11
2460.4807775940499
 21
4076.1909528342512
 31
0.0
  0
LINE
  5
828C
  8
0
  6
HIDDEN2
 62
     7
 10
3405.280777594046
 20
4021.1909528342521
 30
0.0
 11
2460.4807775940458
 21
4021.1909528342521
 31
0.0
  0
ARC
  5
828D
  8
0
  6
HIDDEN2
 62
     7
 10
3405.280777594045
 20
4276.1909528342512
 30
0.0
 40
255.0
 50
270.0
 51
0.0
  0
ARC
  5
828E
  8
0
  6
HIDDEN2
 62
     7
 10
3405.280777594045
 20
4276.1909528342512
 30
0.0
 40
200.0
 50
270.0
 51
0.0
  0
LINE
  5
828F
  8
0
  6
HIDDEN2
 62
     7
 10
3605.280777594046
 20
4674.1909528342503
 30
0.0
 11
3605.280777594046
 21
4276.1909528342512
 31
0.0
  0
LINE
  5
8290
  8
0
  6
HIDDEN2
 62
     7
 10
3660.2807775940478
 20
4276.1909528342512
 30
0.0
 11
3660.2807775940478
 21
4675.3909528342529
 31
0.0
  0
LINE
  5
8291
  8
0
  6
HIDDEN2
 62
     7
 10
3605.280777594046
 20
4675.390952834251
 30
0.0
 11
3660.2807775940478
 21
4675.3909528342529
 31
0.0
  0
LINE
  5
8292
  8
0
  6
HIDDEN
 62
     7
 10
3605.280777594046
 20
4675.390952834251
 30
0.0
 11
3605.280777594046
 21
4674.1909528342503
 31
0.0
  0
LINE
  5
8293
  8
0
  6
HIDDEN
 62
     7
 10
2460.4807775940458
 20
4076.1909528342512
 30
0.0
 11
2460.4807775940458
 21
4021.1909528342521
 31
0.0
  0
TEXT
  5
8295
  8
0
 62
     7
 10
3815.737762127073
 20
4283.6053664873489
 30
0.0
 40
30.0
  1
150 min
 50
90.0
  7
TITLE3
  0
TEXT
  5
8430
  8
0
 62
     7
 10
81.480713155788635
 20
398.97482780208969
 30
0.0
 40
62.5
  1
temperzone OSA 184RKTV
  7
TITLE5
 72
     1
 11
704.99261791769322
 21
398.97482780208969
 31
0.0
  0
TEXT
  5
8431
  8
0
 62
     7
 10
229.9926179176924
 20
135.47844774555961
 30
0.0
 40
37.5
  1
OSA184RKTV
 41
1.035714285714286
  7
TITLE3
 72
     5
 11
592.49261791769266
 21
135.47844774555961
 31
0.0
  0
TEXT
  5
8432
  8
0
 62
     7
 10
906.24584895143585
 20
181.74605545508891
 30
0.0
 40
37.5
  1
29-08-12
 41
0.6913580246913587
  7
TITLE3
 72
     5
 11
1106.2458489514361
 21
181.74605545508891
 31
0.0
  0
TEXT
  5
8433
  8
0
 62
     7
 10
1170.7520487197301
 20
186.51746507068569
 30
0.0
 40
30.0
  1
: Date
  7
SIMPLEX
  0
TEXT
  5
8434
  8
0
 62
     7
 10
65.66402541636171
 20
209.8575752748236
 30
0.0
 40
30.0
  1
Revision
 41
0.7812095035934831
  7
SIMPLEX
 72
     5
 11
197.35362745069159
 21
209.8575752748236
 31
0.0
  0
LINE
  5
8435
  8
0
 62
     7
 10
211.8784304299956
 20
74.031563805956026
 30
0.0
 11
211.8784304299956
 21
258.31426738124247
 31
0.0
  0
LINE
  5
8436
  8
0
 62
     7
 10
1355.803206096258
 20
481.27794386248593
 30
0.0
 11
1355.803206096258
 21
74.031563805956026
 31
0.0
  0
LINE
  5
8437
  8
0
 62
     7
 10
608.85052040132587
 20
74.031563805956026
 30
0.0
 11
608.85052040132587
 21
258.31426738124247
 31
0.0
  0
LINE
  5
8438
  8
0
 62
     7
 10
608.85052040132587
 20
164.61919683238929
 30
0.0
 11
1355.803206096258
 21
164.61919683238929
 31
0.0
  0
LINE
  5
8439
  8
0
 62
     7
 10
53.023286370391808
 20
258.31426738124247
 30
0.0
 11
1355.803206096258
 21
258.31426738124247
 31
0.0
  0
LINE
  5
843A
  8
0
 62
     7
 10
1355.803206096258
 20
74.031563805956026
 30
0.0
 11
53.395170343328502
 21
74.031563805956026
 31
0.0
  0
LINE
  5
843B
  8
0
 62
     7
 10
53.395170343328502
 20
74.031563805956026
 30
0.0
 11
53.395170343328502
 21
481.27794386248593
 31
0.0
  0
LINE
  5
843C
  8
0
 62
     7
 10
53.395170343328502
 20
481.27794386248593
 30
0.0
 11
1355.803206096258
 21
481.27794386248593
 31
0.0
  0
TEXT
  5
843D
  8
0
 62
     7
 10
1172.022362644796
 20
107.8815578272567
 30
0.0
 40
25.0
  1
: Scale
 41
1.1673013972406829
  7
SIMPLEX
 72
     5
 11
1326.2729044230291
 21
107.8815578272567
 31
0.0
  0
TEXT
  5
843E
  8
0
 62
     7
 10
318.5615705595535
 20
209.09523712894651
 30
0.0
 40
25.0
  1
Drawing No.
  7
SIMPLEX
 72
     2
 11
536.41871341669628
 21
209.09523712894651
 31
0.0
  0
LINE
  5
85ED
  8
0
 62
     7
 10
3105.7307568842671
 20
1634.422599002372
 30
0.0
 11
3105.7307568842671
 21
1512.9733047479251
 31
0.0
1001
ACAD
1000
DSTYLE
1002
{
1070
    41
1040
60.0
1070
    42
1040
40.0
1070
    44
1040
40.0
1070
    73
1070
     0
1070
    74
1070
     0
1070
   140
1040
60.0
1070
   147
1040
40.0
1070
   176
1070
    52
1070
   177
1070
    52
1070
   178
1070
    50
1070
   179
1070
     2
1070
   271
1070
     2
1070
   272
1070
     2
1070
   279
1070
     2
1070
   340
1005
FC6
1002
}
  0
TEXT
  5
85EF
  8
0
 62
     7
 10
2851.1076116921122
 20
1650.299697955094
 30
0.0
 40
60.0
  1
AIR
  7
TITLE
  0
TEXT
  5
85F0
  8
0
 62
     7
 10
2803.9647545492548
 20
1550.299697955094
 30
0.0
 40
60.0
  1
FLOW
  7
TITLE
  0
LINE
  5
85F1
  8
0
 62
     7
 10
3135.1958401556849
 20
3753.6925515203611
 30
0.0
 11
3135.1958401556849
 21
3632.2432572659168
 31
0.0
1001
ACAD
1000
DSTYLE
1002
{
1070
    41
1040
60.0
1070
    42
1040
40.0
1070
    44
1040
40.0
1070
    73
1070
     0
1070
    74
1070
     0
1070
   140
1040
60.0
1070
   147
1040
40.0
1070
   176
1070
    52
1070
   177
1070
    52
1070
   178
1070
    50
1070
   179
1070
     2
1070
   271
1070
     2
1070
   272
1070
     2
1070
   279
1070
     2
1070
   340
1005
FC6
1002
}
  0
TEXT
  5
85F2
  8
0
 62
     7
 10
2884.032570800759
 20
3815.946201175183
 30
0.0
 40
60.0
  1
AIR
  7
TITLE
  0
TEXT
  5
85F3
  8
0
 62
     7
 10
2836.8897136579021
 20
3715.9462011751871
 30
0.0
 40
60.0
  1
FLOW
  7
TITLE
  0
TEXT
  5
85F4
  8
0
 62
     7
 10
57.83346852303093
 20
550.60410132343554
 30
0.0
 40
31.25
  1
available on request
  7
TITLE3
  0
TEXT
  5
85F5
  8
0
 62
     7
 10
57.83346852303093
 20
604.1755298948641
 30
0.0
 40
31.25
  1
Certified dimensions
  7
TITLE3
  0
TEXT
  5
85F6
  8
0
 62
     7
 10
57.83346852303093
 20
657.74695846629265
 30
0.0
 40
31.25
  1
without notice or obligation.
  7
TITLE3
  0
TEXT
  5
85F7
  8
0
 62
     7
 10
57.83346852303093
 20
711.31838703772121
 30
0.0
 40
31.25
  1
specifications at any time
  7
TITLE3
  0
TEXT
  5
85F8
  8
0
 62
     7
 10
57.83346852303093
 20
764.88981560914965
 30
0.0
 40
31.25
  1
the right to change 
  7
TITLE3
  0
TEXT
  5
85F9
  8
0
 62
     7
 10
57.83346852303093
 20
872.03267275200596
 30
0.0
 40
31.25
  1
NOTE
  7
TITLE3
  0
TEXT
  5
85FA
  8
0
 62
     7
 10
57.83346852303093
 20
818.46124418057775
 30
0.0
 40
31.25
  1
The manufacturer reserves
  7
TITLE3
  0
TEXT
  5
862B
  8
0
 62
     7
 10
2475.8422041790318
 20
4340.9502420105282
 30
0.0
 40
56.25
  1
184RKTV
  7
TITLE5
 72
     1
 11
2652.627918464746
 21
4340.9502420105282
 31
0.0
  0
LINE
  5
8666
  8
0
 62
     7
 10
2365.4807775940471
 20
219.8686565477351
 30
0.0
 11
2339.9807775940449
 21
252.86865654773521
 31
0.0
  0
LINE
  5
8667
  8
0
 62
     7
 10
2449.4807775940449
 20
219.8686565477351
 30
0.0
 11
2474.9807775940449
 21
252.86865654773521
 31
0.0
  0
LINE
  5
866B
  8
0
 62
     7
 10
3516.4807775940449
 20
219.8686565477351
 30
0.0
 11
3432.4807775940458
 21
219.8686565477351
 31
0.0
  0
LINE
  5
866F
  8
0
 62
     7
 10
3516.4807775940449
 20
219.8686565477351
 30
0.0
 11
3541.9807775940449
 21
252.86865654773521
 31
0.0
  0
LINE
  5
8670
  8
0
 62
     7
 10
3432.4807775940458
 20
219.8686565477351
 30
0.0
 11
3406.9807775940449
 21
252.86865654773521
 31
0.0
  0
LINE
  5
86BB
  8
0
 62
     7
 10
2204.4807775940449
 20
232.8686565477359
 30
0.0
 11
2204.4807775940449
 21
85.254173768594995
 31
0.0
  0
LINE
  5
86BC
  8
0
 62
     7
 10
3679.4807775940458
 20
232.86865654773499
 30
0.0
 11
3679.4807775940458
 21
85.254173768594043
 31
0.0
  0
LINE
  5
86BD
  8
0
 62
     7
 10
2234.4807775940449
 20
105.254173768595
 30
0.0
 11
2818.1250687478459
 21
105.2541737685942
 31
0.0
  0
LINE
  5
86BE
  8
0
 62
     7
 10
3649.4807775940449
 20
105.2541737685942
 30
0.0
 11
3055.5623957013231
 21
105.2541737685942
 31
0.0
  0
SOLID
  5
86BF
  8
0
 62
     7
 10
2234.4807775940449
 20
110.2541737685949
 30
0.0
 11
2234.4807775940449
 21
100.25417376859509
 31
0.0
 12
2204.4807775940449
 22
105.254173768595
 32
0.0
 13
2204.4807775940449
 23
105.254173768595
 33
0.0
  0
SOLID
  5
86C0
  8
0
 62
     7
 10
3649.4807775940449
 20
110.254173768594
 30
0.0
 11
3649.4807775940449
 21
100.2541737685942
 31
0.0
 12
3679.4807775940458
 22
105.2541737685942
 32
0.0
 13
3679.4807775940458
 23
105.2541737685942
 33
0.0
  0
LINE
  5
86C2
  8
0
 62
     7
 10
2407.4807775940458
 20
189.86865654773521
 30
0.0
 11
2407.4807775940458
 21
147.24165461869501
 31
0.0
  0
LINE
  5
86C3
  8
0
 62
     7
 10
3474.4807775940449
 20
189.86865654773521
 30
0.0
 11
3474.4807775940449
 21
147.24165461869501
 31
0.0
  0
LINE
  5
86C4
  8
0
 62
     7
 10
2437.4807775940471
 20
167.24165461869501
 30
0.0
 11
2805.4097285764501
 21
167.24165461869501
 31
0.0
  0
LINE
  5
86C5
  8
0
 62
     7
 10
3444.4807775940458
 20
167.24165461869501
 30
0.0
 11
3065.4097285764501
 21
167.24165461869501
 31
0.0
  0
SOLID
  5
86C6
  8
0
 62
     7
 10
2437.4807775940471
 20
172.24165461869501
 30
0.0
 11
2437.4807775940471
 21
162.24165461869501
 31
0.0
 12
2407.4807775940458
 22
167.24165461869501
 32
0.0
 13
2407.4807775940458
 23
167.24165461869501
 33
0.0
  0
SOLID
  5
86C7
  8
0
 62
     7
 10
3444.4807775940458
 20
172.24165461869501
 30
0.0
 11
3444.4807775940458
 21
162.24165461869501
 31
0.0
 12
3474.4807775940449
 22
167.24165461869501
 32
0.0
 13
3474.4807775940449
 23
167.24165461869501
 33
0.0
  0
LINE
  5
86C9
  8
0
 62
     7
 10
2601.6875821849239
 20
1489.8663161551151
 30
0.0
 11
2062.0884901159711
 21
1489.8663161551151
 31
0.0
  0
LINE
  5
86CA
  8
0
 62
     7
 10
2345.480777594048
 20
219.8686565477351
 30
0.0
 11
2062.0884901159711
 21
219.86865654773621
 31
0.0
  0
LINE
  5
86CB
  8
0
 62
     7
 10
2082.0884901159711
 20
1459.8663161551151
 30
0.0
 11
2082.0884901159689
 21
984.82361813629609
 31
0.0
  0
LINE
  5
86CC
  8
0
 62
     7
 10
2082.0884901159689
 20
249.86865654773621
 30
0.0
 11
2082.0884901159689
 21
744.82361813629643
 31
0.0
  0
SOLID
  5
86CD
  8
0
 62
     7
 10
2077.0884901159711
 20
1459.8663161551151
 30
0.0
 11
2087.0884901159711
 21
1459.8663161551151
 31
0.0
 12
2082.0884901159711
 22
1489.8663161551151
 32
0.0
 13
2082.0884901159711
 23
1489.8663161551151
 33
0.0
  0
SOLID
  5
86CE
  8
0
 62
     7
 10
2077.0884901159689
 20
249.86865654773621
 30
0.0
 11
2087.0884901159711
 21
249.86865654773621
 31
0.0
 12
2082.0884901159689
 22
219.86865654773621
 32
0.0
 13
2082.0884901159689
 23
219.86865654773621
 33
0.0
  0
CIRCLE
  5
86F4
  8
0
 10
2661.978913538263
 20
4393.6928168900404
 30
0.0
 40
303.4981359442163
  0
CIRCLE
  5
86F5
  8
0
 10
3301.975185426697
 20
4393.6928168900404
 30
0.0
 40
303.49813594421568
  0
LINE
  5
871B
  8
0
 62
     7
 10
1474.6830103503501
 20
4710.1909528342549
 30
0.0
 11
1620.8075658007481
 21
4710.1909528342549
 31
0.0
  0
LINE
  5
871C
  8
0
 62
     7
 10
1474.6830103503501
 20
4000.190952834258
 30
0.0
 11
1620.8075658007481
 21
4000.190952834258
 31
0.0
  0
LINE
  5
871D
  8
0
 62
     7
 10
1600.8075658007481
 20
4680.1909528342539
 30
0.0
 11
1600.8075658007481
 21
4407.611615965584
 31
0.0
  0
LINE
  5
871E
  8
0
 62
     7
 10
1600.8075658007481
 20
4030.1909528342562
 30
0.0
 11
1600.8075658007481
 21
4319.4066756677357
 31
0.0
  0
SOLID
  5
871F
  8
0
 62
     7
 10
1595.8075658007481
 20
4680.1909528342539
 30
0.0
 11
1605.8075658007469
 21
4680.1909528342539
 31
0.0
 12
1600.8075658007481
 22
4710.1909528342549
 32
0.0
 13
1600.8075658007481
 23
4710.1909528342549
 33
0.0
  0
SOLID
  5
8720
  8
0
 62
     7
 10
1595.8075658007481
 20
4030.1909528342562
 30
0.0
 11
1605.8075658007469
 21
4030.1909528342562
 31
0.0
 12
1600.8075658007481
 22
4000.190952834258
 32
0.0
 13
1600.8075658007481
 23
4000.190952834258
 33
0.0
  0
LINE
  5
8722
  8
0
 62
     7
 10
231.68066995773091
 20
4736.1909528342576
 30
0.0
 11
102.41113248432779
 21
4736.1909528342576
 31
0.0
  0
LINE
  5
8723
  8
0
 62
     7
 10
231.680669957731
 20
3974.190952834258
 30
0.0
 11
102.41113248432779
 21
3974.190952834258
 31
0.0
  0
LINE
  5
8724
  8
0
 62
     7
 10
122.41113248432779
 20
4706.1909528342576
 30
0.0
 11
122.41113248432779
 21
4441.7589121158817
 31
0.0
  0
LINE
  5
8725
  8
0
 62
     7
 10
122.41113248432779
 20
4004.190952834259
 30
0.0
 11
122.41113248432779
 21
4216.0875616084104
 31
0.0
  0
SOLID
  5
8726
  8
0
 62
     7
 10
117.41113248432769
 20
4706.1909528342576
 30
0.0
 11
127.41113248432779
 21
4706.1909528342576
 31
0.0
 12
122.41113248432779
 22
4736.1909528342576
 32
0.0
 13
122.41113248432779
 23
4736.1909528342576
 33
0.0
  0
SOLID
  5
8727
  8
0
 62
     7
 10
117.41113248432769
 20
4004.190952834259
 30
0.0
 11
127.41113248432779
 21
4004.190952834259
 31
0.0
 12
122.41113248432779
 22
3974.190952834258
 32
0.0
 13
122.41113248432779
 23
3974.190952834258
 33
0.0
  0
LINE
  5
8754
  8
0
 62
     7
 10
246.68066995773091
 20
3994.190952834259
 30
0.0
 11
266.68066995773131
 21
3994.1909528342571
 31
0.0
  0
LINE
  5
8758
  8
0
 62
     7
 10
226.5101241497797
 20
4716.1909528342549
 30
0.0
 11
178.92563146549421
 21
4716.1909528342549
 31
0.0
  0
LINE
  5
8759
  8
0
 62
     7
 10
226.68066995773111
 20
3994.190952834259
 30
0.0
 11
179.09617727347251
 21
3994.190952834259
 31
0.0
  0
LINE
  5
875A
  8
0
 62
     7
 10
199.09617727347239
 20
4686.1909528342539
 30
0.0
 11
199.09617727347239
 21
4555.7079400436323
 31
0.0
  0
LINE
  5
875B
  8
0
 62
     7
 10
199.09617727347259
 20
4024.190952834259
 30
0.0
 11
199.09617727347259
 21
4170.6273245985922
 31
0.0
  0
SOLID
  5
875C
  8
0
 62
     7
 10
193.9256314654944
 20
4686.1909528342539
 30
0.0
 11
203.92563146549421
 21
4686.1909528342539
 31
0.0
 12
198.92563146549421
 22
4716.1909528342549
 32
0.0
 13
198.92563146549421
 23
4716.1909528342549
 33
0.0
  0
SOLID
  5
875D
  8
0
 62
     7
 10
194.09617727347279
 20
4024.190952834259
 30
0.0
 11
204.09617727347259
 21
4024.190952834259
 31
0.0
 12
199.09617727347259
 22
3994.190952834259
 32
0.0
 13
199.09617727347259
 23
3994.190952834259
 33
0.0
  0
LINE
  5
875F
  8
0
 62
     7
 10
2407.4807775940458
 20
209.8686565477351
 30
0.0
 11
2407.4807775940458
 21
229.86865654773521
 31
0.0
  0
LINE
  5
8762
  8
0
 62
     7
 10
3474.4807775940449
 20
209.8686565477351
 30
0.0
 11
3474.4807775940449
 21
229.86865654773521
 31
0.0
  0
LINE
  5
8792
  8
0
 62
     7
 10
226.5101241497797
 20
4716.1909528342549
 30
0.0
 11
179.096177273465
 21
4716.1909528342549
 31
0.0
  0
LINE
  5
8799
  8
0
 62
     7
 10
2407.4807775940458
 20
189.86865654773521
 30
0.0
 11
2407.4807775940458
 21
147.30772473892
 31
0.0
  0
LINE
  5
879A
  8
0
 62
     7
 10
2204.4807775940449
 20
232.8686565477359
 30
0.0
 11
2204.4807775940449
 21
147.30772473892091
 31
0.0
  0
LINE
  5
879B
  8
0
 62
     7
 10
2377.4807775940449
 20
167.30772473892
 30
0.0
 11
2234.4807775940449
 21
167.30772473892091
 31
0.0
  0
LINE
  5
879C
  8
0
 62
     7
 10
2204.4807775940449
 20
167.30772473892091
 30
0.0
 11
2174.4807775940458
 21
167.30772473892091
 31
0.0
  0
SOLID
  5
879D
  8
0
 62
     7
 10
2377.4807775940449
 20
172.30772473891989
 30
0.0
 11
2377.4807775940449
 21
162.30772473892
 31
0.0
 12
2407.4807775940458
 22
167.30772473892
 32
0.0
 13
2407.4807775940458
 23
167.30772473892
 33
0.0
  0
SOLID
  5
879E
  8
0
 62
     7
 10
2234.4807775940449
 20
172.30772473892091
 30
0.0
 11
2234.4807775940449
 21
162.30772473892091
 31
0.0
 12
2204.4807775940449
 22
167.30772473892091
 32
0.0
 13
2204.4807775940449
 23
167.30772473892091
 33
0.0
  0
LINE
  5
8942
  8
0
 10
3890.0
 20
4939.5938071972751
 30
0.0
 11
17.492617917692652
 21
4939.593807197276
 31
0.0
  0
TEXT
  5
8946
  8
0
 62
     7
 10
214.0961772734718
 20
4190.9148938849457
 30
0.0
 40
30.0
  1
722 MTG CTRS
 50
90.0
  0
TEXT
  5
8947
  8
0
 62
     7
 10
137.4111324843272
 20
4229.986990835615
 30
0.0
 40
30.0
  1
762 O/D
 50
90.0
  0
TEXT
  5
8948
  8
0
 62
     7
 10
1615.8075658007469
 20
4328.1366814509329
 30
0.0
 40
30.0
  1
710
 50
90.0
  0
TEXT
  5
8949
  8
0
 62
     7
 10
2089.137938713724
 20
152.307724738921
 30
0.0
 40
30.0
  1
203
  0
TEXT
  5
894A
  8
0
 62
     7
 10
2097.0884901159689
 20
758.43434967561495
 30
0.0
 40
30.0
  1
1270 O/A
 50
90.0
  0
TEXT
  5
894B
  8
0
 62
     7
 10
2813.8505293145122
 20
152.24165461869501
 30
0.0
 40
30.0
  1
1067 CTRS
  0
TEXT
  5
894C
  8
0
 62
     7
 10
2826.1717335646008
 20
90.254173768594057
 30
0.0
 40
30.0
  1
1475 O/D
  0
POLYLINE
  5
9073
  8
0
 66
     1
 10
0.0
 20
0.0
 30
0.0
 70
     1
  0
VERTEX
  5
9625
  8
0
 10
1461.684208703181
 20
4697.1909528342549
 30
0.0
  0
VERTEX
  5
9626
  8
0
 10
1461.684208703181
 20
4090.1946809458241
 30
0.0
  0
VERTEX
  5
9627
  8
0
 10
1449.683010350351
 20
4090.1946809458241
 30
0.0
  0
VERTEX
  5
9628
  8
0
 10
1449.683010350351
 20
4697.1909528342549
 30
0.0
  0
SEQEND
  5
9629
  8
0
  0
LINE
  5
9080
  8
0
 10
1526.680669957731
 20
4443.6930524579157
 30
0.0
 11
1526.680669957731
 21
4343.6925813221633
 31
0.0
  0
LINE
  5
9081
  8
0
 10
1526.680669957731
 20
4343.6925813221633
 30
0.0
 11
1487.6842087031821
 21
4343.6925813221633
 31
0.0
  0
LINE
  5
9083
  8
0
 10
1487.6842087031821
 20
4443.6930524579157
 30
0.0
 11
1526.680669957731
 21
4443.6930524579157
 31
0.0
  0
LINE
  5
9087
  8
0
 10
1490.7718864319761
 20
4373.7971898332471
 30
0.0
 11
1461.684208703181
 21
4091.1946809458241
 31
0.0
  0
LINE
  5
9088
  8
0
 10
1490.7718864319761
 20
4412.5884439468327
 30
0.0
 11
1461.684208703181
 21
4697.1909528342549
 31
0.0
  0
LINE
  5
908D
  8
0
 10
1490.7718864319761
 20
4373.7971898332471
 30
0.0
 11
1490.7718864319761
 21
4413.5884439468318
 31
0.0
  0
LINE
  5
90F2
  8
0
 62
     7
 10
3539.430777594046
 20
3974.190952834258
 30
0.0
 11
3539.430777594046
 21
4000.1909528342599
 31
0.0
  0
LINE
  5
90F3
  8
0
 62
     7
 10
3409.530777594046
 20
3974.190952834258
 30
0.0
 11
3409.530777594046
 21
4000.190952834258
 31
0.0
  0
LINE
  5
90F4
  8
0
 62
     7
 10
3409.530777594046
 20
3974.190952834258
 30
0.0
 11
3539.430777594046
 21
3974.190952834258
 31
0.0
  0
LINE
  5
90F6
  8
0
 62
     7
 10
2472.430777594047
 20
4736.1909528342576
 30
0.0
 11
2472.430777594047
 21
4710.1909528342539
 31
0.0
  0
LINE
  5
90F7
  8
0
 62
     7
 10
2342.530777594046
 20
4736.1909528342576
 30
0.0
 11
2342.530777594046
 21
4710.1909528342549
 31
0.0
  0
LINE
  5
90F8
  8
0
 62
     7
 10
2342.530777594046
 20
4736.1909528342576
 30
0.0
 11
2472.430777594047
 21
4736.1909528342576
 31
0.0
  0
LINE
  5
90F9
  8
0
 62
     7
 10
3539.430777594046
 20
4736.1909528342576
 30
0.0
 11
3539.430777594046
 21
4710.1909528342539
 31
0.0
  0
LINE
  5
90FA
  8
0
 62
     7
 10
3409.530777594046
 20
4736.1909528342576
 30
0.0
 11
3409.530777594046
 21
4710.1909528342549
 31
0.0
  0
LINE
  5
90FB
  8
0
 62
     7
 10
3409.530777594046
 20
4736.1909528342576
 30
0.0
 11
3539.430777594046
 21
4736.1909528342576
 31
0.0
  0
POLYLINE
  5
9103
  8
0
 66
     1
 10
0.0
 20
0.0
 30
0.0
 70
     1
  0
VERTEX
  5
962A
  8
0
 10
2358.4807775940458
 20
1424.8698549005651
 30
0.0
  0
VERTEX
  5
962B
  8
0
 10
2965.4770494824788
 20
1424.8698549005651
 30
0.0
  0
VERTEX
  5
962C
  8
0
 10
2965.4770494824788
 20
1412.8686565477351
 30
0.0
  0
VERTEX
  5
962D
  8
0
 10
2358.4807775940458
 20
1412.8686565477351
 30
0.0
  0
SEQEND
  5
962E
  8
0
  0
LINE
  5
9104
  8
0
 10
2611.9786779703859
 20
1489.8663161551151
 30
0.0
 11
2711.9791491061401
 21
1489.8663161551151
 31
0.0
  0
LINE
  5
9105
  8
0
 10
2711.9791491061401
 20
1489.8663161551151
 30
0.0
 11
2711.9791491061401
 21
1450.8698549005651
 31
0.0
  0
LINE
  5
9106
  8
0
 10
2611.9786779703859
 20
1450.8698549005651
 30
0.0
 11
2611.9786779703859
 21
1489.8663161551151
 31
0.0
  0
LINE
  5
9107
  8
0
 10
2681.8745405950558
 20
1453.95753262936
 30
0.0
 11
2965.4770494824788
 21
1424.8698549005651
 31
0.0
  0
LINE
  5
9108
  8
0
 10
2642.0832864814711
 20
1453.95753262936
 30
0.0
 11
2358.4807775940458
 21
1424.8698549005651
 31
0.0
  0
LINE
  5
9109
  8
0
 10
2681.8745405950558
 20
1453.95753262936
 30
0.0
 11
2642.0832864814711
 21
1453.95753262936
 31
0.0
  0
POLYLINE
  5
910C
  8
0
 66
     1
 10
0.0
 20
0.0
 30
0.0
 70
     1
  0
VERTEX
  5
962F
  8
0
 10
2998.4770494824802
 20
1424.8698549005651
 30
0.0
  0
VERTEX
  5
9630
  8
0
 10
3605.4733213709142
 20
1424.8698549005651
 30
0.0
  0
VERTEX
  5
9631
  8
0
 10
3605.4733213709142
 20
1412.8686565477351
 30
0.0
  0
VERTEX
  5
9632
  8
0
 10
2998.4770494824802
 20
1412.8686565477351
 30
0.0
  0
SEQEND
  5
9633
  8
0
  0
LINE
  5
910D
  8
0
 10
3251.974949858818
 20
1489.866316155114
 30
0.0
 11
3351.9754209945731
 21
1489.866316155114
 31
0.0
  0
LINE
  5
910E
  8
0
 10
3351.9754209945731
 20
1489.866316155114
 30
0.0
 11
3351.9754209945731
 21
1450.8698549005651
 31
0.0
  0
LINE
  5
910F
  8
0
 10
3251.974949858818
 20
1450.8698549005651
 30
0.0
 11
3251.974949858818
 21
1489.866316155114
 31
0.0
  0
LINE
  5
9110
  8
0
 10
3321.8708124834889
 20
1453.9575326293591
 30
0.0
 11
3605.4733213709142
 21
1424.8698549005651
 31
0.0
  0
LINE
  5
9111
  8
0
 10
3282.0795583699041
 20
1453.9575326293591
 30
0.0
 11
2998.4770494824802
 21
1424.8698549005651
 31
0.0
  0
LINE
  5
9112
  8
0
 10
3321.8708124834889
 20
1453.9575326293591
 30
0.0
 11
3282.0795583699041
 21
1453.9575326293591
 31
0.0
  0
LINE
  5
9181
  8
0
 62
     7
 10
256.68066995773103
 20
4736.1909528342549
 30
0.0
 11
257.88066995772999
 21
4736.1909528342549
 31
0.0
  0
LINE
  5
9182
  8
0
 62
     7
 10
257.88066995772999
 20
4736.1909528342549
 30
0.0
 11
276.63066995773198
 21
4717.4409528342549
 31
0.0
  0
LINE
  5
9183
  8
0
 62
     7
 10
246.6806699577308
 20
4716.1909528342549
 30
0.0
 11
266.6806699577312
 21
4716.1909528342567
 31
0.0
  0
LINE
  5
9189
  8
0
 62
     7
 10
185.5366297600454
 20
3974.190952834258
 30
0.0
 11
137.95213707576011
 21
3974.190952834258
 31
0.0
  0
LINE
  5
918A
  8
0
 62
     7
 10
185.7071755679965
 20
3994.190952834259
 30
0.0
 11
138.12268288373801
 21
3994.190952834259
 31
0.0
  0
LINE
  5
918B
  8
0
 62
     7
 10
158.12268288373809
 20
3944.190952834258
 30
0.0
 11
158.12268288373809
 21
3917.3845831428398
 31
0.0
  0
SOLID
  5
918D
  8
0
 62
     7
 10
152.95213707576031
 20
3944.190952834258
 30
0.0
 11
162.95213707576011
 21
3944.190952834258
 31
0.0
 12
157.95213707576011
 22
3974.190952834258
 32
0.0
 13
157.95213707576011
 23
3974.190952834258
 33
0.0
  0
SOLID
  5
918E
  8
0
 62
     7
 10
153.12268288373829
 20
4024.190952834259
 30
0.0
 11
163.12268288373809
 21
4024.190952834259
 31
0.0
 12
158.12268288373809
 22
3994.190952834259
 32
0.0
 13
158.12268288373809
 23
3994.190952834259
 33
0.0
  0
LINE
  5
918F
  8
0
 62
     7
 10
185.5366297600454
 20
3974.190952834258
 30
0.0
 11
138.12268288373079
 21
3974.190952834258
 31
0.0
  0
TEXT
  5
9190
  8
0
 62
     7
 10
173.1226828837373
 20
3859.0711844825819
 30
0.0
 40
30.0
  1
20
 50
90.0
  0
LINE
  5
91A5
  8
0
 62
     7
 10
158.12268288373821
 20
4050.9973225256772
 30
0.0
 11
158.12268288373821
 21
4024.190952834259
 31
0.0
  0
VIEWPORT
  5
900C
 67
     1
  8
0
 10
5.648750245101807
 20
3.8662500832024511
 30
0.0
 40
19.972607840634009
 41
8.7478968378502522
 68
     1
 69
     1
1001
ACAD
1000
MVIEW
1002
{
1070
    16
1010
0.0
1020
0.0
1030
0.0
1010
0.0
1020
0.0
1030
1.0
1040
0.0
1040
8.7478968378502522
1040
5.648750245101807
1040
3.8662500832024511
1040
50.0
1040
0.0
1040
0.0
1070
     0
1070
   100
1070
     1
1070
     1
1070
     0
1070
     0
1070
     0
1070
     0
1040
0.0
1040
0.0
1040
0.0
1040
10.0
1040
10.0
1040
10.0
1040
10.0
1070
     0
1002
{
1002
}
1002
}
  0
VIEWPORT
  5
9010
 67
     1
  8
0
 10
5.6470831923597444
 20
3.8654168384281662
 30
0.0
 40
9.0353331077755925
 41
6.184666941485065
 68
     2
 69
     2
1001
ACAD
1000
MVIEW
1002
{
1070
    16
1010
0.0
1020
0.0
1030
0.0
1010
0.0
1020
0.0
1030
1.0
1040
0.0
1040
4713.100285012325
1040
2057.5437465944428
1040
2332.3444419077209
1040
50.0
1040
0.0
1040
0.0
1070
     0
1070
   100
1070
     1
1070
     1
1070
     0
1070
     0
1070
     0
1070
     0
1040
0.0
1040
0.0
1040
0.0
1040
10.0
1040
10.0
1040
10.0
1040
10.0
1070
     0
1002
{
1002
}
1002
}
  0
ENDSEC
  0
EOF
