  0
SECTION
  2
HEADER
  9
$ACADVER
  1
AC1009
  9
$INSBASE
 10
0.0
 20
0.0
 30
0.0
  9
$EXTMIN
 10
17.456114249025632
 20
-202.09756911908701
 30
-0.0000000349181948
  9
$EXTMAX
 10
4854.2775257868043
 20
4820.600101987
 30
0.0000000814935747
  9
$LIMMIN
 10
0.0
 20
0.0
  9
$LIMMAX
 10
3890.0
 20
2660.0
  9
$ORTHOMODE
 70
     1
  9
$REGENMODE
 70
     1
  9
$FILLMODE
 70
     1
  9
$QTEXTMODE
 70
     0
  9
$MIRRTEXT
 70
     0
  9
$DRAGMODE
 70
     2
  9
$LTSCALE
 40
300.0
  9
$OSMODE
 70
  3071
  9
$ATTMODE
 70
     1
  9
$TEXTSIZE
 40
30.0
  9
$TRACEWID
 40
0.05
  9
$TEXTSTYLE
  7
TITLE3
  9
$CLAYER
  8
0
  9
$CELTYPE
  6
BYLAYER
  9
$CECOLOR
 62
   256
  9
$DIMSCALE
 40
1.0
  9
$DIMASZ
 40
0.18
  9
$DIMEXO
 40
0.0625
  9
$DIMDLI
 40
0.38
  9
$DIMRND
 40
0.0
  9
$DIMDLE
 40
0.0
  9
$DIMEXE
 40
0.18
  9
$DIMTP
 40
0.0
  9
$DIMTM
 40
0.0
  9
$DIMTXT
 40
0.18
  9
$DIMCEN
 40
0.09
  9
$DIMTSZ
 40
0.0
  9
$DIMTOL
 70
     0
  9
$DIMLIM
 70
     0
  9
$DIMTIH
 70
     1
  9
$DIMTOH
 70
     1
  9
$DIMSE1
 70
     0
  9
$DIMSE2
 70
     0
  9
$DIMTAD
 70
     0
  9
$DIMZIN
 70
     0
  9
$DIMBLK
  1

  9
$DIMASO
 70
     0
  9
$DIMSHO
 70
     0
  9
$DIMPOST
  1

  9
$DIMAPOST
  1

  9
$DIMALT
 70
     0
  9
$DIMALTD
 70
     2
  9
$DIMALTF
 40
25.399999999999999
  9
$DIMLFAC
 40
1.0
  9
$DIMTOFL
 70
     0
  9
$DIMTVP
 40
0.0
  9
$DIMTIX
 70
     0
  9
$DIMSOXD
 70
     0
  9
$DIMSAH
 70
     0
  9
$DIMBLK1
  1

  9
$DIMBLK2
  1

  9
$DIMSTYLE
  2
ANNOTATIVE
  9
$DIMCLRD
 70
     0
  9
$DIMCLRE
 70
     0
  9
$DIMCLRT
 70
     0
  9
$DIMTFAC
 40
1.0
  9
$DIMGAP
 40
0.09
  9
$LUNITS
 70
     2
  9
$LUPREC
 70
     2
  9
$SKETCHINC
 40
0.1
  9
$FILLETRAD
 40
0.0
  9
$AUNITS
 70
     0
  9
$AUPREC
 70
     2
  9
$MENU
  1
\acad12\support\cnc
  9
$ELEVATION
 40
0.0
  9
$PELEVATION
 40
0.0
  9
$THICKNESS
 40
0.0
  9
$LIMCHECK
 70
     0
  9
$BLIPMODE
 70
     0
  9
$CHAMFERA
 40
20.0
  9
$CHAMFERB
 40
20.0
  9
$SKPOLY
 70
     0
  9
$TDCREATE
 40
2450610.4026309028
  9
$TDUPDATE
 40
2456448.602440509
  9
$TDINDWG
 40
0.5707086343
  9
$TDUSRTIMER
 40
0.5707060417000001
  9
$USRTIMER
 70
     1
  9
$ANGBASE
 50
0.0
  9
$ANGDIR
 70
     0
  9
$PDMODE
 70
     2
  9
$PDSIZE
 40
10.0
  9
$PLINEWID
 40
2.0
  9
$COORDS
 70
     1
  9
$SPLFRAME
 70
     0
  9
$SPLINETYPE
 70
     6
  9
$SPLINESEGS
 70
     8
  9
$ATTDIA
 70
     1
  9
$ATTREQ
 70
     1
  9
$HANDLING
 70
     1
  9
$HANDSEED
  5
A87C
  9
$SURFTAB1
 70
     6
  9
$SURFTAB2
 70
     6
  9
$SURFTYPE
 70
     6
  9
$SURFU
 70
     6
  9
$SURFV
 70
     6
  9
$UCSNAME
  2

  9
$UCSORG
 10
0.0
 20
0.0
 30
0.0
  9
$UCSXDIR
 10
1.0
 20
0.0
 30
0.0
  9
$UCSYDIR
 10
0.0
 20
1.0
 30
0.0
  9
$PUCSNAME
  2

  9
$PUCSORG
 10
0.0
 20
0.0
 30
0.0
  9
$PUCSXDIR
 10
1.0
 20
0.0
 30
0.0
  9
$PUCSYDIR
 10
0.0
 20
1.0
 30
0.0
  9
$USERI1
 70
     0
  9
$USERI2
 70
     0
  9
$USERI3
 70
     0
  9
$USERI4
 70
     0
  9
$USERI5
 70
     0
  9
$USERR1
 40
0.0
  9
$USERR2
 40
0.0
  9
$USERR3
 40
0.0
  9
$USERR4
 40
0.0
  9
$USERR5
 40
0.0
  9
$WORLDVIEW
 70
     1
  9
$SHADEDGE
 70
     3
  9
$SHADEDIF
 70
    70
  9
$TILEMODE
 70
     1
  9
$MAXACTVP
 70
    16
  9
$PLIMCHECK
 70
     0
  9
$PEXTMIN
 10
1.1294166384719471
 20
0.7730833676856337
 30
0.0
  9
$PEXTMAX
 10
10.164749746247541
 20
6.9577503091706969
 30
0.0
  9
$PLIMMIN
 10
-0.1979161059762549
 20
-0.2679166643638311
  9
$PLIMMAX
 10
11.49541659617987
 20
8.0004168307687351
  9
$UNITMODE
 70
     0
  9
$VISRETAIN
 70
     0
  9
$PLINEGEN
 70
     0
  9
$PSLTSCALE
 70
     0
  0
ENDSEC
  0
SECTION
  2
TABLES
  0
TABLE
  2
VPORT
 70
     1
  0
VPORT
  2
*ACTIVE
 70
     0
 10
0.0
 20
0.0
 11
1.0
 21
1.0
 12
378.38588431618558
 22
-23.27108367033134
 13
0.0
 23
0.0
 14
25.0
 24
25.0
 15
100.0
 25
100.0
 16
0.0
 26
0.0
 36
1.0
 17
2057.4809357017289
 27
2332.5223501042879
 37
0.0
 40
5058.6168439626263
 41
2.0727923627684959
 42
50.0
 43
0.0
 44
0.0
 50
0.0
 51
0.0
 71
     0
 72
   100
 73
     1
 74
     0
 75
     0
 76
     0
 77
     0
 78
     0
  0
ENDTAB
  0
TABLE
  2
LTYPE
 70
    10
  0
LTYPE
  2
CONTINUOUS
 70
     0
  3
Solid line
 72
    65
 73
     0
 40
0.0
  0
LTYPE
  2
PHANTOM2
 70
     0
  3
Phantom (.5x) ___ _ _ ___ _ _ ___ _ _ ___ _ _
 72
    65
 73
     6
 40
1.25
 49
0.625
 49
-0.125
 49
0.125
 49
-0.125
 49
0.125
 49
-0.125
  0
LTYPE
  2
HIDDEN
 70
     0
  3
_ _ _ _ _ _ _ _ _ _ _ _ _ _ _ _ _ _ _ _ _ _ _
 72
    65
 73
     2
 40
0.375
 49
0.25
 49
-0.125
  0
LTYPE
  2
HIDDEN2
 70
     0
  3
Hidden (.5x) _ _ _ _ _ _ _ _ _ _ _ _ _ _ _ _ _
 72
    65
 73
     2
 40
0.1875
 49
0.125
 49
-0.0625
  0
LTYPE
  2
CENTER
 70
     0
  3
Center ____ _ ____ _ ____ _ ____ _ ____ _ ____
 72
    65
 73
     4
 40
2.0
 49
1.25
 49
-0.25
 49
0.25
 49
-0.25
  0
LTYPE
  2
CENTER2
 70
     0
  3
Center (.5x) ___ _ ___ _ ___ _ ___ _ ___ _ ___
 72
    65
 73
     4
 40
1.125
 49
0.75
 49
-0.125
 49
0.125
 49
-0.125
  0
LTYPE
  2
ACANSTGB
 70
     0
  3
__ . . __ . .
 72
    65
 73
     6
 40
0.35433070866
 49
0.15748031496
 49
-0.03937007874
 49
0.03937007874
 49
-0.03937007874
 49
0.03937007874
 49
-0.03937007874
  0
LTYPE
  2
ACANSTGL
 70
     0
  3
_ _ _ _ _
 72
    65
 73
     2
 40
0.11811023622
 49
0.07874015748
 49
-0.03937007874
  0
ENDTAB
  0
TABLE
  2
LAYER
 70
     2
  0
LAYER
  2
0
 70
     0
 62
     7
  6
CONTINUOUS
  0
ENDTAB
  0
TABLE
  2
STYLE
 70
     8
  0
STYLE
  2
STANDARD
 70
     0
 40
0.0
 41
1.0
 50
0.0
 71
     0
 42
0.2
  3
txt
  4

  0
STYLE
  2
TITLE3
 70
     0
 40
30.0
 41
1.0
 50
0.0
 71
     0
 42
30.0
  3
SIMPLEX
  4

  0
STYLE
  2
TITLE5
 70
     0
 40
50.0
 41
1.0
 50
0.0
 71
     0
 42
50.0
  3
SIMPLEX
  4

  0
STYLE
  2
SIMPLEX
 70
     0
 40
30.0
 41
1.0
 50
0.0
 71
     0
 42
25.0
  3
SIMPLEX.shx
  4

  0
STYLE
  2
TITLE
 70
     0
 40
60.0
 41
1.0
 50
0.0
 71
     0
 42
60.0
  3
simplex.shx
  4

  0
STYLE
  2
ACANSGDT
 70
     0
 40
0.0
 41
1.0
 50
0.0
 71
     0
 42
30.0
  3
amgdt.shx
  4

  0
ENDTAB
  0
TABLE
  2
VIEW
 70
     0
  0
ENDTAB
  0
TABLE
  2
UCS
 70
     0
  0
ENDTAB
  0
TABLE
  2
APPID
 70
    27
  0
APPID
  2
ACAD
 70
     0
  0
APPID
  2
ACADANNOTATIVE
 70
     0
  0
APPID
  2
ACAD_MLEADERVER
 70
     0
  0
APPID
  2
GENIUS_GENDIM_13
 70
     0
  0
APPID
  2
GENIUS_GENDTOL_13
 70
     0
  0
APPID
  2
GENIUS_GE3DTOL_13
 70
     0
  0
APPID
  2
MCAD_NO_VIS
 70
     0
  0
APPID
  2
ACAD_TEMP_GRAPHIC
 70
     0
  0
APPID
  2
AD_DRAW
 70
     0
  0
APPID
  2
ACATTRIBSERVICES
 70
     0
  0
APPID
  2
ASURF_PCURVE_APPNAME
 70
     0
  0
APPID
  2
AMG_3D2D_5_0
 70
     0
  0
APPID
  2
DESIGNERASSEMBLIES
 70
     0
  0
APPID
  2
ACADM_DIM_EDIT
 70
     0
  0
APPID
  2
AMDT_DM_ADJ
 70
     0
  0
APPID
  2
ACAD_PSEXT
 70
     0
  0
APPID
  2
AMG_3D2D_5_00
 70
     0
  0
APPID
  2
ACAD_EXEMPT_FROM_CAD_STANDARDS
 70
     0
  0
APPID
  2
AMG_3D2D_5_01
 70
     0
  0
APPID
  2
ACAD_NAV_VCDISPLAY
 70
     0
  0
APPID
  2
ACAD_DSTYLE_DIMRADIAL_EXTENSION
 70
     0
  0
APPID
  2
ACAD_DSTYLE_DIMBREAK
 70
     0
  0
APPID
  2
ACAD_DSTYLE_DIMJAG
 70
     0
  0
APPID
  2
GENIUS_GENSCREG_15
 70
     0
  0
APPID
  2
GENIUS_GENOBJ-N-SDF_13
 70
     0
  0
APPID
  2
GENIUS_GENODEF_13
 70
     0
  0
APPID
  2
ACAECLAYERSTANDARD
 70
     0
  0
ENDTAB
  0
TABLE
  2
DIMSTYLE
 70
     9
  0
DIMSTYLE
  2
STANDARD
 70
     0
  3

  4

  5

  6

  7

 40
1.0
 41
0.18
 42
0.0625
 43
0.38
 44
0.18
 45
0.0
 46
0.0
 47
0.0
 48
0.0
140
0.18
141
0.09
142
0.0
143
25.399999999999999
144
1.0
145
0.0
146
1.0
147
0.09
 71
     0
 72
     0
 73
     1
 74
     1
 75
     0
 76
     0
 77
     0
 78
     0
170
     0
171
     2
172
     0
173
     0
174
     0
175
     0
176
     0
177
     0
178
     0
  0
DIMSTYLE
  2
ANNOTATIVE
 70
     0
  3

  4

  5

  6

  7

 40
1.0
 41
0.18
 42
0.0625
 43
0.38
 44
0.18
 45
0.0
 46
0.0
 47
0.0
 48
0.0
140
0.18
141
0.09
142
0.0
143
25.399999999999999
144
1.0
145
0.0
146
1.0
147
0.09
 71
     0
 72
     0
 73
     1
 74
     1
 75
     0
 76
     0
 77
     0
 78
     0
170
     0
171
     2
172
     0
173
     0
174
     0
175
     0
176
     0
177
     0
178
     0
  0
DIMSTYLE
  2
AM_ANSI
 70
     0
  3

  4
mm
  5

  6

  7

 40
1.0
 41
0.12
 42
0.05
 43
0.5
 44
0.1
 45
0.0
 46
0.0
 47
0.1
 48
0.1
140
0.12
141
0.0
142
0.0
143
25.399999999999999
144
1.0
145
0.0
146
0.71
147
0.06
 71
     0
 72
     0
 73
     1
 74
     1
 75
     0
 76
     0
 77
     0
 78
     7
170
     0
171
     2
172
     0
173
     0
174
     0
175
     0
176
   256
177
   256
178
     2
  0
DIMSTYLE
  2
AM_ANSI$3
 70
     0
  3

  4
mm
  5

  6

  7

 40
1.0
 41
0.12
 42
0.05
 43
0.5
 44
0.1
 45
0.0
 46
0.0
 47
0.1
 48
0.1
140
0.12
141
0.0
142
0.0
143
25.399999999999999
144
1.0
145
0.0
146
0.71
147
0.06
 71
     0
 72
     0
 73
     1
 74
     1
 75
     0
 76
     0
 77
     0
 78
     7
170
     0
171
     2
172
     0
173
     0
174
     0
175
     0
176
   256
177
   256
178
     2
  0
DIMSTYLE
  2
AM_ANSI$4
 70
     0
  3

  4
mm
  5

  6

  7

 40
1.0
 41
0.12
 42
0.05
 43
0.5
 44
0.1
 45
0.0
 46
0.0
 47
0.1
 48
0.1
140
0.12
141
0.0
142
0.0
143
25.399999999999999
144
1.0
145
0.0
146
0.71
147
0.06
 71
     0
 72
     0
 73
     1
 74
     1
 75
     0
 76
     0
 77
     0
 78
     7
170
     0
171
     2
172
     0
173
     0
174
     0
175
     0
176
   256
177
   256
178
     2
  0
DIMSTYLE
  2
AM_ANSI$7
 70
     0
  3

  4
mm
  5

  6

  7

 40
1.0
 41
0.12
 42
0.05
 43
0.5
 44
0.1
 45
0.0
 46
0.0
 47
0.1
 48
0.1
140
0.12
141
0.0
142
0.0
143
25.399999999999999
144
1.0
145
0.0
146
0.71
147
0.06
 71
     0
 72
     0
 73
     1
 74
     1
 75
     0
 76
     0
 77
     0
 78
     7
170
     0
171
     2
172
     0
173
     0
174
     0
175
     0
176
   256
177
   256
178
     2
  0
DIMSTYLE
  2
AM_ANSI$SF
 70
     0
  3

  4
mm
  5

  6

  7

 40
1.0
 41
0.12
 42
0.05
 43
0.5
 44
0.1
 45
0.0
 46
0.0
 47
0.1
 48
0.1
140
0.12
141
0.0
142
0.0
143
25.399999999999999
144
1.0
145
0.0
146
0.71
147
0.06
 71
     0
 72
     0
 73
     1
 74
     1
 75
     1
 76
     1
 77
     0
 78
     7
170
     0
171
     2
172
     0
173
     0
174
     0
175
     0
176
   256
177
   256
178
     2
  0
DIMSTYLE
  2
AM_ANSI$SH
 70
     0
  3

  4
mm
  5

  6

  7

 40
1.0
 41
0.12
 42
0.05
 43
0.5
 44
0.1
 45
0.0
 46
0.0
 47
0.1
 48
0.1
140
0.12
141
0.0
142
0.0
143
25.399999999999999
144
1.0
145
0.0
146
0.71
147
0.06
 71
     0
 72
     0
 73
     1
 74
     1
 75
     1
 76
     1
 77
     0
 78
     7
170
     0
171
     2
172
     0
173
     1
174
     0
175
     0
176
   256
177
   256
178
     2
  0
ENDTAB
  0
ENDSEC
  0
SECTION
  2
BLOCKS
  0
BLOCK
  8
0
  2
$MODEL_SPACE
 70
     0
 10
0.0
 20
0.0
 30
0.0
  3
$MODEL_SPACE
  1

  0
ENDBLK
  5
9E6D
  8
0
  0
BLOCK
 67
     1
  8
0
  2
$PAPER_SPACE
 70
     0
 10
0.0
 20
0.0
 30
0.0
  3
$PAPER_SPACE
  1

  0
ENDBLK
  5
9E69
 67
     1
  8
0
  0
ENDSEC
  0
SECTION
  2
ENTITIES
  0
LINE
  5
8200
  8
0
 62
     7
 10
17.492617917692652
 20
-202.02155225444019
 30
0.0
 11
4051.1219824173409
 21
-202.02155225443951
 31
0.0
  0
LINE
  5
8201
  8
0
 62
     7
 10
4051.12198241734
 20
-202.02155225443951
 30
0.0
 11
4051.12198241734
 21
4820.593807197276
 31
0.0
  0
LINE
  5
8203
  8
0
 62
     7
 10
17.492617917692652
 20
4820.593807197276
 30
0.0
 11
17.492617917692652
 21
-202.02155225444019
 31
0.0
  0
TEXT
  5
8205
  8
0
 62
     7
 10
2775.280381803364
 20
3240.3208598574329
 30
0.0
 40
30.0
  1
2000 min CLEARANCE
  7
TITLE3
  0
LINE
  5
8212
  8
0
 62
     7
 10
2372.4807775940449
 20
-30.131343452263991
 30
0.0
 11
2456.480777594043
 21
-30.131343452263991
 31
0.0
  0
SOLID
  5
8232
  8
0
 62
     7
 10
3279.1958401556831
 20
3562.476420797163
 30
0.0
 11
3254.1958401556849
 21
3712.4764207971671
 31
0.0
 12
3229.1958401556831
 22
3562.476420797163
 32
0.0
 13
3229.1958401556831
 23
3562.476420797163
 33
0.0
1001
ACAD
1000
DSTYLE
1002
{
1070
    41
1040
60.0
1070
    42
1040
40.0
1070
    44
1040
40.0
1070
    73
1070
     0
1070
    74
1070
     0
1070
   140
1040
60.0
1070
   147
1040
40.0
1070
   176
1070
    52
1070
   177
1070
    52
1070
   178
1070
    50
1070
   179
1070
     2
1070
   271
1070
     2
1070
   272
1070
     2
1070
   279
1070
     2
1070
   340
1005
FC6
1002
}
  0
LINE
  5
8233
  8
0
 62
     7
 10
2479.4307775940438
 20
3782.1909528342549
 30
0.0
 11
2479.4307775940438
 21
3808.190952834258
 31
0.0
  0
LINE
  5
8234
  8
0
 62
     7
 10
2349.5307775940428
 20
3782.1909528342549
 30
0.0
 11
2349.5307775940428
 21
3808.1909528342562
 31
0.0
  0
LINE
  5
8235
  8
0
 62
     7
 10
2349.5307775940428
 20
3782.1909528342549
 30
0.0
 11
2479.4307775940438
 21
3782.1909528342549
 31
0.0
  0
LINE
  5
8237
  8
0
 62
     7
 10
256.68066995773103
 20
3779.6909528342549
 30
0.0
 11
256.68066995773091
 21
4619.6909528342549
 31
0.0
  0
LINE
  5
8238
  8
0
 62
     7
 10
276.63066995773198
 20
4590.5409528342543
 30
0.0
 11
289.68066995773358
 21
4590.5409528342543
 31
0.0
  0
LINE
  5
823C
  8
0
 62
     7
 10
276.63066995773198
 20
4590.5409528342543
 30
0.0
 11
276.63066995773198
 21
4598.4409528342549
 31
0.0
  0
LINE
  5
823E
  8
0
 62
     7
 10
276.63066995773198
 20
3808.3909528342551
 30
0.0
 11
289.68066995773358
 21
3808.3909528342551
 31
0.0
  0
LINE
  5
8242
  8
0
 62
     7
 10
276.63066995773198
 20
3808.3909528342551
 30
0.0
 11
276.63066995773198
 21
3800.9409528342549
 31
0.0
  0
LINE
  5
8243
  8
0
 62
     7
 10
256.68066995773103
 20
3779.6909528342549
 30
0.0
 11
257.88066995772999
 21
3779.6909528342549
 31
0.0
  0
LINE
  5
8244
  8
0
 62
     7
 10
257.88066995772999
 20
3779.6909528342549
 30
0.0
 11
276.63066995773198
 21
3800.9409528342549
 31
0.0
  0
LINE
  5
824E
  8
0
 62
     7
 10
2204.4807775940449
 20
1285.868656547736
 30
0.0
 11
2204.4807775940449
 21
2.8686565477363208
 31
0.0
  0
LINE
  5
824F
  8
0
 62
     7
 10
3798.4807775940399
 20
2.8686565477360939
 30
0.0
 11
2204.4807775940449
 21
2.8686565477363208
 31
0.0
  0
LINE
  5
8250
  8
0
 62
     7
 10
3798.4807775940449
 20
1285.868656547736
 30
0.0
 11
3798.4807775940399
 21
2.8686565477360939
 31
0.0
  0
LINE
  5
8255
  8
0
 62
     7
 10
1322.680669957731
 20
4591.1909528342549
 30
0.0
 11
289.68066995773358
 21
4591.1909528342594
 31
0.0
  0
LINE
  5
8256
  8
0
 62
     7
 10
1322.680669957731
 20
3808.1909528342549
 30
0.0
 11
289.68066995773358
 21
3808.1909528342549
 31
0.0
  0
LINE
  5
8257
  8
0
 62
     7
 10
289.68066995773358
 20
4591.1909528342594
 30
0.0
 11
289.68066995773358
 21
3808.1909528342549
 31
0.0
  0
LINE
  5
8258
  8
0
 62
     7
 10
3798.4807775940449
 20
4591.1909528342558
 30
0.0
 11
3798.4807775940449
 21
3808.1909528342562
 31
0.0
  0
LINE
  5
8259
  8
0
 62
     7
 10
2204.4807775940449
 20
4591.1909528342549
 30
0.0
 11
2204.4807775940449
 21
3808.1909528342549
 31
0.0
  0
LINE
  5
825A
  8
0
 62
     7
 10
2204.4807775940449
 20
3808.1909528342549
 30
0.0
 11
3798.4807775940449
 21
3808.1909528342562
 31
0.0
  0
LINE
  5
825B
  8
0
 62
     7
 10
3798.4807775940449
 20
4591.1909528342558
 30
0.0
 11
2204.4807775940449
 21
4591.1909528342549
 31
0.0
  0
LINE
  5
825E
  8
0
 62
     7
 10
2204.4807775940449
 20
1285.868656547736
 30
0.0
 11
3798.4807775940449
 21
1285.868656547736
 31
0.0
  0
LINE
  5
8260
  8
0
 62
     7
 10
1322.680669957731
 20
4591.1909528342549
 30
0.0
 11
1322.680669957731
 21
3808.1909528342549
 31
0.0
  0
LINE
  5
8267
  8
0
  6
PHANTOM2
 62
     7
 10
3798.4807775940449
 20
3783.1909528342562
 30
0.0
 11
3798.4807775940449
 21
3308.1909528342562
 31
0.0
  0
LINE
  5
8268
  8
0
  6
PHANTOM2
 62
     7
 10
2204.4807775940449
 20
3783.1909528342571
 30
0.0
 11
2204.4807775940449
 21
3308.1909528342571
 31
0.0
  0
LINE
  5
8269
  8
0
  6
PHANTOM2
 62
     7
 10
2204.4807775940449
 20
3308.1909528342571
 30
0.0
 11
3798.4807775940449
 21
3308.1909528342562
 31
0.0
  0
LINE
  5
826A
  8
0
  6
PHANTOM2
 62
     7
 10
1704.480777594044
 20
4591.1909528342549
 30
0.0
 11
1704.480777594044
 21
3808.1909528342549
 31
0.0
  0
LINE
  5
826B
  8
0
  6
PHANTOM2
 62
     7
 10
2179.4807775940449
 20
3808.1909528342549
 30
0.0
 11
1704.480777594044
 21
3808.1909528342549
 31
0.0
  0
LINE
  5
826C
  8
0
  6
PHANTOM2
 62
     7
 10
2179.4807775940449
 20
4591.1909528342549
 30
0.0
 11
1704.480777594044
 21
4591.1909528342549
 31
0.0
  0
LINE
  5
826D
  8
0
  6
PHANTOM2
 62
     7
 10
3948.4807775940449
 20
4591.1909528342558
 30
0.0
 11
3948.4807775940449
 21
3808.1909528342562
 31
0.0
  0
LINE
  5
826E
  8
0
  6
PHANTOM2
 62
     7
 10
3798.4807775940449
 20
4741.1909528342576
 30
0.0
 11
2204.4807775940449
 21
4741.1909528342576
 31
0.0
  0
LINE
  5
826F
  8
0
  6
PHANTOM2
 62
     7
 10
2204.4807775940449
 20
4616.1909528342576
 30
0.0
 11
2204.4807775940449
 21
4741.1909528342576
 31
0.0
  0
LINE
  5
8270
  8
0
  6
PHANTOM2
 62
     7
 10
3798.4807775940449
 20
4616.1909528342594
 30
0.0
 11
3798.4807775940449
 21
4741.1909528342576
 31
0.0
  0
LINE
  5
8271
  8
0
  6
PHANTOM2
 62
     7
 10
3948.4807775940449
 20
3808.1909528342562
 30
0.0
 11
3823.4807775940449
 21
3808.1909528342562
 31
0.0
  0
LINE
  5
8272
  8
0
  6
PHANTOM2
 62
     7
 10
3823.4807775940449
 20
4591.1909528342549
 30
0.0
 11
3948.4807775940449
 21
4591.1909528342558
 31
0.0
  0
LINE
  5
8273
  8
0
  6
PHANTOM2
 62
     7
 10
2204.4807775940449
 20
3285.868656547736
 30
0.0
 11
3798.4807775940449
 21
3285.868656547736
 31
0.0
  0
LINE
  5
8274
  8
0
  6
PHANTOM2
 62
     7
 10
2204.4807775940449
 20
1310.868656547736
 30
0.0
 11
2204.4807775940449
 21
3285.868656547736
 31
0.0
  0
LINE
  5
8275
  8
0
  6
PHANTOM2
 62
     7
 10
3798.4807775940449
 20
1310.868656547734
 30
0.0
 11
3798.4807775940449
 21
3285.868656547736
 31
0.0
  0
TEXT
  5
8276
  8
0
 62
     7
 10
2694.6099404391948
 20
529.42502880780125
 30
0.0
 40
56.25
  1
OSA280RKTGV
  7
TITLE5
 72
     1
 11
2990.592083296337
 21
529.42502880780125
 31
0.0
  0
SOLID
  5
827E
  8
0
 62
     7
 10
3139.7307568842648
 20
1508.2064682791749
 30
0.0
 11
3114.7307568842648
 21
1658.2064682791749
 31
0.0
 12
3089.7307568842639
 22
1508.2064682791749
 32
0.0
 13
3089.7307568842639
 23
1508.2064682791749
 33
0.0
1001
ACAD
1000
DSTYLE
1002
{
1070
    41
1040
60.0
1070
    42
1040
40.0
1070
    44
1040
40.0
1070
    73
1070
     0
1070
    74
1070
     0
1070
   140
1040
60.0
1070
   147
1040
40.0
1070
   176
1070
    52
1070
   177
1070
    52
1070
   178
1070
    50
1070
   179
1070
     2
1070
   271
1070
     2
1070
   272
1070
     2
1070
   279
1070
     2
1070
   340
1005
FC6
1002
}
  0
TEXT
  5
8283
  8
0
 62
     7
 10
1797.28968704047
 20
4073.503281100895
 30
0.0
 40
30.0
  1
CLEARANCE
 50
90.0
  7
TITLE3
  0
TEXT
  5
8284
  8
0
 62
     7
 10
1745.861115611897
 20
4108.862804410237
 30
0.0
 40
30.0
  1
500 min
 50
90.0
  7
TITLE3
  0
TEXT
  5
8285
  8
0
 62
     7
 10
2790.7727621999311
 20
3323.738749524558
 30
0.0
 40
30.0
  1
500 min CLEARANCE
  7
TITLE3
  0
TEXT
  5
8286
  8
0
 62
     7
 10
3883.3091906985028
 20
4070.7160992334011
 30
0.0
 40
30.0
  1
CLEARANCE
 50
90.0
  7
TITLE3
  0
TEXT
  5
8287
  8
0
 62
     7
 10
546.78645675124653
 20
4202.9506723443901
 30
0.0
 40
56.25
  1
OSA280RKTGV
  7
TITLE5
 72
     1
 11
842.76859960838942
 21
4202.9506723443901
 31
0.0
  0
TEXT
  5
8288
  8
0
 62
     7
 10
2648.9265630606619
 20
4299.0349287849267
 30
0.0
 40
56.25
  1
OSA
  7
TITLE5
 72
     1
 11
2726.6051344892339
 21
4299.0349287849267
 31
0.0
  0
TEXT
  5
828A
  8
0
 62
     7
 10
2789.3884911658438
 20
4690.8120010909224
 30
0.0
 40
30.0
  1
150 min CLEARANCE
  7
TITLE3
  0
LINE
  5
828B
  8
0
  6
HIDDEN2
 62
     7
 10
3524.280777594046
 20
3884.1909528342512
 30
0.0
 11
2469.4807775940471
 21
3884.1909528342512
 31
0.0
  0
LINE
  5
828C
  8
0
  6
HIDDEN2
 62
     7
 10
3524.280777594046
 20
3829.1909528342499
 30
0.0
 11
2469.480777594043
 21
3829.1909528342499
 31
0.0
  0
ARC
  5
828D
  8
0
  6
HIDDEN2
 62
     7
 10
3524.280777594045
 20
4084.190952834248
 30
0.0
 40
255.0
 50
270.0
 51
0.0
  0
ARC
  5
828E
  8
0
  6
HIDDEN2
 62
     7
 10
3524.280777594045
 20
4084.190952834248
 30
0.0
 40
200.0
 50
270.0
 51
0.0
  0
LINE
  5
828F
  8
0
  6
HIDDEN2
 62
     7
 10
3724.280777594046
 20
4555.1909528342521
 30
0.0
 11
3724.280777594046
 21
4084.190952834248
 31
0.0
  0
LINE
  5
8290
  8
0
  6
HIDDEN2
 62
     7
 10
3779.2807775940478
 20
4084.190952834248
 30
0.0
 11
3779.2807775940478
 21
4556.3909528342519
 31
0.0
  0
LINE
  5
8291
  8
0
  6
HIDDEN2
 62
     7
 10
3724.280777594046
 20
4556.390952834251
 30
0.0
 11
3779.2807775940478
 21
4556.3909528342519
 31
0.0
  0
LINE
  5
8292
  8
0
  6
HIDDEN
 62
     7
 10
3724.280777594046
 20
4556.390952834251
 30
0.0
 11
3724.280777594046
 21
4555.1909528342521
 31
0.0
  0
LINE
  5
8293
  8
0
  6
HIDDEN
 62
     7
 10
2469.480777594043
 20
3884.1909528342512
 30
0.0
 11
2469.480777594043
 21
3829.1909528342499
 31
0.0
  0
TEXT
  5
8295
  8
0
 62
     7
 10
3934.7377621270739
 20
4111.7899082570329
 30
0.0
 40
30.0
  1
150 min
 50
90.0
  7
TITLE3
  0
TEXT
  5
8430
  8
0
 62
     7
 10
67.357422383335347
 20
148.97482780208989
 30
0.0
 40
61.0
  1
temperzone OSA 280RKTGV
  7
TITLE5
 72
     1
 11
712.21456524047824
 21
148.97482780208989
 31
0.0
  0
TEXT
  5
8431
  8
0
 62
     7
 10
229.9926179176924
 20
-114.5215522544401
 30
0.0
 40
37.5
  1
OSA280RKTGV
 41
0.9185520361990962
  7
TITLE3
 72
     5
 11
592.49261791769266
 21
-114.5215522544401
 31
0.0
  0
TEXT
  5
8432
  8
0
 62
     7
 10
906.24584895143585
 20
-68.253944544910894
 30
0.0
 40
37.5
  1
04-06-13
 41
0.691358024691359
  7
TITLE3
 72
     5
 11
1106.2458489514361
 21
-68.253944544910894
 31
0.0
  0
TEXT
  5
8433
  8
0
 62
     7
 10
1170.7520487197301
 20
-63.482534929314092
 30
0.0
 40
30.0
  1
: Date
  7
SIMPLEX
  0
TEXT
  5
8434
  8
0
 62
     7
 10
65.66402541636171
 20
-40.14242472517617
 30
0.0
 40
30.0
  1
Revision
 41
0.7812095035934826
  7
SIMPLEX
 72
     5
 11
197.35362745069159
 21
-40.14242472517617
 31
0.0
  0
LINE
  5
8435
  8
0
 62
     7
 10
211.8784304299956
 20
-175.9684361940437
 30
0.0
 11
211.8784304299956
 21
8.3142673812427006
 31
0.0
  0
LINE
  5
8436
  8
0
 62
     7
 10
1379.2745478978029
 20
231.27794386248621
 30
0.0
 11
1379.2745478978029
 21
-175.9684361940437
 31
0.0
  0
LINE
  5
8437
  8
0
 62
     7
 10
608.85052040132587
 20
-175.9684361940437
 30
0.0
 11
608.85052040132587
 21
8.3142673812427006
 31
0.0
  0
LINE
  5
8438
  8
0
 62
     7
 10
608.85052040132587
 20
-85.38080316761048
 30
0.0
 11
1379.2745478978029
 21
-85.38080316761048
 31
0.0
  0
LINE
  5
8439
  8
0
 62
     7
 10
53.023286370391808
 20
8.3142673812427006
 30
0.0
 11
1379.2745478978029
 21
8.3142673812427006
 31
0.0
  0
LINE
  5
843A
  8
0
 62
     7
 10
1379.2745478978029
 20
-175.9684361940437
 30
0.0
 11
53.395170343328502
 21
-175.9684361940437
 31
0.0
  0
LINE
  5
843B
  8
0
 62
     7
 10
53.395170343328502
 20
-175.9684361940437
 30
0.0
 11
53.395170343328502
 21
231.27794386248621
 31
0.0
  0
LINE
  5
843C
  8
0
 62
     7
 10
53.395170343328502
 20
231.27794386248621
 30
0.0
 11
1379.2745478978029
 21
231.27794386248621
 31
0.0
  0
TEXT
  5
843D
  8
0
 62
     7
 10
1172.022362644796
 20
-142.11844217274299
 30
0.0
 40
25.0
  1
: Scale
 41
1.1673013972406829
  7
SIMPLEX
 72
     5
 11
1326.2729044230291
 21
-142.11844217274299
 31
0.0
  0
TEXT
  5
843E
  8
0
 62
     7
 10
318.5615705595535
 20
-40.904762871053322
 30
0.0
 40
25.0
  1
Drawing No.
  7
SIMPLEX
 72
     2
 11
536.41871341669628
 21
-40.904762871053322
 31
0.0
  0
LINE
  5
85ED
  8
0
 62
     7
 10
3114.7307568842648
 20
1507.422599002374
 30
0.0
 11
3114.7307568842648
 21
1385.9733047479269
 31
0.0
1001
ACAD
1000
DSTYLE
1002
{
1070
    41
1040
60.0
1070
    42
1040
40.0
1070
    44
1040
40.0
1070
    73
1070
     0
1070
    74
1070
     0
1070
   140
1040
60.0
1070
   147
1040
40.0
1070
   176
1070
    52
1070
   177
1070
    52
1070
   178
1070
    50
1070
   179
1070
     2
1070
   271
1070
     2
1070
   272
1070
     2
1070
   279
1070
     2
1070
   340
1005
FC6
1002
}
  0
TEXT
  5
85EF
  8
0
 62
     7
 10
2860.107611692109
 20
1523.299697955096
 30
0.0
 40
60.0
  1
AIR
  7
TITLE
  0
TEXT
  5
85F0
  8
0
 62
     7
 10
2812.964754549253
 20
1423.299697955096
 30
0.0
 40
60.0
  1
FLOW
  7
TITLE
  0
LINE
  5
85F1
  8
0
 62
     7
 10
3254.1958401556849
 20
3561.6925515203602
 30
0.0
 11
3254.1958401556849
 21
3440.2432572659141
 31
0.0
1001
ACAD
1000
DSTYLE
1002
{
1070
    41
1040
60.0
1070
    42
1040
40.0
1070
    44
1040
40.0
1070
    73
1070
     0
1070
    74
1070
     0
1070
   140
1040
60.0
1070
   147
1040
40.0
1070
   176
1070
    52
1070
   177
1070
    52
1070
   178
1070
    50
1070
   179
1070
     2
1070
   271
1070
     2
1070
   272
1070
     2
1070
   279
1070
     2
1070
   340
1005
FC6
1002
}
  0
TEXT
  5
85F2
  8
0
 62
     7
 10
2893.0325708007572
 20
3623.9462011751821
 30
0.0
 40
60.0
  1
AIR
  7
TITLE
  0
TEXT
  5
85F3
  8
0
 62
     7
 10
2845.8897136578998
 20
3523.9462011751848
 30
0.0
 40
60.0
  1
FLOW
  7
TITLE
  0
TEXT
  5
85F4
  8
0
 62
     7
 10
57.83346852303093
 20
300.60410132343583
 30
0.0
 40
31.25
  1
available on request
  7
TITLE3
  0
TEXT
  5
85F5
  8
0
 62
     7
 10
57.83346852303093
 20
354.17552989486433
 30
0.0
 40
31.25
  1
Certified dimensions
  7
TITLE3
  0
TEXT
  5
85F6
  8
0
 62
     7
 10
57.83346852303093
 20
407.74695846629299
 30
0.0
 40
31.25
  1
without notice or obligation.
  7
TITLE3
  0
TEXT
  5
85F7
  8
0
 62
     7
 10
57.83346852303093
 20
461.31838703772138
 30
0.0
 40
31.25
  1
specifications at any time
  7
TITLE3
  0
TEXT
  5
85F8
  8
0
 62
     7
 10
57.83346852303093
 20
514.88981560914976
 30
0.0
 40
31.25
  1
the right to change 
  7
TITLE3
  0
TEXT
  5
85F9
  8
0
 62
     7
 10
57.83346852303093
 20
622.03267275200608
 30
0.0
 40
31.25
  1
NOTE
  7
TITLE3
  0
TEXT
  5
85FA
  8
0
 62
     7
 10
57.83346852303093
 20
568.46124418057786
 30
0.0
 40
31.25
  1
The manufacturer reserves
  7
TITLE3
  0
TEXT
  5
862B
  8
0
 62
     7
 10
2516.337277346377
 20
4220.95024201053
 30
0.0
 40
56.25
  1
280RKTGV
  7
TITLE5
 72
     1
 11
2726.6051344892339
 21
4220.95024201053
 31
0.0
  0
LINE
  5
8666
  8
0
 62
     7
 10
2372.4807775940449
 20
-30.131343452263991
 30
0.0
 11
2346.980777594043
 21
2.8686565477360939
 31
0.0
  0
LINE
  5
8667
  8
0
 62
     7
 10
2456.480777594043
 20
-30.131343452263991
 30
0.0
 11
2481.980777594043
 21
2.8686565477360939
 31
0.0
  0
LINE
  5
866B
  8
0
 62
     7
 10
3631.480777594043
 20
-30.131343452263991
 30
0.0
 11
3547.480777594044
 21
-30.131343452263991
 31
0.0
  0
LINE
  5
866F
  8
0
 62
     7
 10
3631.480777594043
 20
-30.131343452263991
 30
0.0
 11
3656.980777594043
 21
2.8686565477360939
 31
0.0
  0
LINE
  5
8670
  8
0
 62
     7
 10
3547.480777594044
 20
-30.131343452263991
 30
0.0
 11
3521.980777594043
 21
2.8686565477360939
 31
0.0
  0
LINE
  5
86BB
  8
0
 62
     7
 10
2204.4807775940449
 20
-17.131343452263881
 30
0.0
 11
2204.4807775940449
 21
-164.74582623140481
 31
0.0
  0
LINE
  5
86BC
  8
0
 62
     7
 10
3798.4807775940399
 20
-17.131343452264101
 30
0.0
 11
3798.4807775940399
 21
-164.745826231405
 31
0.0
  0
LINE
  5
86BD
  8
0
 62
     7
 10
2234.4807775940449
 20
-144.74582623140469
 30
0.0
 11
2879.4391240303462
 21
-144.74582623140481
 31
0.0
  0
LINE
  5
86BE
  8
0
 62
     7
 10
3768.480777594039
 20
-144.74582623140481
 30
0.0
 11
3116.8764509838238
 21
-144.74582623140481
 31
0.0
  0
SOLID
  5
86BF
  8
0
 62
     7
 10
2234.4807775940449
 20
-139.74582623140481
 30
0.0
 11
2234.4807775940449
 21
-149.74582623140469
 31
0.0
 12
2204.4807775940449
 22
-144.74582623140469
 32
0.0
 13
2204.4807775940449
 23
-144.74582623140469
 33
0.0
  0
SOLID
  5
86C0
  8
0
 62
     7
 10
3768.480777594039
 20
-139.74582623140509
 30
0.0
 11
3768.480777594039
 21
-149.74582623140481
 31
0.0
 12
3798.4807775940399
 22
-144.74582623140481
 32
0.0
 13
3798.4807775940399
 23
-144.74582623140481
 33
0.0
  0
LINE
  5
86C2
  8
0
 62
     7
 10
2414.480777594044
 20
-60.131343452263899
 30
0.0
 11
2414.480777594044
 21
-102.7583453813041
 31
0.0
  0
LINE
  5
86C3
  8
0
 62
     7
 10
3589.480777594043
 20
-60.131343452263991
 30
0.0
 11
3589.480777594043
 21
-102.7583453813042
 31
0.0
  0
LINE
  5
86C4
  8
0
 62
     7
 10
2444.4807775940449
 20
-82.75834538130411
 30
0.0
 11
2866.7237838589508
 21
-82.75834538130411
 31
0.0
  0
LINE
  5
86C5
  8
0
 62
     7
 10
3559.480777594043
 20
-82.758345381304224
 30
0.0
 11
3126.7237838589508
 21
-82.75834538130411
 31
0.0
  0
SOLID
  5
86C6
  8
0
 62
     7
 10
2444.4807775940449
 20
-77.75834538130411
 30
0.0
 11
2444.4807775940449
 21
-87.75834538130411
 31
0.0
 12
2414.480777594044
 22
-82.75834538130411
 32
0.0
 13
2414.480777594044
 23
-82.75834538130411
 33
0.0
  0
SOLID
  5
86C7
  8
0
 62
     7
 10
3559.480777594043
 20
-77.758345381304224
 30
0.0
 11
3559.480777594043
 21
-87.758345381304224
 31
0.0
 12
3589.480777594043
 22
-82.758345381304224
 32
0.0
 13
3589.480777594043
 23
-82.758345381304224
 33
0.0
  0
LINE
  5
86C9
  8
0
 62
     7
 10
2397.3428795658469
 20
1299.868656547736
 30
0.0
 11
2062.0884901159711
 21
1299.8686565477351
 31
0.0
  0
LINE
  5
86CA
  8
0
 62
     7
 10
2352.4807775940458
 20
-30.131343452263991
 30
0.0
 11
2062.0884901159711
 21
-30.131343452263572
 31
0.0
  0
LINE
  5
86CB
  8
0
 62
     7
 10
2082.0884901159711
 20
1269.8686565477351
 30
0.0
 11
2082.0884901159689
 21
762.12768171307744
 31
0.0
  0
LINE
  5
86CC
  8
0
 62
     7
 10
2082.0884901159689
 20
-0.1313434522635646
 30
0.0
 11
2082.0884901159689
 21
522.12768171307755
 31
0.0
  0
SOLID
  5
86CD
  8
0
 62
     7
 10
2077.088490115972
 20
1269.8686565477351
 30
0.0
 11
2087.088490115972
 21
1269.8686565477351
 31
0.0
 12
2082.0884901159711
 22
1299.8686565477351
 32
0.0
 13
2082.0884901159711
 23
1299.8686565477351
 33
0.0
  0
SOLID
  5
86CE
  8
0
 62
     7
 10
2077.0884901159689
 20
-0.1313434522635646
 30
0.0
 11
2087.088490115972
 21
-0.1313434522635646
 31
0.0
 12
2082.0884901159689
 22
-30.131343452263572
 32
0.0
 13
2082.0884901159689
 23
-30.131343452263572
 33
0.0
  0
CIRCLE
  5
86F4
  8
0
 10
2723.480777594043
 20
4221.1909528342576
 30
0.0
 40
292.5
  0
CIRCLE
  5
86F5
  8
0
 10
3385.480777594043
 20
4221.1909528342576
 30
0.0
 40
292.5
  0
LINE
  5
871B
  8
0
 62
     7
 10
1347.6806699577301
 20
4591.1909528342549
 30
0.0
 11
1493.8052254081281
 21
4591.1909528342549
 31
0.0
  0
LINE
  5
871C
  8
0
 62
     7
 10
1347.6806699577301
 20
3808.1909528342549
 30
0.0
 11
1493.8052254081281
 21
3808.1909528342549
 31
0.0
  0
LINE
  5
871D
  8
0
 62
     7
 10
1473.8052254081281
 20
4561.1909528342539
 30
0.0
 11
1473.8052254081281
 21
4256.3820514220097
 31
0.0
  0
LINE
  5
871E
  8
0
 62
     7
 10
1473.8052254081281
 20
3838.1909528342549
 30
0.0
 11
1473.8052254081281
 21
4159.7083310911912
 31
0.0
  0
SOLID
  5
871F
  8
0
 62
     7
 10
1468.8052254081281
 20
4561.1909528342539
 30
0.0
 11
1478.8052254081269
 21
4561.1909528342539
 31
0.0
 12
1473.8052254081281
 22
4591.1909528342549
 32
0.0
 13
1473.8052254081281
 23
4591.1909528342549
 33
0.0
  0
SOLID
  5
8720
  8
0
 62
     7
 10
1468.8052254081281
 20
3838.1909528342549
 30
0.0
 11
1478.8052254081269
 21
3838.1909528342549
 31
0.0
 12
1473.8052254081281
 22
3808.1909528342549
 32
0.0
 13
1473.8052254081281
 23
3808.1909528342549
 33
0.0
  0
LINE
  5
8722
  8
0
 62
     7
 10
231.68066995773091
 20
4619.6909528342567
 30
0.0
 11
102.41113248432779
 21
4619.6909528342567
 31
0.0
  0
LINE
  5
8723
  8
0
 62
     7
 10
231.680669957731
 20
3779.6909528342549
 30
0.0
 11
102.41113248432779
 21
3779.6909528342549
 31
0.0
  0
LINE
  5
8724
  8
0
 62
     7
 10
122.41113248432779
 20
4589.6909528342576
 30
0.0
 11
122.41113248432779
 21
4314.7589121158808
 31
0.0
  0
LINE
  5
8725
  8
0
 62
     7
 10
122.41113248432779
 20
3809.6909528342571
 30
0.0
 11
122.41113248432779
 21
4089.087561608409
 31
0.0
  0
SOLID
  5
8726
  8
0
 62
     7
 10
117.41113248432769
 20
4589.6909528342576
 30
0.0
 11
127.41113248432779
 21
4589.6909528342576
 31
0.0
 12
122.41113248432779
 22
4619.6909528342567
 32
0.0
 13
122.41113248432779
 23
4619.6909528342567
 33
0.0
  0
SOLID
  5
8727
  8
0
 62
     7
 10
117.41113248432769
 20
3809.6909528342571
 30
0.0
 11
127.41113248432779
 21
3809.6909528342571
 31
0.0
 12
122.41113248432779
 22
3779.6909528342549
 32
0.0
 13
122.41113248432779
 23
3779.6909528342549
 33
0.0
  0
LINE
  5
8754
  8
0
 62
     7
 10
246.68066995773091
 20
3799.6909528342571
 30
0.0
 11
266.68066995773131
 21
3799.6909528342549
 31
0.0
  0
LINE
  5
8758
  8
0
 62
     7
 10
226.5101241497797
 20
4599.6909528342539
 30
0.0
 11
178.92563146549421
 21
4599.6909528342539
 31
0.0
  0
LINE
  5
8759
  8
0
 62
     7
 10
226.68066995773111
 20
3799.6909528342571
 30
0.0
 11
179.09617727347251
 21
3799.6909528342571
 31
0.0
  0
LINE
  5
875A
  8
0
 62
     7
 10
199.09617727347239
 20
4569.690952834253
 30
0.0
 11
199.09617727347239
 21
4428.7079400436332
 31
0.0
  0
LINE
  5
875B
  8
0
 62
     7
 10
199.09617727347259
 20
3829.6909528342562
 30
0.0
 11
199.09617727347259
 21
4043.6273245985931
 31
0.0
  0
SOLID
  5
875C
  8
0
 62
     7
 10
193.9256314654944
 20
4569.690952834253
 30
0.0
 11
203.92563146549421
 21
4569.690952834253
 31
0.0
 12
198.92563146549421
 22
4599.6909528342539
 32
0.0
 13
198.92563146549421
 23
4599.6909528342539
 33
0.0
  0
SOLID
  5
875D
  8
0
 62
     7
 10
194.09617727347279
 20
3829.6909528342562
 30
0.0
 11
204.09617727347259
 21
3829.6909528342562
 31
0.0
 12
199.09617727347259
 22
3799.6909528342571
 32
0.0
 13
199.09617727347259
 23
3799.6909528342571
 33
0.0
  0
LINE
  5
875F
  8
0
 62
     7
 10
2414.480777594044
 20
-40.131343452263991
 30
0.0
 11
2414.480777594044
 21
-20.131343452263909
 31
0.0
  0
LINE
  5
8762
  8
0
 62
     7
 10
3589.480777594043
 20
-40.131343452264097
 30
0.0
 11
3589.480777594043
 21
-20.131343452263909
 31
0.0
  0
LINE
  5
8792
  8
0
 62
     7
 10
226.5101241497797
 20
4599.6909528342539
 30
0.0
 11
179.096177273465
 21
4599.6909528342539
 31
0.0
  0
LINE
  5
8799
  8
0
 62
     7
 10
2414.480777594044
 20
-60.131343452263899
 30
0.0
 11
2414.480777594044
 21
-102.6922752610791
 31
0.0
  0
LINE
  5
879A
  8
0
 62
     7
 10
2204.4807775940449
 20
-17.131343452263881
 30
0.0
 11
2204.4807775940449
 21
-102.69227526107881
 31
0.0
  0
LINE
  5
879B
  8
0
 62
     7
 10
2384.480777594043
 20
-82.692275261079104
 30
0.0
 11
2234.4807775940449
 21
-82.692275261078862
 31
0.0
  0
LINE
  5
879C
  8
0
 62
     7
 10
2204.4807775940449
 20
-82.692275261078862
 30
0.0
 11
2174.4807775940458
 21
-82.692275261078862
 31
0.0
  0
SOLID
  5
879D
  8
0
 62
     7
 10
2384.480777594043
 20
-77.692275261079232
 30
0.0
 11
2384.480777594043
 21
-87.692275261079104
 31
0.0
 12
2414.480777594044
 22
-82.692275261079104
 32
0.0
 13
2414.480777594044
 23
-82.692275261079104
 33
0.0
  0
SOLID
  5
879E
  8
0
 62
     7
 10
2234.4807775940449
 20
-77.692275261078862
 30
0.0
 11
2234.4807775940449
 21
-87.692275261078862
 31
0.0
 12
2204.4807775940449
 22
-82.692275261078862
 32
0.0
 13
2204.4807775940449
 23
-82.692275261078862
 33
0.0
  0
LINE
  5
8942
  8
0
 10
4051.1219824173409
 20
4820.593807197276
 30
0.0
 11
17.492617917692652
 21
4820.593807197276
 31
0.0
  0
TEXT
  5
8946
  8
0
 62
     7
 10
214.0961772734718
 20
4063.9148938849471
 30
0.0
 40
30.0
  1
800 MTG CTRS
 50
90.0
  0
TEXT
  5
8947
  8
0
 62
     7
 10
137.4111324843272
 20
4102.9869908356159
 30
0.0
 40
30.0
  1
841 O/D
 50
90.0
  0
TEXT
  5
8948
  8
0
 62
     7
 10
1488.8052254081269
 20
4168.4383368743866
 30
0.0
 40
30.0
  1
783
 50
90.0
  0
TEXT
  5
8949
  8
0
 62
     7
 10
2089.137938713724
 20
-97.692275261078777
 30
0.0
 40
30.0
  1
210
  0
TEXT
  5
894A
  8
0
 62
     7
 10
2097.0884901159689
 20
535.73841325239619
 30
0.0
 40
30.0
  1
1330 O/A
 50
90.0
  0
TEXT
  5
894B
  8
0
 62
     7
 10
2875.1645845970111
 20
-97.75834538130411
 30
0.0
 40
30.0
  1
1175 CTRS
  0
TEXT
  5
894C
  8
0
 62
     7
 10
2887.485788847101
 20
-159.745826231405
 30
0.0
 40
30.0
  1
1594 O/D
  0
POLYLINE
  5
9073
  8
0
 66
     1
 10
0.0
 20
0.0
 30
0.0
 70
     1
  0
VERTEX
  5
974F
  8
0
 10
1336.680669957731
 20
4513.6909528342594
 30
0.0
  0
VERTEX
  5
9750
  8
0
 10
1336.680669957731
 20
3928.690952834259
 30
0.0
  0
VERTEX
  5
9751
  8
0
 10
1322.680669957731
 20
3928.690952834259
 30
0.0
  0
VERTEX
  5
9752
  8
0
 10
1322.680669957731
 20
4513.6909528342594
 30
0.0
  0
SEQEND
  5
9753
  8
0
  0
LINE
  5
90F2
  8
0
 62
     7
 10
3654.4307775940429
 20
3782.1909528342571
 30
0.0
 11
3654.4307775940429
 21
3808.190952834259
 31
0.0
  0
LINE
  5
90F3
  8
0
 62
     7
 10
3524.5307775940428
 20
3782.1909528342571
 30
0.0
 11
3524.5307775940428
 21
3808.1909528342571
 31
0.0
  0
LINE
  5
90F4
  8
0
 62
     7
 10
3524.5307775940428
 20
3782.1909528342571
 30
0.0
 11
3654.4307775940429
 21
3782.1909528342571
 31
0.0
  0
LINE
  5
90F6
  8
0
 62
     7
 10
2479.4307775940438
 20
4617.1909528342567
 30
0.0
 11
2479.4307775940438
 21
4591.1909528342549
 31
0.0
  0
LINE
  5
90F7
  8
0
 62
     7
 10
2349.5307775940428
 20
4617.1909528342567
 30
0.0
 11
2349.5307775940428
 21
4591.1909528342558
 31
0.0
  0
LINE
  5
90F8
  8
0
 62
     7
 10
2349.5307775940428
 20
4617.1909528342567
 30
0.0
 11
2479.4307775940438
 21
4617.1909528342567
 31
0.0
  0
LINE
  5
90F9
  8
0
 62
     7
 10
3654.4307775940429
 20
4617.1909528342567
 30
0.0
 11
3654.4307775940429
 21
4591.1909528342549
 31
0.0
  0
LINE
  5
90FA
  8
0
 62
     7
 10
3524.5307775940428
 20
4617.1909528342567
 30
0.0
 11
3524.5307775940428
 21
4591.1909528342558
 31
0.0
  0
LINE
  5
90FB
  8
0
 62
     7
 10
3524.5307775940428
 20
4617.1909528342567
 30
0.0
 11
3654.4307775940429
 21
4617.1909528342567
 31
0.0
  0
POLYLINE
  5
9103
  8
0
 66
     1
 10
0.0
 20
0.0
 30
0.0
 70
     1
  0
VERTEX
  5
9757
  8
0
 10
2430.980777594044
 20
1299.868656547736
 30
0.0
  0
VERTEX
  5
9758
  8
0
 10
3015.980777594043
 20
1299.868656547736
 30
0.0
  0
VERTEX
  5
9759
  8
0
 10
3015.980777594043
 20
1285.8686565477369
 30
0.0
  0
VERTEX
  5
975A
  8
0
 10
2430.980777594044
 20
1285.8686565477369
 30
0.0
  0
SEQEND
  5
975B
  8
0
  0
POLYLINE
  5
910C
  8
0
 66
     1
 10
0.0
 20
0.0
 30
0.0
 70
     1
  0
VERTEX
  5
975C
  8
0
 10
3092.980777594043
 20
1299.868656547736
 30
0.0
  0
VERTEX
  5
975D
  8
0
 10
3677.980777594044
 20
1299.868656547736
 30
0.0
  0
VERTEX
  5
975E
  8
0
 10
3677.980777594044
 20
1285.8686565477369
 30
0.0
  0
VERTEX
  5
975F
  8
0
 10
3092.980777594043
 20
1285.8686565477369
 30
0.0
  0
SEQEND
  5
9760
  8
0
  0
LINE
  5
9181
  8
0
 62
     7
 10
256.68066995773103
 20
4619.6909528342549
 30
0.0
 11
257.88066995772999
 21
4619.6909528342549
 31
0.0
  0
LINE
  5
9182
  8
0
 62
     7
 10
257.88066995772999
 20
4619.6909528342549
 30
0.0
 11
276.63066995773198
 21
4598.4409528342549
 31
0.0
  0
LINE
  5
9183
  8
0
 62
     7
 10
246.6806699577308
 20
4599.6909528342539
 30
0.0
 11
266.6806699577312
 21
4599.6909528342567
 31
0.0
  0
LINE
  5
9189
  8
0
 62
     7
 10
185.5366297600454
 20
3779.6909528342549
 30
0.0
 11
137.95213707576011
 21
3779.6909528342549
 31
0.0
  0
LINE
  5
918A
  8
0
 62
     7
 10
185.7071755679965
 20
3799.6909528342571
 30
0.0
 11
138.12268288373801
 21
3799.6909528342571
 31
0.0
  0
LINE
  5
918B
  8
0
 62
     7
 10
158.12268288373809
 20
3749.6909528342549
 30
0.0
 11
158.12268288373809
 21
3722.884583142838
 31
0.0
  0
SOLID
  5
918D
  8
0
 62
     7
 10
152.95213707576031
 20
3749.6909528342549
 30
0.0
 11
162.95213707576011
 21
3749.6909528342549
 31
0.0
 12
157.95213707576011
 22
3779.6909528342549
 32
0.0
 13
157.95213707576011
 23
3779.6909528342549
 33
0.0
  0
SOLID
  5
918E
  8
0
 62
     7
 10
153.12268288373829
 20
3829.6909528342562
 30
0.0
 11
163.12268288373809
 21
3829.6909528342562
 31
0.0
 12
158.12268288373809
 22
3799.6909528342571
 32
0.0
 13
158.12268288373809
 23
3799.6909528342571
 33
0.0
  0
LINE
  5
918F
  8
0
 62
     7
 10
185.5366297600454
 20
3779.6909528342549
 30
0.0
 11
138.12268288373079
 21
3779.6909528342549
 31
0.0
  0
TEXT
  5
9190
  8
0
 62
     7
 10
173.1226828837373
 20
3664.571184482581
 30
0.0
 40
30.0
  1
20
 50
90.0
  0
LINE
  5
91A5
  8
0
 62
     7
 10
158.12268288373821
 20
3856.4973225256749
 30
0.0
 11
158.12268288373821
 21
3829.6909528342562
 31
0.0
  0
VIEWPORT
  5
900C
 67
     1
  8
0
 10
5.648750245101807
 20
3.8662500832024511
 30
0.0
 40
19.972607840634009
 41
8.7478968378502522
 68
     1
 69
     1
1001
ACAD
1000
MVIEW
1002
{
1070
    16
1010
0.0
1020
0.0
1030
0.0
1010
0.0
1020
0.0
1030
1.0
1040
0.0
1040
8.7478968378502522
1040
5.648750245101807
1040
3.8662500832024511
1040
50.0
1040
0.0
1040
0.0
1070
     0
1070
   100
1070
     1
1070
     1
1070
     0
1070
     0
1070
     0
1070
     0
1040
0.0
1040
0.0
1040
0.0
1040
10.0
1040
10.0
1040
10.0
1040
10.0
1070
     0
1002
{
1002
}
1002
}
1001
GENIUS_GENOBJ-N-SDF_13
1002
{
1000
OWNER
1000
GEN
1002
}
1001
GENIUS_GENODEF_13
1002
{
1000
HIER
1070
     0
1002
}
1002
{
1000
MANEDIT
1070
     0
1002
}
1002
{
1000
NOSEL
1070
     0
1002
}
1002
{
1000
BEHIND
1070
     0
1002
}
1002
{
1000
OTHER
1070
     0
1002
}
1002
{
1000
REACTOR
1002
}
1001
GENIUS_GENSCREG_15
1000
PF
1040
1.0
1000
DF
1040
1.0
1000
MIN
1011
-4.3375536752151973
1021
0.0
1031
0.0
1021
-0.5076983357226759
1031
0.0
1000
MAX
1011
15.63505416541881
1021
0.0
1031
0.0
1021
8.2401985021275763
1031
0.0
1000
FLAGS
1070
     4
  0
VIEWPORT
  5
9010
 67
     1
  8
0
 10
5.6470831923597444
 20
3.8654168384281662
 30
0.0
 40
9.0353331077755925
 41
6.184666941485065
 68
     2
 69
     2
1001
ACAD
1000
MVIEW
1002
{
1070
    16
1010
0.0
1020
0.0
1030
0.0
1010
0.0
1020
0.0
1030
1.0
1040
0.0
1040
4713.100285012325
1040
2057.5437465944428
1040
2332.3444419077209
1040
50.0
1040
0.0
1040
0.0
1070
     0
1070
   100
1070
     1
1070
     1
1070
     0
1070
     0
1070
     0
1070
     0
1040
0.0
1040
0.0
1040
0.0
1040
10.0
1040
10.0
1040
10.0
1040
10.0
1070
     0
1002
{
1002
}
1002
}
1001
GENIUS_GENOBJ-N-SDF_13
1002
{
1000
OWNER
1000
GEN
1002
}
1001
GENIUS_GENODEF_13
1002
{
1000
HIER
1070
     0
1002
}
1002
{
1000
MANEDIT
1070
     0
1002
}
1002
{
1000
NOSEL
1070
     0
1002
}
1002
{
1000
BEHIND
1070
     0
1002
}
1002
{
1000
OTHER
1070
     0
1002
}
1002
{
1000
REACTOR
1002
}
1001
GENIUS_GENSCREG_15
1000
PF
1040
0.0
1000
DF
1040
0.0
1000
MIN
1011
1.129416638471948
1021
0.0
1031
0.0
1021
0.7730833676856337
1031
0.0
1000
MAX
1011
10.164749746247541
1021
0.0
1031
0.0
1021
6.9577503091706978
1031
0.0
1000
FLAGS
1070
     4
  0
ENDSEC
  0
EOF
