  0
SECTION
  2
HEADER
  9
$ACADVER
  1
AC1009
  9
$INSBASE
 10
0.0
 20
0.0
 30
0.0
  9
$EXTMIN
 10
770.66319177101457
 20
-0.2035604475640866
 30
-0.000000000000013
  9
$EXTMAX
 10
3890.000031699909
 20
2668.514735389067
 30
0.0000000000000023
  9
$LIMMIN
 10
0.0
 20
0.0
  9
$LIMMAX
 10
3890.0
 20
2660.0
  9
$ORTHOMODE
 70
     1
  9
$REGENMODE
 70
     1
  9
$FILLMODE
 70
     1
  9
$QTEXTMODE
 70
     0
  9
$MIRRTEXT
 70
     0
  9
$DRAGMODE
 70
     2
  9
$LTSCALE
 40
100.0
  9
$OSMODE
 70
  3071
  9
$ATTMODE
 70
     1
  9
$TEXTSIZE
 40
25.0
  9
$TRACEWID
 40
0.05
  9
$TEXTSTYLE
  7
TITLE3
  9
$CLAYER
  8
AM_5
  9
$CELTYPE
  6
BYLAYER
  9
$CECOLOR
 62
   256
  9
$DIMSCALE
 40
1.0
  9
$DIMASZ
 40
0.12
  9
$DIMEXO
 40
0.05
  9
$DIMDLI
 40
0.5
  9
$DIMRND
 40
0.0
  9
$DIMDLE
 40
0.0
  9
$DIMEXE
 40
0.1
  9
$DIMTP
 40
0.1
  9
$DIMTM
 40
0.1
  9
$DIMTXT
 40
0.12
  9
$DIMCEN
 40
0.0
  9
$DIMTSZ
 40
0.0
  9
$DIMTOL
 70
     0
  9
$DIMLIM
 70
     0
  9
$DIMTIH
 70
     1
  9
$DIMTOH
 70
     1
  9
$DIMSE1
 70
     0
  9
$DIMSE2
 70
     0
  9
$DIMTAD
 70
     0
  9
$DIMZIN
 70
     7
  9
$DIMBLK
  1

  9
$DIMASO
 70
     0
  9
$DIMSHO
 70
     0
  9
$DIMPOST
  1

  9
$DIMAPOST
  1
mm
  9
$DIMALT
 70
     0
  9
$DIMALTD
 70
     2
  9
$DIMALTF
 40
25.399999999999999
  9
$DIMLFAC
 40
1.0
  9
$DIMTOFL
 70
     0
  9
$DIMTVP
 40
0.0
  9
$DIMTIX
 70
     0
  9
$DIMSOXD
 70
     0
  9
$DIMSAH
 70
     0
  9
$DIMBLK1
  1

  9
$DIMBLK2
  1

  9
$DIMSTYLE
  2
AM_ANSI
  9
$DIMCLRD
 70
   256
  9
$DIMCLRE
 70
   256
  9
$DIMCLRT
 70
     2
  9
$DIMTFAC
 40
0.71
  9
$DIMGAP
 40
0.06
  9
$LUNITS
 70
     2
  9
$LUPREC
 70
     2
  9
$SKETCHINC
 40
0.1
  9
$FILLETRAD
 40
0.0
  9
$AUNITS
 70
     0
  9
$AUPREC
 70
     2
  9
$MENU
  1
\acad12\support\cnc
  9
$ELEVATION
 40
0.0
  9
$PELEVATION
 40
0.0
  9
$THICKNESS
 40
0.0
  9
$LIMCHECK
 70
     0
  9
$BLIPMODE
 70
     0
  9
$CHAMFERA
 40
0.0
  9
$CHAMFERB
 40
0.0
  9
$SKPOLY
 70
     0
  9
$TDCREATE
 40
2450764.4272488421
  9
$TDUPDATE
 40
2456406.3891003472
  9
$TDINDWG
 40
1.2514316667000001
  9
$TDUSRTIMER
 40
1.2514251620000001
  9
$USRTIMER
 70
     1
  9
$ANGBASE
 50
0.0
  9
$ANGDIR
 70
     0
  9
$PDMODE
 70
     2
  9
$PDSIZE
 40
10.0
  9
$PLINEWID
 40
0.0
  9
$COORDS
 70
     1
  9
$SPLFRAME
 70
     0
  9
$SPLINETYPE
 70
     6
  9
$SPLINESEGS
 70
     8
  9
$ATTDIA
 70
     1
  9
$ATTREQ
 70
     1
  9
$HANDLING
 70
     1
  9
$HANDSEED
  5
81BA
  9
$SURFTAB1
 70
     6
  9
$SURFTAB2
 70
     6
  9
$SURFTYPE
 70
     6
  9
$SURFU
 70
     6
  9
$SURFV
 70
     6
  9
$UCSNAME
  2

  9
$UCSORG
 10
0.0
 20
0.0
 30
0.0
  9
$UCSXDIR
 10
1.0
 20
0.0
 30
0.0
  9
$UCSYDIR
 10
0.0
 20
1.0
 30
0.0
  9
$PUCSNAME
  2

  9
$PUCSORG
 10
0.0
 20
0.0
 30
0.0
  9
$PUCSXDIR
 10
1.0
 20
0.0
 30
0.0
  9
$PUCSYDIR
 10
0.0
 20
1.0
 30
0.0
  9
$USERI1
 70
     0
  9
$USERI2
 70
     0
  9
$USERI3
 70
     0
  9
$USERI4
 70
     0
  9
$USERI5
 70
     0
  9
$USERR1
 40
0.0
  9
$USERR2
 40
0.0
  9
$USERR3
 40
0.0
  9
$USERR4
 40
0.0
  9
$USERR5
 40
0.0
  9
$WORLDVIEW
 70
     1
  9
$SHADEDGE
 70
     3
  9
$SHADEDIF
 70
    70
  9
$TILEMODE
 70
     1
  9
$MAXACTVP
 70
    16
  9
$PLIMCHECK
 70
     0
  9
$PEXTMIN
 10
1.0000000000000000E+020
 20
1.0000000000000000E+020
 30
1.0000000000000000E+020
  9
$PEXTMAX
 10
-1.0000000000000000E+020
 20
-1.0000000000000000E+020
 30
-1.0000000000000000E+020
  9
$PLIMMIN
 10
0.0
 20
0.0
  9
$PLIMMAX
 10
12.0
 20
9.0
  9
$UNITMODE
 70
     0
  9
$VISRETAIN
 70
     0
  9
$PLINEGEN
 70
     0
  9
$PSLTSCALE
 70
     0
  0
ENDSEC
  0
SECTION
  2
TABLES
  0
TABLE
  2
VPORT
 70
     1
  0
VPORT
  2
*ACTIVE
 70
     0
 10
0.0
 20
0.0
 11
1.0
 21
1.0
 12
-578.99038329217774
 22
269.21391844305572
 13
0.0
 23
0.0
 14
25.0
 24
25.0
 15
100.0
 25
100.0
 16
0.0
 26
0.0
 36
1.0
 17
2909.3219950276389
 27
1064.9416690276951
 37
-0.7257469300703157
 40
2687.8032896090021
 41
2.0727923627684959
 42
50.0
 43
0.0
 44
0.0
 50
0.0
 51
0.0
 71
     0
 72
   100
 73
     1
 74
     0
 75
     0
 76
     0
 77
     0
 78
     0
  0
ENDTAB
  0
TABLE
  2
LTYPE
 70
    13
  0
LTYPE
  2
CONTINUOUS
 70
     0
  3
Solid line
 72
    65
 73
     0
 40
0.0
  0
LTYPE
  2
PHANTOM2
 70
     0
  3
Phantom (.5x) ___ _ _ ___ _ _ ___ _ _ ___ _ _
 72
    65
 73
     6
 40
1.25
 49
0.625
 49
-0.125
 49
0.125
 49
-0.125
 49
0.125
 49
-0.125
  0
LTYPE
  2
PHANTOM
 70
     0
  3
Phantom ______  __  __  ______  __  __  ______
 72
    65
 73
     6
 40
2.5
 49
1.25
 49
-0.25
 49
0.25
 49
-0.25
 49
0.25
 49
-0.25
  0
LTYPE
  2
HIDDEN
 70
     0
  3
__ __ __ __ __ __ __ __ __ __ __ __ __ __ __ __
 72
    65
 73
     2
 40
0.375
 49
0.25
 49
-0.125
  0
LTYPE
  2
DASHED
 70
     0
  3
Dashed __ __ __ __ __ __ __ __ __ __ __ __ __ _
 72
    65
 73
     2
 40
0.75
 49
0.5
 49
-0.25
  0
LTYPE
  2
DOT
 70
     0
  3
Dot . . . . . . . . . . . . . . . . . . . . . .
 72
    65
 73
     2
 40
0.25
 49
0.0
 49
-0.25
  0
LTYPE
  2
CENTER
 70
     0
  3
Center ____ _ ____ _ ____ _ ____ _ ____ _ ____
 72
    65
 73
     4
 40
2.0
 49
1.25
 49
-0.25
 49
0.25
 49
-0.25
  0
LTYPE
  2
CENTER2
 70
     0
  3
Center (.5x) ___ _ ___ _ ___ _ ___ _ ___ _ ___
 72
    65
 73
     4
 40
1.125
 49
0.75
 49
-0.125
 49
0.125
 49
-0.125
  0
LTYPE
  2
HIDDEN2
 70
     0
  3
Hidden (.5x) _ _ _ _ _ _ _ _ _ _ _ _ _ _ _ _ _
 72
    65
 73
     2
 40
0.1875
 49
0.125
 49
-0.0625
  0
LTYPE
  2
ACANSTGB
 70
     0
  3
__ . . __ . .
 72
    65
 73
     6
 40
0.35433070866
 49
0.15748031496
 49
-0.03937007874
 49
0.03937007874
 49
-0.03937007874
 49
0.03937007874
 49
-0.03937007874
  0
LTYPE
  2
ACANSTGL
 70
     0
  3
_ _ _ _ _
 72
    65
 73
     2
 40
0.11811023622
 49
0.07874015748
 49
-0.03937007874
  0
ENDTAB
  0
TABLE
  2
LAYER
 70
     2
  0
LAYER
  2
0
 70
     0
 62
     7
  6
CONTINUOUS
  0
LAYER
  2
AM_5
 70
     0
 62
     3
  6
CONTINUOUS
  0
ENDTAB
  0
TABLE
  2
STYLE
 70
     7
  0
STYLE
  2
STANDARD
 70
     0
 40
0.0
 41
1.0
 50
0.0
 71
     0
 42
0.2
  3
txt
  4

  0
STYLE
  2
ANNOTATIVE
 70
     0
 40
0.0
 41
1.0
 50
0.0
 71
     0
 42
0.2
  3
txt
  4

  0
STYLE
  2
TITLE3
 70
     0
 40
25.0
 41
1.0
 50
0.0
 71
     0
 42
25.0
  3
SIMPLEX.shx
  4

  0
STYLE
  2
SIMPLEX
 70
     0
 40
40.0
 41
1.0
 50
0.0
 71
     0
 42
25.0
  3
SIMPLEX
  4

  0
STYLE
  2
TITLE5
 70
     0
 40
25.0
 41
1.0
 50
0.0
 71
     0
 42
25.0
  3
SIMPLEX
  4

  0
STYLE
  2
ACANSTS
 70
     0
 40
1.0
 41
1.0
 50
0.0
 71
     0
 42
25.0
  3
romans.shx
  4

  0
STYLE
  2
ACANSGDT
 70
     0
 40
0.0
 41
1.0
 50
0.0
 71
     0
 42
25.0
  3
amgdt.shx
  4

  0
ENDTAB
  0
TABLE
  2
VIEW
 70
     0
  0
ENDTAB
  0
TABLE
  2
UCS
 70
     0
  0
ENDTAB
  0
TABLE
  2
APPID
 70
    35
  0
APPID
  2
ACAD
 70
     0
  0
APPID
  2
ACADANNOTATIVE
 70
     0
  0
APPID
  2
ACAD_MLEADERVER
 70
     0
  0
APPID
  2
ACAD_EXEMPT_FROM_CAD_STANDARDS
 70
     0
  0
APPID
  2
ACAECLAYERSTANDARD
 70
     0
  0
APPID
  2
ACAD_DSTYLE_DIMTEXT_FILL
 70
     0
  0
APPID
  2
ACAD_DSTYLE_DIMEXT_LENGTH
 70
     0
  0
APPID
  2
ACAD_DSTYLE_DIMEXT_ENABLED
 70
     0
  0
APPID
  2
ACAD_DSTYLE_DIM_LINETYPE
 70
     0
  0
APPID
  2
ACAD_DSTYLE_DIM_EXT1_LINETYPE
 70
     0
  0
APPID
  2
ACAD_DSTYLE_DIM_EXT2_LINETYPE
 70
     0
  0
APPID
  2
ACAD_DSTYLE_DIMJOGGED_JOGA
 70
     0
  0
APPID
  2
ACAD_DSTYLE_DIMARC_LENGTH_
 70
     0
  0
APPID
  2
ACAD_PSEXT
 70
     0
  0
APPID
  2
CONTENTBLOCKICON
 70
     0
  0
APPID
  2
GENIUS_GENDIM_13
 70
     0
  0
APPID
  2
GENIUS_GENDTOL_13
 70
     0
  0
APPID
  2
GENIUS_GE3DTOL_13
 70
     0
  0
APPID
  2
MCAD_NO_VIS
 70
     0
  0
APPID
  2
ACAD_TEMP_GRAPHIC
 70
     0
  0
APPID
  2
AD_DRAW
 70
     0
  0
APPID
  2
ACATTRIBSERVICES
 70
     0
  0
APPID
  2
ASURF_PCURVE_APPNAME
 70
     0
  0
APPID
  2
AMG_3D2D_5_0
 70
     0
  0
APPID
  2
DESIGNERASSEMBLIES
 70
     0
  0
APPID
  2
ACADM_DIM_EDIT
 70
     0
  0
APPID
  2
AMDT_DM_ADJ
 70
     0
  0
APPID
  2
AMG_3D2D_5_00
 70
     0
  0
APPID
  2
AMG_3D2D_5_01
 70
     0
  0
APPID
  2
ACAD_DSTYLE_DIMBREAK
 70
     0
  0
APPID
  2
ACAD_DSTYLE_DIMJAG
 70
     0
  0
APPID
  2
ACAD_NAV_VCDISPLAY
 70
     0
  0
APPID
  2
GENIUS_GENREC_14
 70
     0
  0
APPID
  2
GENIUS_GENODEF_13
 70
     0
  0
APPID
  2
GENIUS_GENOBJ-N-REC_13
 70
     0
  0
ENDTAB
  0
TABLE
  2
DIMSTYLE
 70
     9
  0
DIMSTYLE
  2
STANDARD
 70
     0
  3

  4

  5

  6

  7

 40
1.0
 41
0.18
 42
0.0625
 43
0.38
 44
0.18
 45
0.0
 46
0.0
 47
0.0
 48
0.0
140
0.18
141
0.09
142
0.0
143
25.399999999999999
144
1.0
145
0.0
146
1.0
147
0.09
 71
     0
 72
     0
 73
     1
 74
     1
 75
     0
 76
     0
 77
     0
 78
     0
170
     0
171
     2
172
     0
173
     0
174
     0
175
     0
176
     0
177
     0
178
     0
  0
DIMSTYLE
  2
ANNOTATIVE
 70
     0
  3

  4

  5

  6

  7

 40
1.0
 41
0.18
 42
0.0625
 43
0.38
 44
0.18
 45
0.0
 46
0.0
 47
0.0
 48
0.0
140
0.18
141
0.09
142
0.0
143
25.399999999999999
144
1.0
145
0.0
146
1.0
147
0.09
 71
     0
 72
     0
 73
     1
 74
     1
 75
     0
 76
     0
 77
     0
 78
     0
170
     0
171
     2
172
     0
173
     0
174
     0
175
     0
176
     0
177
     0
178
     0
  0
DIMSTYLE
  2
AM_ANSI
 70
     0
  3

  4
mm
  5

  6

  7

 40
1.0
 41
0.12
 42
0.05
 43
0.5
 44
0.1
 45
0.0
 46
0.0
 47
0.1
 48
0.1
140
0.12
141
0.0
142
0.0
143
25.399999999999999
144
1.0
145
0.0
146
0.71
147
0.06
 71
     0
 72
     0
 73
     1
 74
     1
 75
     0
 76
     0
 77
     0
 78
     7
170
     0
171
     2
172
     0
173
     0
174
     0
175
     0
176
   256
177
   256
178
     2
  0
DIMSTYLE
  2
AM_ANSI$3
 70
     0
  3

  4
mm
  5

  6

  7

 40
1.0
 41
0.12
 42
0.05
 43
0.5
 44
0.1
 45
0.0
 46
0.0
 47
0.1
 48
0.1
140
0.12
141
0.0
142
0.0
143
25.399999999999999
144
1.0
145
0.0
146
0.71
147
0.06
 71
     0
 72
     0
 73
     1
 74
     1
 75
     0
 76
     0
 77
     0
 78
     7
170
     0
171
     2
172
     0
173
     0
174
     0
175
     0
176
   256
177
   256
178
     2
  0
DIMSTYLE
  2
AM_ANSI$4
 70
     0
  3

  4
mm
  5

  6

  7

 40
1.0
 41
0.12
 42
0.05
 43
0.5
 44
0.1
 45
0.0
 46
0.0
 47
0.1
 48
0.1
140
0.12
141
0.0
142
0.0
143
25.399999999999999
144
1.0
145
0.0
146
0.71
147
0.06
 71
     0
 72
     0
 73
     1
 74
     1
 75
     0
 76
     0
 77
     0
 78
     7
170
     0
171
     2
172
     0
173
     0
174
     0
175
     0
176
   256
177
   256
178
     2
  0
DIMSTYLE
  2
AM_ANSI$7
 70
     0
  3

  4
mm
  5

  6

  7

 40
1.0
 41
0.12
 42
0.05
 43
0.5
 44
0.1
 45
0.0
 46
0.0
 47
0.1
 48
0.1
140
0.12
141
0.0
142
0.0
143
25.399999999999999
144
1.0
145
0.0
146
0.71
147
0.06
 71
     0
 72
     0
 73
     1
 74
     1
 75
     0
 76
     0
 77
     0
 78
     7
170
     0
171
     2
172
     0
173
     0
174
     0
175
     0
176
   256
177
   256
178
     2
  0
DIMSTYLE
  2
AM_ANSI$SF
 70
     0
  3

  4
mm
  5

  6

  7

 40
1.0
 41
0.12
 42
0.05
 43
0.5
 44
0.1
 45
0.0
 46
0.0
 47
0.1
 48
0.1
140
0.12
141
0.0
142
0.0
143
25.399999999999999
144
1.0
145
0.0
146
0.71
147
0.06
 71
     0
 72
     0
 73
     1
 74
     1
 75
     1
 76
     1
 77
     0
 78
     7
170
     0
171
     2
172
     0
173
     0
174
     0
175
     0
176
   256
177
   256
178
     2
  0
DIMSTYLE
  2
AM_ANSI$SH
 70
     0
  3

  4
mm
  5

  6

  7

 40
1.0
 41
0.12
 42
0.05
 43
0.5
 44
0.1
 45
0.0
 46
0.0
 47
0.1
 48
0.1
140
0.12
141
0.0
142
0.0
143
25.399999999999999
144
1.0
145
0.0
146
0.71
147
0.06
 71
     0
 72
     0
 73
     1
 74
     1
 75
     1
 76
     1
 77
     0
 78
     7
170
     0
171
     2
172
     0
173
     1
174
     0
175
     0
176
   256
177
   256
178
     2
  0
ENDTAB
  0
ENDSEC
  0
SECTION
  2
BLOCKS
  0
BLOCK
  8
0
  2
$MODEL_SPACE
 70
     0
 10
0.0
 20
0.0
 30
0.0
  3
$MODEL_SPACE
  1

  0
ENDBLK
  5
78E0
  8
0
  0
BLOCK
 67
     1
  8
0
  2
$PAPER_SPACE
 70
     0
 10
0.0
 20
0.0
 30
0.0
  3
$PAPER_SPACE
  1

  0
ENDBLK
  5
78DC
 67
     1
  8
0
  0
BLOCK
  8
0
  2
GENAXEH
 70
     0
 10
0.0
 20
0.0
 30
0.0
  3
GENAXEH
  1

  0
LINE
  5
699B
  8
0
 10
-1.0
 20
0.0
 30
0.0
 11
1.0
 21
0.0
 31
0.0
  0
ENDBLK
  5
699D
  8
0
  0
ENDSEC
  0
SECTION
  2
ENTITIES
  0
LINE
  5
23F5
  8
0
 62
     7
 10
1768.4714811161971
 20
2338.2184047986279
 30
0.0
 11
1739.938879130812
 21
2306.0451721714398
 31
0.0
  0
LINE
  5
23F7
  8
0
 62
     7
 10
1729.888905153284
 20
2355.6842056376399
 30
0.0
 11
1749.9888531083391
 21
2355.6842056376399
 31
0.0
  0
LINE
  5
23F8
  8
0
 62
     7
 10
1749.9888531083391
 20
2355.6842056376399
 30
0.0
 11
1749.9888531083391
 21
2338.2184047986261
 31
0.0
  0
LINE
  5
23F9
  8
0
 62
     7
 10
1749.9888531083391
 20
2338.2184047986261
 30
0.0
 11
1768.4714811161971
 21
2338.2184047986279
 31
0.0
  0
LINE
  5
23FD
  8
0
 62
     7
 10
1711.406277145428
 20
2338.2184047986279
 30
0.0
 11
1739.938879130812
 21
2306.0451721714398
 31
0.0
  0
LINE
  5
23FE
  8
0
 62
     7
 10
1729.888905153284
 20
2355.6842056376399
 30
0.0
 11
1729.888905153284
 21
2338.2184047986261
 31
0.0
  0
LINE
  5
23FF
  8
0
 62
     7
 10
1729.888905153284
 20
2338.2184047986261
 30
0.0
 11
1711.406277145428
 21
2338.2184047986279
 31
0.0
  0
LINE
  5
2400
  8
0
 62
     7
 10
1743.5111227906141
 20
1727.3907789632331
 30
0.0
 11
1714.978520805229
 21
1695.2175463360461
 31
0.0
  0
LINE
  5
2401
  8
0
 62
     7
 10
1704.928546827701
 20
1744.856579802243
 30
0.0
 11
1725.0284947827579
 21
1744.856579802243
 31
0.0
  0
LINE
  5
2402
  8
0
 62
     7
 10
1725.0284947827579
 20
1744.856579802243
 30
0.0
 11
1725.0284947827579
 21
1727.3907789632331
 31
0.0
  0
LINE
  5
2403
  8
0
 62
     7
 10
1725.0284947827579
 20
1727.3907789632331
 30
0.0
 11
1743.5111227906141
 21
1727.3907789632331
 31
0.0
  0
LINE
  5
2404
  8
0
 62
     7
 10
1686.445918819845
 20
1727.3907789632331
 30
0.0
 11
1714.978520805229
 21
1695.2175463360461
 31
0.0
  0
LINE
  5
2405
  8
0
 62
     7
 10
1704.928546827701
 20
1744.856579802243
 30
0.0
 11
1704.928546827701
 21
1727.3907789632331
 31
0.0
  0
LINE
  5
2406
  8
0
 62
     7
 10
1704.928546827701
 20
1727.3907789632331
 30
0.0
 11
1686.445918819845
 21
1727.3907789632331
 31
0.0
  0
LINE
  5
30F6
  8
0
 62
     7
 10
3890.000000000156
 20
0.0
 30
0.0
 11
770.69435074341663
 21
0.0
 31
0.0
  0
LINE
  5
30F7
  8
0
 62
     7
 10
770.69435074341663
 20
0.0
 30
0.0
 11
770.69435074341663
 21
2668.514722961309
 31
0.0
  0
LINE
  5
30F8
  8
0
 62
     7
 10
770.69435074341663
 20
2668.5147229613081
 30
0.0
 11
3890.000000000156
 21
2668.5147229613081
 31
0.0
  0
LINE
  5
30F9
  8
0
 62
     7
 10
3890.000000000156
 20
2668.5147229613081
 30
0.0
 11
3890.000000000156
 21
0.0
 31
0.0
  0
TEXT
  5
3AC8
  8
0
 62
     7
 10
918.51797040702866
 20
51.50540564507029
 30
0.0
 40
33.599999999996733
  1
available on request
  7
TITLE3
  0
TEXT
  5
3AC9
  8
0
 62
     7
 10
918.51797040702866
 20
109.10540564506459
 30
0.0
 40
33.599999999996733
  1
Certified dimensions
  7
TITLE3
  0
TEXT
  5
3ACA
  8
0
 62
     7
 10
918.51797040702866
 20
166.70540564505899
 30
0.0
 40
33.599999999996733
  1
without notice or obligation.
  7
TITLE3
  0
TEXT
  5
3ACB
  8
0
 62
     7
 10
918.51797040702866
 20
224.3054056450533
 30
0.0
 40
33.599999999996733
  1
specifications at any time
  7
TITLE3
  0
TEXT
  5
3ACC
  8
0
 62
     7
 10
918.51797040702866
 20
281.90540564504778
 30
0.0
 40
33.599999999996733
  1
the right to change 
  7
TITLE3
  0
TEXT
  5
3ACD
  8
0
 62
     7
 10
918.51797040702866
 20
397.10540564503611
 30
0.0
 40
33.599999999996733
  1
NOTE
  7
TITLE3
  0
TEXT
  5
3ACE
  8
0
 62
     7
 10
918.51797040702866
 20
339.50540564504212
 30
0.0
 40
33.599999999996733
  1
The manufacturer reserves
  7
TITLE3
  0
TEXT
  5
430A
  8
0
 62
     7
 10
2499.9562436667161
 20
1932.569666720748
 30
0.0
 40
25.0
  1
ELECTRIC
  7
TITLE3
  0
TEXT
  5
430B
  8
0
 62
     7
 10
2499.9562436667161
 20
1890.9030000540811
 30
0.0
 40
25.0
  1
BOX
  7
TITLE3
  0
SOLID
  5
430C
  8
0
 62
     7
 10
2330.2605787433608
 20
1899.9612727287861
 30
0.0
 11
2300.9935768057489
 21
1891.6882685837479
 31
0.0
 12
2325.9954421591528
 22
1909.0060839439529
 32
0.0
 13
2325.9954421591528
 23
1909.0060839439529
 33
0.0
  0
TEXT
  5
4438
  8
0
 62
     7
 10
2573.6560087405001
 20
346.72214982266092
 30
0.0
 40
62.5
  1
temperzone ISD 139KY-DL
 41
0.9804616448350083
  7
TITLE5
 72
     5
 11
3822.577389661285
 21
346.72214982266092
 31
0.0
  0
TEXT
  5
4439
  8
0
 62
     7
 10
3315.000000000156
 20
87.5
 30
0.0
 40
37.5
  1
ISD 139KY-DL
 41
0.9062500000000003
  7
TITLE3
 72
     5
 11
3677.500000000156
 21
87.5
 31
0.0
  0
TEXT
  5
443A
  8
0
 62
     7
 10
2748.958007352584
 20
137.5
 30
0.0
 40
37.5
  1
23-04-13
 41
0.6913580246913599
  7
TITLE3
 72
     5
 11
2948.9580073525849
 21
137.5
 31
0.0
  0
TEXT
  5
443B
  8
0
 62
     7
 10
2583.941228961347
 20
138.53901732512611
 30
0.0
 40
30.0
  1
Date
  7
SIMPLEX
  0
TEXT
  5
443C
  8
0
 62
     7
 10
3710.1389904671569
 20
161.879127529264
 30
0.0
 40
30.0
  1
Revision
 41
0.7812095035934841
  7
SIMPLEX
 72
     5
 11
3841.828592501487
 21
161.879127529264
 31
0.0
  0
LINE
  5
443D
  8
0
 62
     7
 10
3695.614187487854
 20
26.053116060396409
 30
0.0
 11
3695.614187487854
 21
210.3358196356829
 31
0.0
  0
LINE
  5
443E
  8
0
 62
     7
 10
2551.6894118215901
 20
433.29949611692632
 30
0.0
 11
2551.6894118215901
 21
26.053116060396409
 31
0.0
  0
LINE
  5
443F
  8
0
 62
     7
 10
3298.6420975165261
 20
26.053116060396409
 30
0.0
 11
3298.6420975165261
 21
210.3358196356829
 31
0.0
  0
LINE
  5
4440
  8
0
 62
     7
 10
3298.6420975165261
 20
116.6407490868297
 30
0.0
 11
2551.6894118215901
 21
116.6407490868297
 31
0.0
  0
LINE
  5
4441
  8
0
 62
     7
 10
3854.4693315474578
 20
210.3358196356829
 30
0.0
 11
2551.6894118215901
 21
210.3358196356829
 31
0.0
  0
LINE
  5
4442
  8
0
 62
     7
 10
2551.6894118215901
 20
26.053116060396409
 30
0.0
 11
3854.0974475745211
 21
26.053116060396409
 31
0.0
  0
LINE
  5
4443
  8
0
 62
     7
 10
3854.0974475745211
 20
26.053116060396409
 30
0.0
 11
3854.0974475745211
 21
433.29949611692632
 31
0.0
  0
LINE
  5
4444
  8
0
 62
     7
 10
3854.0974475745211
 20
433.29949611692632
 30
0.0
 11
2551.6894118215901
 21
433.29949611692632
 31
0.0
  0
TEXT
  5
4445
  8
0
 62
     7
 10
2583.1040238790438
 20
59.903110081697093
 30
0.0
 40
25.0
  1
Scale
 41
1.3701747965659681
  7
SIMPLEX
 72
     5
 11
2708.7033802309238
 21
59.903110081697093
 31
0.0
  0
TEXT
  5
4446
  8
0
 62
     7
 10
3371.0739045011542
 20
161.1167893833869
 30
0.0
 40
25.0
  1
Drawing No.
  7
SIMPLEX
 72
     2
 11
3588.9310473582959
 21
161.1167893833869
 31
0.0
  0
TEXT
  5
444B
  8
0
 62
     7
 10
2766.9599802419848
 20
58.608558680249381
 30
0.0
 40
37.5
  1
1:10
  7
TITLE3
  0
LINE
  5
446A
  8
0
 62
     7
 10
2328.128010451258
 20
1904.4836783363701
 30
0.0
 11
2370.016243666716
 21
1924.2363333874141
 31
0.0
  0
LINE
  5
446B
  8
0
 62
     7
 10
2370.016243666716
 20
1924.2363333874141
 30
0.0
 11
2479.9562436667152
 21
1924.2363333874141
 31
0.0
  0
LINE
  5
50D1
  8
0
 10
1136.807976166227
 20
2374.7001991520801
 30
0.0
 11
2348.807976166227
 21
2374.7001991520801
 31
0.0
  0
LINE
  5
50D2
  8
0
 10
2348.807976166227
 20
2374.7001991520801
 30
0.0
 11
2348.807976166227
 21
2125.6501991520781
 31
0.0
  0
LINE
  5
50D3
  8
0
 10
1116.8579761662279
 20
2125.6501991520781
 30
0.0
 11
2368.7579761662269
 21
2125.6501991520781
 31
0.0
  0
LINE
  5
50D6
  8
0
 10
1136.807976166227
 20
2374.7001991520801
 30
0.0
 11
1136.807976166227
 21
2125.6501991520781
 31
0.0
  0
LINE
  5
50D9
  8
0
 10
1181.957976166226
 20
2425.6501991520772
 30
0.0
 11
2280.9579761662271
 21
2425.6501991520772
 31
0.0
  0
LINE
  5
50DA
  8
0
 10
1181.957976166226
 20
2425.6501991520772
 30
0.0
 11
1181.957976166226
 21
2374.7001991520801
 31
0.0
  0
LINE
  5
50DB
  8
0
 10
2280.9579761662271
 20
2425.6501991520772
 30
0.0
 11
2280.9579761662271
 21
2374.7001991520801
 31
0.0
  0
LINE
  5
50DC
  8
0
 10
1116.8579761662279
 20
2384.6501991520799
 30
0.0
 11
1116.8579761662279
 21
2373.200199152081
 31
0.0
  0
LINE
  5
50DD
  8
0
 10
2368.7579761662269
 20
2384.6501991520799
 30
0.0
 11
2368.7579761662269
 21
2373.200199152081
 31
0.0
  0
LINE
  5
50DE
  8
0
 10
1116.8579761662279
 20
2384.6501991520799
 30
0.0
 11
1181.957976166226
 21
2384.6501991520799
 31
0.0
  0
LINE
  5
50DF
  8
0
 10
2280.9579761662271
 20
2384.6501991520799
 30
0.0
 11
2368.7579761662269
 21
2384.6501991520799
 31
0.0
  0
LINE
  5
513A
  8
0
 10
2396.7579761662269
 20
2261.2251991520789
 30
0.0
 11
2396.7579761662269
 21
2245.2251991520789
 31
0.0
  0
LINE
  5
513C
  8
0
 10
2368.7579761662269
 20
2261.2251991520811
 30
0.0
 11
2396.7579761662269
 21
2261.2251991520811
 31
0.0
  0
LINE
  5
513D
  8
0
 10
2368.7579761662269
 20
2245.225199152082
 30
0.0
 11
2396.7579761662269
 21
2245.2251991520789
 31
0.0
  0
LINE
  5
513F
  8
0
 10
2348.807976166227
 20
2163.7101991520772
 30
0.0
 11
2390.751976166227
 21
2163.7101991520772
 31
0.0
  0
LINE
  5
5140
  8
0
 10
2348.807976166227
 20
2143.7101991520772
 30
0.0
 11
2390.751976166227
 21
2143.7101991520781
 31
0.0
  0
LINE
  5
5141
  8
0
 10
2390.751976166227
 20
2163.7101991520772
 30
0.0
 11
2390.751976166227
 21
2143.7101991520781
 31
0.0
  0
LINE
  5
5142
  8
0
 10
2368.7579761662269
 20
2143.7101991520781
 30
0.0
 11
2368.7579761662269
 21
2125.6501991520781
 31
0.0
  0
LINE
  5
518F
  8
0
 10
2378.307976166227
 20
2373.200199152081
 30
0.0
 11
2378.307976166227
 21
2345.2001991520801
 31
0.0
  0
LINE
  5
5190
  8
0
 10
2348.807976166227
 20
2373.200199152081
 30
0.0
 11
2378.307976166227
 21
2373.200199152081
 31
0.0
  0
LINE
  5
5191
  8
0
 10
2348.807976166227
 20
2345.2001991520801
 30
0.0
 11
2378.307976166227
 21
2345.2001991520801
 31
0.0
  0
POINT
  5
5193
  8
0
 10
2364.307976166227
 20
2359.200199152081
 30
0.0
  0
LINE
  5
51E5
  8
0
 10
1136.807976166227
 20
2373.200199152081
 30
0.0
 11
1107.307976166227
 21
2373.200199152081
 31
0.0
  0
LINE
  5
51E6
  8
0
 10
1136.807976166227
 20
2345.2001991520801
 30
0.0
 11
1107.307976166227
 21
2345.2001991520801
 31
0.0
  0
LINE
  5
51E7
  8
0
 10
1107.307976166227
 20
2373.200199152081
 30
0.0
 11
1107.307976166227
 21
2345.2001991520801
 31
0.0
  0
POINT
  5
51E8
  8
0
 10
1121.307976166227
 20
2359.200199152081
 30
0.0
 50
180.0
  0
LINE
  5
51EE
  8
0
 10
1116.8579761662279
 20
2345.2001991520801
 30
0.0
 11
1116.8579761662279
 21
2125.6501991520781
 31
0.0
  0
LINE
  5
5287
  8
0
 10
2209.3079761662239
 20
2125.6501991520781
 30
0.0
 11
2209.307976166227
 21
1691.6501991520779
 31
0.0
  0
LINE
  5
5288
  8
0
 10
1243.3079761662279
 20
1691.6501991520779
 30
0.0
 11
2209.3079761662239
 21
1691.6501991520779
 31
0.0
  0
LINE
  5
5289
  8
0
 10
1243.3079761662279
 20
2125.6501991520781
 30
0.0
 11
1243.3079761662279
 21
1691.6501991520779
 31
0.0
  0
LINE
  5
528A
  8
0
 10
1243.3079761662279
 20
1691.6501991520779
 30
0.0
 11
1243.3079761662279
 21
1641.6501991520779
 31
0.0
  0
LINE
  5
528B
  8
0
 10
1243.3079761662279
 20
1641.6501991520779
 30
0.0
 11
2209.307976166227
 21
1641.650199152077
 31
0.0
  0
LINE
  5
528D
  8
0
 10
2209.307976166227
 20
1691.6501991520779
 30
0.0
 11
2209.307976166227
 21
1641.650199152077
 31
0.0
  0
LINE
  5
528F
  8
0
 10
2209.307976166227
 20
1724.1001991520779
 30
0.0
 11
2243.307976166227
 21
1724.1001991520779
 31
0.0
  0
LINE
  5
5290
  8
0
 10
2209.307976166227
 20
1696.1001991520779
 30
0.0
 11
2243.307976166227
 21
1696.1001991520779
 31
0.0
  0
LINE
  5
5291
  8
0
 10
2243.307976166227
 20
1724.1001991520779
 30
0.0
 11
2243.307976166227
 21
1696.1001991520779
 31
0.0
  0
POINT
  5
5292
  8
0
 10
2229.307976166227
 20
1710.1001991520779
 30
0.0
  0
LINE
  5
5293
  8
0
 10
1243.3079761662279
 20
1724.1001991520779
 30
0.0
 11
1213.307976166227
 21
1724.1001991520779
 31
0.0
  0
LINE
  5
5294
  8
0
 10
1243.3079761662279
 20
1696.1001991520779
 30
0.0
 11
1213.307976166227
 21
1696.1001991520779
 31
0.0
  0
LINE
  5
5295
  8
0
 10
1213.307976166227
 20
1724.1001991520779
 30
0.0
 11
1213.307976166227
 21
1696.1001991520779
 31
0.0
  0
POINT
  5
5296
  8
0
 10
1227.307976166227
 20
1710.1001991520779
 30
0.0
 50
180.0
  0
LINE
  5
52E3
  8
0
 10
2300.617976166227
 20
2079.5301991520769
 30
0.0
 11
2300.617976166227
 21
1733.1001991520779
 31
0.0
  0
LINE
  5
52E4
  8
0
 10
2209.3079761662239
 20
1733.1001991520779
 30
0.0
 11
2300.617976166227
 21
1733.1001991520779
 31
0.0
  0
LINE
  5
52E5
  8
0
 10
2209.3079761662239
 20
2079.5301991520769
 30
0.0
 11
2300.617976166227
 21
2079.5301991520769
 31
0.0
  0
LINE
  5
536B
  8
0
 10
3565.2648659109282
 20
1044.162332160872
 30
0.0
 11
3565.2648659109282
 21
649.16233216087164
 31
0.0
  0
LINE
  5
536C
  8
0
 10
3316.2148659109262
 20
1044.162332160872
 30
0.0
 11
3316.2148659109262
 21
624.16233216087164
 31
0.0
  0
LINE
  5
536D
  8
0
 10
3575.214865910928
 20
624.16233216087164
 30
0.0
 11
3316.2148659109262
 21
624.16233216087164
 31
0.0
  0
LINE
  5
536F
  8
0
 10
3575.214865910928
 20
649.16233216087187
 30
0.0
 11
3575.214865910928
 21
624.16233216087164
 31
0.0
  0
LINE
  5
5370
  8
0
 10
3575.214865910928
 20
649.16233216087164
 30
0.0
 11
3356.9748659109259
 21
649.16233216087164
 31
0.0
  0
LINE
  5
5371
  8
0
 10
3616.2148659109271
 20
1030.162332160872
 30
0.0
 11
3616.2148659109271
 21
671.16233216087176
 31
0.0
  0
LINE
  5
5372
  8
0
 10
3616.2148659109271
 20
671.16233216087176
 30
0.0
 11
3565.2648659109282
 21
671.16233216087176
 31
0.0
  0
LINE
  5
5373
  8
0
 10
3616.2148659109271
 20
1030.162332160872
 30
0.0
 11
3565.2648659109259
 21
1030.162332160872
 31
0.0
  0
CIRCLE
  5
53C2
  8
0
 10
3443.7898659109242
 20
632.998332160872
 30
0.0
 40
8.0
  0
ARC
  5
5412
  8
0
 10
3344.2748659109261
 20
649.16233216087164
 30
0.0
 40
12.699999999999999
 50
180.0
 51
0.0
  0
LINE
  5
5413
  8
0
 10
3331.5748659109249
 20
649.16233216087164
 30
0.0
 11
3316.2148659109262
 21
649.16233216087164
 31
0.0
  0
CIRCLE
  5
5415
  8
0
 10
3344.2748659109261
 20
649.82633216087231
 30
0.0
 40
10.0
  0
LINE
  5
54B4
  8
0
 10
3570.3648659109272
 20
1055.162332160872
 30
0.0
 11
3570.3648659109272
 21
959.76233216087223
 31
0.0
  0
LINE
  5
54B5
  8
0
 10
3542.3648659109258
 20
1055.162332160872
 30
0.0
 11
3542.3648659109258
 21
959.76233216087223
 31
0.0
  0
LINE
  5
54B6
  8
0
 10
3542.3648659109258
 20
959.76233216087223
 30
0.0
 11
3570.3648659109272
 21
959.76233216087223
 31
0.0
  0
LINE
  5
54B7
  8
0
 10
3542.3648659109258
 20
1055.162332160872
 30
0.0
 11
3570.3648659109272
 21
1055.162332160872
 31
0.0
  0
LINE
  5
54B8
  8
0
 10
3542.3648659109258
 20
1052.6623321608711
 30
0.0
 11
3570.3648659109272
 21
1052.6623321608711
 31
0.0
  0
LINE
  5
54BB
  8
0
 10
3556.3648659109249
 20
1050.0281385792759
 30
0.0
 11
3556.3648659109249
 21
1062.5281385792759
 31
0.0
  0
LINE
  5
54BD
  8
0
 10
3565.2648659109282
 20
1044.162332160872
 30
0.0
 11
3316.2148659109262
 21
1044.162332160872
 31
0.0
  0
LINE
  5
551A
  8
0
 10
3316.2148659109262
 20
635.11233216087214
 30
0.0
 11
2882.2148659109248
 21
635.11233216087214
 31
0.0
  0
LINE
  5
551B
  8
0
 10
2882.2148659109248
 20
1041.808621776052
 30
0.0
 11
2882.2148659109248
 21
635.11233216087214
 31
0.0
  0
LINE
  5
551C
  8
0
 10
3316.2148659109262
 20
1041.808621776052
 30
0.0
 11
2882.2148659109248
 21
1041.808621776052
 31
0.0
  0
LINE
  5
551D
  8
0
 10
2882.2148659109248
 20
641.06233216087185
 30
0.0
 11
2832.2148659109248
 21
641.06233216087185
 31
0.0
  0
LINE
  5
551E
  8
0
 10
2832.2148659109248
 20
917.06233216087185
 30
0.0
 11
2832.2148659109248
 21
641.06233216087185
 31
0.0
  0
LINE
  5
551F
  8
0
 10
2882.2148659109248
 20
917.06233216087196
 30
0.0
 11
2832.2148659109248
 21
917.06233216087185
 31
0.0
  0
LINE
  5
5520
  8
0
 10
2923.6648659109269
 20
1028.477332160872
 30
0.0
 11
2923.6648659109228
 21
639.88733216087201
 31
0.0
  0
LINE
  5
5521
  8
0
 10
3261.0948659109272
 20
1028.477332160872
 30
0.0
 11
3261.0948659109272
 21
639.88733216087201
 31
0.0
  0
LINE
  5
5522
  8
0
 10
3261.0948659109272
 20
639.88733216087201
 30
0.0
 11
2923.6648659109228
 21
639.88733216087201
 31
0.0
  0
LINE
  5
5523
  8
0
 10
3261.0948659109272
 20
1028.477332160872
 30
0.0
 11
2923.6648659109269
 21
1028.477332160872
 31
0.0
  0
LINE
  5
5525
  8
0
 10
2904.3648659109258
 20
1055.162332160872
 30
0.0
 11
2904.3648659109258
 21
959.76233216087223
 31
0.0
  0
LINE
  5
5526
  8
0
 10
2876.364865910924
 20
1055.162332160872
 30
0.0
 11
2876.364865910924
 21
959.76233216087223
 31
0.0
  0
LINE
  5
5527
  8
0
 10
2876.364865910924
 20
959.76233216087223
 30
0.0
 11
2904.3648659109258
 21
959.76233216087223
 31
0.0
  0
LINE
  5
5528
  8
0
 10
2876.364865910924
 20
1055.162332160872
 30
0.0
 11
2904.3648659109258
 21
1055.162332160872
 31
0.0
  0
LINE
  5
5529
  8
0
 10
2876.364865910924
 20
1052.6623321608711
 30
0.0
 11
2904.3648659109258
 21
1052.6623321608711
 31
0.0
  0
LINE
  5
552A
  8
0
 10
2890.3648659109258
 20
1047.662332160872
 30
0.0
 11
2890.3648659109258
 21
1060.162332160872
 31
0.0
  0
TEXT
  5
57D9
  8
0
 10
1533.4638918554481
 20
1916.3714841780461
 30
0.0
 40
37.5
  1
ISD 139KY-DL
  7
TITLE3
  0
TEXT
  5
57DA
  8
0
 10
2933.481367146494
 20
832.02578746674612
 30
0.0
 40
30.0
  1
ISD 139KY-DL
  7
TITLE3
  0
LINE
  5
57DB
  8
0
 62
     7
 10
1181.957976166226
 20
2445.6501991520781
 30
0.0
 11
1181.957976166226
 21
2511.2800230429389
 31
0.0
  0
LINE
  5
57DC
  8
0
 62
     7
 10
1211.9579761662269
 20
2491.280023042937
 30
0.0
 11
1691.9127267575841
 21
2491.2800230429361
 31
0.0
  0
SOLID
  5
57DD
  8
0
 62
     7
 10
1211.9579761662269
 20
2496.2800230429389
 30
0.0
 11
1211.9579761662269
 21
2486.280023042938
 31
0.0
 12
1181.957976166226
 22
2491.280023042937
 32
0.0
 13
1181.957976166226
 23
2491.280023042937
 33
0.0
  0
LINE
  5
57E1
  8
0
 62
     7
 10
2280.9579761662271
 20
2445.6501991520781
 30
0.0
 11
2280.9579761662271
 21
2511.280023042938
 31
0.0
  0
LINE
  5
57E2
  8
0
 62
     7
 10
2250.957976166228
 20
2491.2800230429361
 30
0.0
 11
1795.5777356031019
 21
2491.2800230429361
 31
0.0
  0
SOLID
  5
57E3
  8
0
 62
     7
 10
2250.957976166228
 20
2496.280023042938
 30
0.0
 11
2250.957976166228
 21
2486.280023042937
 31
0.0
 12
2280.9579761662271
 22
2491.2800230429361
 32
0.0
 13
2280.9579761662271
 23
2491.2800230429361
 33
0.0
  0
TEXT
  5
57EE
  8
0
 62
     7
 10
1698.163550703274
 20
2479.180023042938
 30
0.0
 40
25.0
  1
1099
  0
LINE
  5
57EF
  8
0
 62
     7
 10
1243.3079761662279
 20
1621.650199152077
 30
0.0
 11
1243.3079761662279
 21
1553.041938488564
 31
0.0
  0
LINE
  5
57F0
  8
0
 62
     7
 10
1273.307976166227
 20
1573.0419384885649
 30
0.0
 11
1666.943277293796
 21
1573.0419384885649
 31
0.0
  0
SOLID
  5
57F1
  8
0
 62
     7
 10
1273.307976166227
 20
1578.0419384885649
 30
0.0
 11
1273.307976166227
 21
1568.0419384885649
 31
0.0
 12
1243.3079761662279
 22
1573.0419384885649
 32
0.0
 13
1243.3079761662279
 23
1573.0419384885649
 33
0.0
  0
LINE
  5
57F3
  8
0
 62
     7
 10
2209.307976166227
 20
1621.650199152077
 30
0.0
 11
2209.307976166227
 21
1553.041938488564
 31
0.0
  0
LINE
  5
57F4
  8
0
 62
     7
 10
2179.3079761662252
 20
1573.0419384885649
 30
0.0
 11
1748.2678182973279
 21
1573.0419384885649
 31
0.0
  0
SOLID
  5
57F5
  8
0
 62
     7
 10
2179.3079761662252
 20
1578.0419384885649
 30
0.0
 11
2179.3079761662252
 21
1568.0419384885649
 31
0.0
 12
2209.307976166227
 22
1573.0419384885649
 32
0.0
 13
2209.307976166227
 23
1573.0419384885649
 33
0.0
  0
TEXT
  5
57F9
  8
0
 62
     7
 10
1673.194101239485
 20
1560.3419384885649
 30
0.0
 40
25.0
  1
966
  0
LINE
  5
57FA
  8
0
 62
     7
 10
2970.8532868218158
 20
742.83141917514502
 30
0.0
 11
2938.6800541946268
 21
771.36402116053011
 31
0.0
  0
LINE
  5
57FB
  8
0
 62
     7
 10
2993.2070876608268
 20
781.41399513805652
 30
0.0
 11
2993.2070876608268
 21
761.31404718300098
 31
0.0
  0
LINE
  5
57FC
  8
0
 62
     7
 10
2993.2070876608268
 20
761.31404718300098
 30
0.0
 11
2970.8532868218158
 21
761.31404718300098
 31
0.0
  0
LINE
  5
57FD
  8
0
 62
     7
 10
2970.8532868218158
 20
761.31404718300098
 30
0.0
 11
2970.8532868218158
 21
742.83141917514502
 31
0.0
  0
LINE
  5
57FE
  8
0
 62
     7
 10
2970.8532868218158
 20
799.89662314591305
 30
0.0
 11
2938.6800541946268
 21
771.36402116053011
 31
0.0
  0
LINE
  5
57FF
  8
0
 62
     7
 10
2993.2070876608268
 20
781.41399513805652
 30
0.0
 11
2970.8532868218158
 21
781.41399513805652
 31
0.0
  0
LINE
  5
5800
  8
0
 62
     7
 10
2970.8532868218158
 20
781.41399513805652
 30
0.0
 11
2970.8532868218158
 21
799.89662314591305
 31
0.0
  0
LINE
  5
5801
  8
0
 62
     7
 10
3530.7482840064349
 20
819.93655950172229
 30
0.0
 11
3498.57505137925
 21
848.46916148710784
 31
0.0
  0
LINE
  5
5802
  8
0
 62
     7
 10
3548.2140848454478
 20
858.51913546463379
 30
0.0
 11
3548.2140848454478
 21
838.41918750957848
 31
0.0
  0
LINE
  5
5803
  8
0
 62
     7
 10
3548.2140848454478
 20
838.41918750957848
 30
0.0
 11
3530.7482840064349
 21
838.41918750957848
 31
0.0
  0
LINE
  5
5804
  8
0
 62
     7
 10
3530.7482840064349
 20
838.41918750957848
 30
0.0
 11
3530.7482840064349
 21
819.93655950172229
 31
0.0
  0
LINE
  5
5805
  8
0
 62
     7
 10
3530.7482840064349
 20
877.00176347249078
 30
0.0
 11
3498.57505137925
 21
848.46916148710784
 31
0.0
  0
LINE
  5
5806
  8
0
 62
     7
 10
3548.2140848454478
 20
858.51913546463379
 30
0.0
 11
3530.7482840064349
 21
858.51913546463379
 31
0.0
  0
LINE
  5
5807
  8
0
 62
     7
 10
3530.7482840064349
 20
858.51913546463379
 30
0.0
 11
3530.7482840064349
 21
877.00176347249078
 31
0.0
  0
LINE
  5
5808
  8
0
 62
     7
 10
2812.2148659109239
 20
917.06233216087185
 30
0.0
 11
2748.6767784117519
 21
917.06233216087185
 31
0.0
  0
LINE
  5
5809
  8
0
 62
     7
 10
2768.6767784117528
 20
887.06233216087185
 30
0.0
 11
2768.6767784117492
 21
812.6591275856174
 31
0.0
  0
SOLID
  5
580A
  8
0
 62
     7
 10
2763.6767784117519
 20
887.06233216087185
 30
0.0
 11
2773.6767784117519
 21
887.06233216087185
 31
0.0
 12
2768.6767784117528
 22
917.06233216087185
 32
0.0
 13
2768.6767784117528
 23
917.06233216087185
 33
0.0
  0
TEXT
  5
580B
  8
0
 62
     7
 10
2781.1767784117519
 20
739.74328486464015
 30
0.0
 40
25.0
  1
276
 50
90.0
  0
LINE
  5
580C
  8
0
 62
     7
 10
2812.2148659109239
 20
641.06233216087185
 30
0.0
 11
2748.6767784117519
 21
641.06233216087185
 31
0.0
  0
LINE
  5
580D
  8
0
 62
     7
 10
2768.676778411751
 20
671.06233216087162
 30
0.0
 11
2768.676778411751
 21
733.49246091895122
 31
0.0
  0
SOLID
  5
580E
  8
0
 62
     7
 10
2763.6767784117519
 20
671.06233216087162
 30
0.0
 11
2773.6767784117519
 21
671.06233216087162
 31
0.0
 12
2768.676778411751
 22
641.06233216087185
 32
0.0
 13
2768.676778411751
 23
641.06233216087185
 33
0.0
  0
LINE
  5
585C
  8
0
 62
     7
 10
3636.2148659109248
 20
1030.162332160872
 30
0.0
 11
3702.8206927475539
 21
1030.162332160872
 31
0.0
  0
LINE
  5
585D
  8
0
 62
     7
 10
3682.820692747558
 20
1000.162332160872
 30
0.0
 11
3682.8206927475571
 21
885.79960987752565
 31
0.0
  0
SOLID
  5
585E
  8
0
 62
     7
 10
3677.8206927475539
 20
1000.162332160872
 30
0.0
 11
3687.820692747558
 21
1000.162332160872
 31
0.0
 12
3682.820692747558
 22
1030.162332160872
 32
0.0
 13
3682.820692747558
 23
1030.162332160872
 33
0.0
  0
TEXT
  5
585F
  8
0
 62
     7
 10
3695.3206927475562
 20
812.88376715654738
 30
0.0
 40
25.0
  1
359
 50
90.0
  0
LINE
  5
5860
  8
0
 62
     7
 10
3636.214865910928
 20
671.16233216087301
 30
0.0
 11
3702.8206927475539
 21
671.16233216087301
 31
0.0
  0
LINE
  5
5861
  8
0
 62
     7
 10
3682.820692747558
 20
701.16233216087278
 30
0.0
 11
3682.820692747558
 21
806.63294321085834
 31
0.0
  0
SOLID
  5
5862
  8
0
 62
     7
 10
3677.8206927475539
 20
701.16233216087278
 30
0.0
 11
3687.820692747558
 21
701.16233216087278
 31
0.0
 12
3682.820692747558
 22
671.16233216087301
 32
0.0
 13
3682.820692747558
 23
671.16233216087301
 33
0.0
  0
LINE
  5
58B4
  8
0
 62
     7
 10
3583.7648659109259
 20
1055.162332160872
 30
0.0
 11
3744.8692586661491
 21
1055.162332160872
 31
0.0
  0
LINE
  5
58B5
  8
0
 62
     7
 10
3724.8692586661482
 20
1025.162332160872
 30
0.0
 11
3724.8692586661482
 21
926.08841044381313
 31
0.0
  0
SOLID
  5
58B6
  8
0
 62
     7
 10
3719.8692586661491
 20
1025.162332160872
 30
0.0
 11
3729.8692586661509
 21
1025.162332160872
 31
0.0
 12
3724.8692586661518
 22
1055.162332160872
 32
0.0
 13
3724.8692586661518
 23
1055.162332160872
 33
0.0
  0
LINE
  5
58B8
  8
0
 62
     7
 10
3587.164865910926
 20
624.16233216087164
 30
0.0
 11
3744.8692586661491
 21
624.16233216087164
 31
0.0
  0
LINE
  5
58B9
  8
0
 62
     7
 10
3724.8692586661532
 20
654.16233216087176
 30
0.0
 11
3724.8692586661532
 21
746.92174377714684
 31
0.0
  0
SOLID
  5
58BA
  8
0
 62
     7
 10
3719.8692586661491
 20
654.16233216087176
 30
0.0
 11
3729.8692586661518
 21
654.16233216087176
 31
0.0
 12
3724.8692586661532
 22
624.16233216087164
 32
0.0
 13
3724.8692586661532
 23
624.16233216087164
 33
0.0
  0
TEXT
  5
58BB
  8
0
 62
     7
 10
3737.3692586661509
 20
753.17256772283554
 30
0.0
 40
25.0
  1
431 O/A
 50
90.0
  0
LINE
  5
5909
  8
0
  6
PHANTOM
 62
     7
 10
2868.7579761662269
 20
1391.650199152077
 30
0.0
 11
2868.7579761662269
 21
2384.6501991520799
 31
0.0
  0
LINE
  5
590A
  8
0
  6
PHANTOM
 62
     7
 10
2868.7579761662269
 20
2384.6501991520799
 30
0.0
 11
2382.336981353616
 21
2384.6501991520799
 31
0.0
  0
TEXT
  5
590B
  8
0
 62
     7
 10
2910.047726808421
 20
1687.9818970912761
 30
0.0
 40
25.0
  1
500 mm CLEARENCE
 50
90.0
  7
TITLE3
  0
LINE
  5
590C
  8
0
  6
PHANTOM
 62
     7
 10
2209.307976166227
 20
1391.650199152077
 30
0.0
 11
2868.7579761662269
 21
1391.650199152077
 31
0.0
  0
LINE
  5
590E
  8
0
  6
PHANTOM
 62
     7
 10
2209.307976166227
 20
1391.650199152077
 30
0.0
 11
2209.307976166227
 21
1539.462933301174
 31
0.0
  0
TEXT
  5
590F
  8
0
 62
     7
 10
2270.927575030978
 20
1349.253303204239
 30
0.0
 40
25.0
  1
250 mm CLEARENCE
  7
TITLE3
  0
LINE
  5
5967
  8
0
 62
     7
 10
2832.2148659109248
 20
621.06233216087162
 30
0.0
 11
2832.2148659109248
 21
516.25069834741282
 31
0.0
  0
LINE
  5
5968
  8
0
 62
     7
 10
2862.2148659109239
 20
536.25069834741294
 30
0.0
 11
3147.912409685774
 21
536.25069834741316
 31
0.0
  0
SOLID
  5
5969
  8
0
 62
     7
 10
2862.2148659109239
 20
541.25069834741282
 30
0.0
 11
2862.2148659109239
 21
531.25069834741282
 31
0.0
 12
2832.2148659109248
 22
536.25069834741294
 32
0.0
 13
2832.2148659109248
 23
536.25069834741294
 33
0.0
  0
LINE
  5
596A
  8
0
 62
     7
 10
3616.2148659109271
 20
650.32633216087231
 30
0.0
 11
3616.2148659109271
 21
516.25069834741294
 31
0.0
  0
LINE
  5
596B
  8
0
 62
     7
 10
3586.2148659109271
 20
536.25069834741305
 30
0.0
 11
3327.0790763524401
 21
536.25069834741316
 31
0.0
  0
SOLID
  5
596C
  8
0
 62
     7
 10
3586.2148659109271
 20
541.25069834741294
 30
0.0
 11
3586.2148659109271
 21
531.25069834741294
 31
0.0
 12
3616.2148659109271
 22
536.25069834741305
 32
0.0
 13
3616.2148659109271
 23
536.25069834741305
 33
0.0
  0
TEXT
  5
596E
  8
0
 62
     7
 10
3154.1632336314628
 20
523.75069834741214
 30
0.0
 40
25.0
  1
784 O/A
  0
LINE
  5
59BF
  8
0
 62
     7
 10
2229.307976166227
 20
1690.1001991520779
 30
0.0
 11
2229.307976166227
 21
1508.6518225811419
 31
0.0
  0
LINE
  5
59C0
  8
0
 62
     7
 10
2201.2579761662269
 20
1528.6518225811431
 30
0.0
 11
1840.430485449205
 21
1528.651822581144
 31
0.0
  0
SOLID
  5
59C1
  8
0
 62
     7
 10
2201.2579761662269
 20
1533.6518225811431
 30
0.0
 11
2201.2579761662269
 21
1523.6518225811431
 31
0.0
 12
2229.307976166227
 22
1528.6518225811431
 32
0.0
 13
2229.307976166227
 23
1528.6518225811431
 33
0.0
  0
LINE
  5
59C2
  8
0
 62
     7
 10
1257.307976166227
 20
1528.651822581144
 30
0.0
 11
1598.597152115871
 21
1528.651822581144
 31
0.0
  0
SOLID
  5
59C3
  8
0
 62
     7
 10
1257.307976166227
 20
1533.6518225811431
 30
0.0
 11
1257.307976166227
 21
1523.6518225811431
 31
0.0
 12
1227.307976166227
 22
1528.651822581144
 32
0.0
 13
1227.307976166227
 23
1528.651822581144
 33
0.0
  0
TEXT
  5
59C4
  8
0
 62
     7
 10
1600.8479760615589
 20
1515.951822581143
 30
0.0
 40
25.0
  1
1002 CTRS
  0
LINE
  5
5A12
  8
0
 62
     7
 10
2890.3648659109258
 20
1071.862332160872
 30
0.0
 11
2890.3648659109258
 21
1137.4921560517321
 31
0.0
  0
LINE
  5
5A13
  8
0
 62
     7
 10
2920.3648659109258
 20
1117.49215605173
 30
0.0
 11
3113.8971762299129
 21
1117.49215605173
 31
0.0
  0
SOLID
  5
5A14
  8
0
 62
     7
 10
2920.3648659109258
 20
1122.4921560517321
 30
0.0
 11
2920.3648659109258
 21
1112.4921560517321
 31
0.0
 12
2890.3648659109258
 22
1117.49215605173
 32
0.0
 13
2890.3648659109258
 23
1117.49215605173
 33
0.0
  0
LINE
  5
5A15
  8
0
 62
     7
 10
3556.3648659109249
 20
1071.862332160872
 30
0.0
 11
3556.3648659109249
 21
1137.4921560517321
 31
0.0
  0
LINE
  5
5A16
  8
0
 62
     7
 10
3526.3648659109272
 20
1117.49215605173
 30
0.0
 11
3318.282479094521
 21
1117.49215605173
 31
0.0
  0
SOLID
  5
5A17
  8
0
 62
     7
 10
3526.3648659109272
 20
1122.4921560517321
 30
0.0
 11
3526.3648659109272
 21
1112.4921560517321
 31
0.0
 12
3556.3648659109249
 22
1117.49215605173
 32
0.0
 13
3556.3648659109249
 23
1117.49215605173
 33
0.0
  0
TEXT
  5
5A18
  8
0
 62
     7
 10
3120.1480001756022
 20
1105.3921560517319
 30
0.0
 40
25.0
  1
666 CTRS
  0
LINE
  5
5A67
  8
0
 62
     7
 10
1121.307976166227
 20
2379.200199152081
 30
0.0
 11
1121.307976166227
 21
2572.9594809006198
 31
0.0
  0
TEXT
  5
5A6A
  8
0
 62
     7
 10
1635.5310591588011
 20
2540.8594809006181
 30
0.0
 40
25.0
  1
1243 CTRS
  0
LINE
  5
5A6C
  8
0
 62
     7
 10
2364.307976166227
 20
2379.200199152081
 30
0.0
 11
2364.307976166227
 21
2572.9594809006189
 31
0.0
  0
LINE
  5
5A6D
  8
0
 62
     7
 10
2334.307976166227
 20
2552.959480900618
 30
0.0
 11
1850.491549080044
 21
2552.959480900618
 31
0.0
  0
SOLID
  5
5A6E
  8
0
 62
     7
 10
2334.307976166227
 20
2557.9594809006189
 30
0.0
 11
2334.307976166227
 21
2547.959480900618
 31
0.0
 12
2364.307976166227
 22
2552.959480900618
 32
0.0
 13
2364.307976166227
 23
2552.959480900618
 33
0.0
  0
LINE
  5
5D99
  8
0
 62
     7
 10
1151.307976166227
 20
2552.959480900618
 30
0.0
 11
1629.2802352131121
 21
2552.9594809006171
 31
0.0
  0
SOLID
  5
5D9A
  8
0
 62
     7
 10
1151.307976166227
 20
2557.9594809006198
 30
0.0
 11
1151.307976166227
 21
2547.9594809006189
 31
0.0
 12
1121.307976166227
 22
2552.959480900618
 32
0.0
 13
1121.307976166227
 23
2552.959480900618
 33
0.0
  0
LINE
  5
5D9B
  8
0
 10
2368.7579761662282
 20
624.16233216087176
 30
0.0
 11
1116.8579761662279
 21
624.16233216087187
 31
0.0
  0
LINE
  5
5D9E
  8
0
 10
1116.8579761662279
 20
649.16233216087187
 30
0.0
 11
1116.8579761662279
 21
624.16233216087187
 31
0.0
  0
LINE
  5
5D9F
  8
0
 10
2368.7579761662282
 20
649.16233216087176
 30
0.0
 11
2368.7579761662282
 21
624.16233216087176
 31
0.0
  0
LINE
  5
5DA0
  8
0
 10
1136.807976166227
 20
1055.162332160872
 30
0.0
 11
1136.807976166227
 21
649.16233216087187
 31
0.0
  0
LINE
  5
5DA1
  8
0
 10
1136.807976166227
 20
649.16233216087187
 30
0.0
 11
1116.8579761662279
 21
649.16233216087187
 31
0.0
  0
LINE
  5
5DA2
  8
0
 10
2348.807976166227
 20
677.39233216087189
 30
0.0
 11
2416.8579761662281
 21
677.392332160872
 31
0.0
  0
LINE
  5
5DA3
  8
0
 10
2416.8579761662281
 20
676.39233216087246
 30
0.0
 11
2432.8579761662281
 21
676.39233216087246
 31
0.0
  0
LINE
  5
5DA4
  8
0
 10
2348.807976166227
 20
699.39233216087223
 30
0.0
 11
2416.8579761662281
 21
699.39233216087223
 31
0.0
  0
LINE
  5
5DA5
  8
0
 10
2416.8579761662281
 20
700.39233216087155
 30
0.0
 11
2432.8579761662281
 21
700.39233216087155
 31
0.0
  0
LINE
  5
5DA6
  8
0
 10
2432.8579761662281
 20
700.39233216087155
 30
0.0
 11
2432.8579761662281
 21
676.39233216087246
 31
0.0
  0
LINE
  5
5DA7
  8
0
 10
2416.8579761662281
 20
700.39233216087155
 30
0.0
 11
2416.8579761662281
 21
676.39233216087246
 31
0.0
  0
LINE
  5
5DA8
  8
0
 10
2348.807976166227
 20
759.8843665104871
 30
0.0
 11
2419.1579761662279
 21
759.8843665104871
 31
0.0
  0
LINE
  5
5DA9
  8
0
 10
2419.1579761662279
 20
758.88436651048642
 30
0.0
 11
2431.8579761662281
 21
758.88436651048642
 31
0.0
  0
LINE
  5
5DAA
  8
0
 10
2348.807976166227
 20
772.5843665104868
 30
0.0
 11
2419.1579761662279
 21
772.58436651048703
 31
0.0
  0
LINE
  5
5DAB
  8
0
 10
2419.1579761662279
 20
773.58436651048703
 30
0.0
 11
2431.8579761662281
 21
773.58436651048703
 31
0.0
  0
LINE
  5
5DAD
  8
0
 10
2431.8579761662281
 20
773.58436651048703
 30
0.0
 11
2431.8579761662281
 21
758.88436651048642
 31
0.0
  0
LINE
  5
5DAE
  8
0
 10
2368.7579761662282
 20
624.99833216087245
 30
0.0
 11
2396.7579761662282
 21
624.99833216087211
 31
0.0
  0
LINE
  5
5DAF
  8
0
 10
2390.7519761662279
 20
640.99833216087245
 30
0.0
 11
2396.7579761662282
 21
640.99833216087245
 31
0.0
  0
LINE
  5
5DB0
  8
0
 10
2396.7579761662282
 20
640.99833216087211
 30
0.0
 11
2396.7579761662282
 21
624.998332160872
 31
0.0
  0
LINE
  5
5DB1
  8
0
 10
2368.7579761662282
 20
639.16233216087187
 30
0.0
 11
2390.7519761662279
 21
639.1623321608721
 31
0.0
  0
LINE
  5
5DB2
  8
0
 10
2348.807976166227
 20
659.1623321608721
 30
0.0
 11
2390.7519761662279
 21
659.1623321608721
 31
0.0
  0
LINE
  5
5DB3
  8
0
 10
2390.7519761662279
 20
659.1623321608721
 30
0.0
 11
2390.7519761662279
 21
639.1623321608721
 31
0.0
  0
LINE
  5
5DB5
  8
0
 10
2348.807976166227
 20
1055.162332160872
 30
0.0
 11
2378.3079761662279
 21
1055.162332160872
 31
0.0
  0
LINE
  5
5DB6
  8
0
 10
2351.3079761662279
 20
1052.6623321608711
 30
0.0
 11
2378.3079761662279
 21
1052.6623321608711
 31
0.0
  0
LINE
  5
5DB7
  8
0
 10
2378.3079761662279
 20
1055.162332160872
 30
0.0
 11
2378.3079761662279
 21
1052.6623321608711
 31
0.0
  0
LINE
  5
5DB8
  8
0
 10
2364.3079761662279
 20
1060.162332160872
 30
0.0
 11
2364.3079761662279
 21
1047.662332160872
 31
0.0
  0
LINE
  5
5DB9
  8
0
 10
1134.3079761662279
 20
1052.6623321608711
 30
0.0
 11
1134.3079761662279
 21
959.76233216087246
 31
0.0
  0
LINE
  5
5DBA
  8
0
 10
1136.807976166227
 20
1055.162332160872
 30
0.0
 11
1107.307976166227
 21
1055.162332160872
 31
0.0
  0
LINE
  5
5DBB
  8
0
 10
1134.3079761662279
 20
1052.6623321608711
 30
0.0
 11
1107.307976166227
 21
1052.6623321608711
 31
0.0
  0
LINE
  5
5DBD
  8
0
 10
1107.307976166227
 20
1055.162332160872
 30
0.0
 11
1107.307976166227
 21
1052.6623321608711
 31
0.0
  0
LINE
  5
5DBE
  8
0
 10
1121.307976166227
 20
1060.162332160872
 30
0.0
 11
1121.307976166227
 21
1047.662332160872
 31
0.0
  0
LINE
  5
5DBF
  8
0
 10
2209.3079761662252
 20
1033.2123321608719
 30
0.0
 11
2209.3079761662289
 21
635.11233216087226
 31
0.0
  0
LINE
  5
5DC0
  8
0
 10
1243.3079761662279
 20
1041.808621776052
 30
0.0
 11
1243.3079761662279
 21
635.11233216087237
 31
0.0
  0
LINE
  5
5DC1
  8
0
 10
2209.3079761662289
 20
635.11233216087226
 30
0.0
 11
1243.3079761662279
 21
635.11233216087237
 31
0.0
  0
LINE
  5
5DC2
  8
0
 10
2209.3079761662252
 20
1041.808621776052
 30
0.0
 11
1243.3079761662279
 21
1041.808621776052
 31
0.0
  0
LINE
  5
5DC3
  8
0
 10
2207.357976166229
 20
641.06233216087207
 30
0.0
 11
1249.257976166228
 21
641.06233216087219
 31
0.0
  0
LINE
  5
5DC4
  8
0
 10
2207.357976166229
 20
903.05533216087235
 30
0.0
 11
1249.257976166228
 21
903.05533216087258
 31
0.0
  0
LINE
  5
5DC5
  8
0
 10
1249.257976166228
 20
903.05533216087258
 30
0.0
 11
1249.257976166228
 21
641.06233216087219
 31
0.0
  0
LINE
  5
5DC6
  8
0
 10
2207.357976166229
 20
903.05533216087235
 30
0.0
 11
2207.357976166229
 21
641.06233216087207
 31
0.0
  0
LINE
  5
5DC7
  8
0
 10
2300.617976166227
 20
639.8873321608711
 30
0.0
 11
2209.307976166232
 21
639.88733216087053
 31
0.0
  0
LINE
  5
5DC8
  8
0
 10
2300.617976166227
 20
1028.477332160872
 30
0.0
 11
2209.3079761662252
 21
1028.477332160872
 31
0.0
  0
LINE
  5
5DCB
  8
0
 10
1243.3079761662279
 20
1055.162332160872
 30
0.0
 11
1243.3079761662279
 21
959.76233216087246
 31
0.0
  0
LINE
  5
5DD3
  8
0
 10
2209.3079761662252
 20
1055.162332160872
 30
0.0
 11
2209.3079761662252
 21
959.76233216087235
 31
0.0
  0
LINE
  5
5DD4
  8
0
 10
2211.8079761662289
 20
1052.6623321608711
 30
0.0
 11
2211.8079761662289
 21
959.76233216087223
 31
0.0
  0
LINE
  5
5DD5
  8
0
 10
2209.3079761662252
 20
1055.162332160872
 30
0.0
 11
2243.307976166227
 21
1055.162332160872
 31
0.0
  0
LINE
  5
5DD6
  8
0
 10
2211.8079761662289
 20
1052.6623321608711
 30
0.0
 11
2243.307976166227
 21
1052.6623321608711
 31
0.0
  0
LINE
  5
5DD7
  8
0
 10
2243.307976166227
 20
1055.162332160872
 30
0.0
 11
2243.307976166227
 21
1052.6623321608711
 31
0.0
  0
LINE
  5
5DD8
  8
0
 10
2209.3079761662252
 20
959.76233216087235
 30
0.0
 11
2211.8079761662289
 21
959.76233216087223
 31
0.0
  0
LINE
  5
5DD9
  8
0
 10
2229.307976166227
 20
1060.162332160872
 30
0.0
 11
2229.307976166227
 21
1047.662332160872
 31
0.0
  0
LINE
  5
5DDA
  8
0
 10
2348.807976166227
 20
1044.162332160872
 30
0.0
 11
1136.8079761662259
 21
1044.162332160872
 31
0.0
  0
LINE
  5
5DE8
  8
0
  6
HIDDEN
 62
     7
 10
2209.3079761662252
 20
958.76233216087041
 30
0.0
 11
2209.3079761662252
 21
1006.26233216087
 31
0.0
  0
LINE
  5
5E06
  8
0
  6
HIDDEN
 62
     7
 10
1243.3079761662279
 20
958.76233216087064
 30
0.0
 11
1243.3079761662279
 21
1006.26233216087
 31
0.0
  0
TEXT
  5
5E17
  8
0
 10
1531.8917954289141
 20
758.7444947434517
 30
0.0
 40
37.5
  1
ISD 139KY-DL
  7
TITLE3
  0
LINE
  5
5E18
  8
0
 62
     7
 10
1116.8579761662279
 20
604.16233216087232
 30
0.0
 11
1116.8579761662279
 21
516.25069834741316
 31
0.0
  0
LINE
  5
5E19
  8
0
 62
     7
 10
1146.857976166227
 20
536.25069834741328
 30
0.0
 11
1634.327771188782
 21
536.25069834741328
 31
0.0
  0
SOLID
  5
5E1A
  8
0
 62
     7
 10
1146.857976166227
 20
541.25069834741316
 30
0.0
 11
1146.857976166227
 21
531.25069834741328
 31
0.0
 12
1116.8579761662279
 22
536.25069834741328
 32
0.0
 13
1116.8579761662279
 23
536.25069834741328
 33
0.0
  0
LINE
  5
5E1B
  8
0
 62
     7
 10
2432.8579761662281
 20
656.83729068062576
 30
0.0
 11
2432.8579761662281
 21
516.25069834741305
 31
0.0
  0
LINE
  5
5E1C
  8
0
 62
     7
 10
2402.857976166229
 20
536.25069834741316
 30
0.0
 11
1829.075173800368
 21
536.25069834741328
 31
0.0
  0
SOLID
  5
5E1D
  8
0
 62
     7
 10
2402.857976166229
 20
541.25069834741305
 30
0.0
 11
2402.857976166229
 21
531.25069834741305
 31
0.0
 12
2432.8579761662281
 22
536.25069834741316
 32
0.0
 13
2432.8579761662281
 23
536.25069834741316
 33
0.0
  0
TEXT
  5
5E1E
  8
0
 62
     7
 10
1640.5785951344701
 20
523.75069834741225
 30
0.0
 40
25.0
  1
1316 O/A
  0
LINE
  5
5E33
  8
0
 10
2300.617976166227
 20
1028.477332160872
 30
0.0
 11
2300.617976166227
 21
639.88733216087212
 31
0.0
  0
LINE
  5
5E36
  8
0
 10
2368.7579761662282
 20
649.16233216087176
 30
0.0
 11
2300.617976166227
 21
649.16233216087176
 31
0.0
  0
LINE
  5
5E3A
  8
0
  6
HIDDEN
 62
     7
 10
2348.8079761662252
 20
958.76233216087041
 30
0.0
 11
2348.8079761662252
 21
1006.26233216087
 31
0.0
  0
LINE
  5
5F0B
  8
0
 62
     7
 10
1089.8079761662259
 20
956.26233216087041
 30
0.0
 11
1089.8079761662259
 21
1219.9668517125181
 31
0.0
  0
LINE
  5
5F0C
  8
0
 62
     7
 10
1119.807976166225
 20
1199.966851712519
 30
0.0
 11
1372.9515441015619
 21
1199.966851712519
 31
0.0
  0
SOLID
  5
5F0D
  8
0
 62
     7
 10
1119.807976166225
 20
1204.9668517125181
 30
0.0
 11
1119.807976166225
 21
1194.9668517125181
 31
0.0
 12
1089.8079761662259
 22
1199.966851712519
 32
0.0
 13
1089.8079761662259
 23
1199.966851712519
 33
0.0
  0
LINE
  5
5F0F
  8
0
 62
     7
 10
2365.8079761662239
 20
1199.966851712519
 30
0.0
 11
2117.4494295043141
 21
1199.9668517125201
 31
0.0
  0
SOLID
  5
5F10
  8
0
 62
     7
 10
2365.8079761662239
 20
1204.9668517125181
 30
0.0
 11
2365.8079761662239
 21
1194.9668517125181
 31
0.0
 12
2395.8079761662239
 22
1199.966851712519
 32
0.0
 13
2395.8079761662239
 23
1199.966851712519
 33
0.0
  0
TEXT
  5
5F11
  8
0
 62
     7
 10
1379.202368047251
 20
1187.4668517125181
 30
0.0
 40
25.0
  1
1306 (SPRING MTG CTRS - OPTION)
  0
LINE
  5
5F12
  8
0
 62
     7
 10
1195.047976166227
 20
956.26233216086985
 30
0.0
 11
1195.047976166227
 21
1160.815077715861
 31
0.0
  0
LINE
  5
5F13
  8
0
 62
     7
 10
1225.0479761662259
 20
1140.815077715861
 30
0.0
 11
1374.3354114651661
 21
1140.8150777158619
 31
0.0
  0
SOLID
  5
5F14
  8
0
 62
     7
 10
1225.0479761662259
 20
1145.815077715861
 30
0.0
 11
1225.0479761662259
 21
1135.815077715861
 31
0.0
 12
1195.047976166227
 22
1140.8150777158619
 32
0.0
 13
1195.047976166227
 23
1140.8150777158619
 33
0.0
  0
TEXT
  5
5F15
  8
0
 62
     7
 10
1382.0962354108549
 20
1128.315077715861
 30
0.0
 40
25.0
  1
1065 (SPRING MTG CTRS - OPTION)
  0
LINE
  5
5F16
  8
0
 62
     7
 10
2260.305230164076
 20
956.26233216086905
 30
0.0
 11
2260.305230164076
 21
1160.8150777158601
 31
0.0
  0
LINE
  5
5F17
  8
0
 62
     7
 10
2230.3052301640769
 20
1140.8150777158619
 30
0.0
 11
2108.3785270465391
 21
1140.8150777158619
 31
0.0
  0
SOLID
  5
5F18
  8
0
 62
     7
 10
2230.3052301640769
 20
1145.8150777158601
 30
0.0
 11
2230.3052301640769
 21
1135.8150777158601
 31
0.0
 12
2260.305230164076
 22
1140.8150777158619
 32
0.0
 13
2260.305230164076
 23
1140.8150777158619
 33
0.0
  0
ARC
  5
5F1C
  8
0
  6
HIDDEN
 62
     7
 10
1114.307976166227
 20
958.7623321608703
 30
0.0
 40
22.5
 50
270.0
 51
0.000000000000007
  0
ARC
  5
5F1D
  8
0
  6
HIDDEN
 62
     7
 10
1114.307976166227
 20
958.7623321608703
 30
0.0
 40
10.0
 50
270.0
 51
0.000000000000007
  0
LINE
  5
5F1E
  8
0
  6
HIDDEN
 62
     7
 10
1114.307976166227
 20
948.7623321608703
 30
0.0
 11
1071.807976166225
 21
948.7623321608703
 31
0.0
  0
LINE
  5
5F1F
  8
0
  6
HIDDEN
 62
     7
 10
1107.307976166227
 20
929.26233216087223
 30
0.0
 11
1072.307976166227
 21
929.26233216087223
 31
0.0
  0
LINE
  5
5F20
  8
0
  6
HIDDEN
 62
     7
 10
1114.307976166227
 20
936.26233216087223
 30
0.0
 11
1071.807976166225
 21
936.26233216087223
 31
0.0
  0
LINE
  5
5F21
  8
0
  6
HIDDEN
 62
     7
 10
1071.807976166225
 20
936.26233216087223
 30
0.0
 11
1071.807976166225
 21
948.7623321608703
 31
0.0
  0
LINE
  5
5F22
  8
0
  6
HIDDEN
 62
     7
 10
1072.307976166227
 20
929.2623321608703
 30
0.0
 11
1072.307976166227
 21
932.26233216087212
 31
0.0
  0
ARC
  5
5F23
  8
0
  6
HIDDEN
 62
     7
 10
1076.307976166227
 20
932.26233216087212
 30
0.0
 40
4.0
 50
90.0
 51
180.0
  0
LINE
  5
5F24
  8
0
  6
HIDDEN
 62
     7
 10
1089.8079761662259
 20
929.26233216087223
 30
0.0
 11
1089.8079761662259
 21
938.93453320645779
 31
0.0
  0
ARC
  5
5F26
  8
0
  6
HIDDEN
 62
     7
 10
1103.307976166227
 20
932.26233216087212
 30
0.0
 40
4.0
 50
0.000000000000007
 51
90.0
  0
LINE
  5
5F27
  8
0
  6
HIDDEN
 62
     7
 10
1136.807976166227
 20
1006.26233216087
 30
0.0
 11
1124.307976166227
 21
1006.26233216087
 31
0.0
  0
LINE
  5
5F28
  8
0
  6
HIDDEN
 62
     7
 10
1124.307976166227
 20
958.7623321608703
 30
0.0
 11
1124.307976166227
 21
1006.26233216087
 31
0.0
  0
POINT
  5
5F2A
  8
0
  6
HIDDEN
 62
     7
 10
1089.8079761662259
 20
936.26233216087223
 30
0.0
 50
0.000000000000007
  0
LINE
  5
5F2B
  8
0
 10
1240.807976166227
 20
1052.6623321608711
 30
0.0
 11
1240.807976166227
 21
959.76233216087246
 31
0.0
  0
LINE
  5
5F2C
  8
0
 10
1243.307976166227
 20
1055.162332160872
 30
0.0
 11
1209.3079761662279
 21
1055.162332160872
 31
0.0
  0
LINE
  5
5F2D
  8
0
 10
1240.8079761662279
 20
1052.6623321608711
 30
0.0
 11
1209.3079761662279
 21
1052.6623321608711
 31
0.0
  0
LINE
  5
5F2E
  8
0
 10
1243.3079761662279
 20
959.76233216087246
 30
0.0
 11
1240.807976166227
 21
959.76233216087246
 31
0.0
  0
LINE
  5
5F2F
  8
0
 10
1209.3079761662279
 20
1055.162332160872
 30
0.0
 11
1209.3079761662279
 21
1052.6623321608711
 31
0.0
  0
LINE
  5
5F30
  8
0
 10
1227.307976166227
 20
1060.162332160872
 30
0.0
 11
1227.307976166227
 21
1047.662332160872
 31
0.0
  0
LINE
  5
5F31
  8
0
  6
HIDDEN
 62
     7
 10
1243.3079761662279
 20
958.7623321608703
 30
0.0
 11
1243.3079761662279
 21
1006.26233216087
 31
0.0
  0
ARC
  5
5F32
  8
0
  6
HIDDEN
 62
     7
 10
1219.297976166228
 20
958.7623321608703
 30
0.0
 40
22.5
 50
270.0
 51
0.000000000000007
  0
ARC
  5
5F33
  8
0
  6
HIDDEN
 62
     7
 10
1219.297976166228
 20
958.7623321608703
 30
0.0
 40
10.0
 50
270.0
 51
0.000000000000007
  0
LINE
  5
5F34
  8
0
  6
HIDDEN
 62
     7
 10
1219.297976166228
 20
948.7623321608703
 30
0.0
 11
1275.0479761662259
 21
948.7623321608703
 31
0.0
  0
LINE
  5
5F35
  8
0
  6
HIDDEN
 62
     7
 10
1212.547976166228
 20
929.26233216087223
 30
0.0
 11
1275.5479761662259
 21
929.26233216087223
 31
0.0
  0
LINE
  5
5F36
  8
0
  6
HIDDEN
 62
     7
 10
1219.297976166228
 20
936.26233216087223
 30
0.0
 11
1275.0479761662259
 21
936.26233216087223
 31
0.0
  0
LINE
  5
5F37
  8
0
  6
HIDDEN
 62
     7
 10
1275.0479761662259
 20
936.26233216087223
 30
0.0
 11
1275.0479761662259
 21
948.7623321608703
 31
0.0
  0
LINE
  5
5F38
  8
0
  6
HIDDEN
 62
     7
 10
1275.5479761662259
 20
929.2623321608703
 30
0.0
 11
1275.5479761662259
 21
932.26233216087212
 31
0.0
  0
ARC
  5
5F39
  8
0
  6
HIDDEN
 62
     7
 10
1268.6763859729861
 20
1877.2799626197109
 30
0.0
 40
945.04261312907056
 50
264.71009098487332
 51
270.41661252150629
  0
LINE
  5
5F3A
  8
0
  6
HIDDEN
 62
     7
 10
1195.047976166227
 20
929.26233216087223
 30
0.0
 11
1195.047976166227
 21
938.93453320645779
 31
0.0
  0
LINE
  5
5F3B
  8
0
  6
HIDDEN
 62
     7
 10
1212.547976166228
 20
929.2623321608703
 30
0.0
 11
1212.547976166228
 21
932.26233216087212
 31
0.0
  0
ARC
  5
5F3C
  8
0
  6
HIDDEN
 62
     7
 10
1208.547976166228
 20
932.26233216087212
 30
0.0
 40
4.0
 50
0.000000000000007
 51
90.0
  0
LINE
  5
5F3D
  8
0
  6
HIDDEN
 62
     7
 10
1241.797976166227
 20
1006.26233216087
 30
0.0
 11
1229.297976166228
 21
1006.26233216087
 31
0.0
  0
LINE
  5
5F3E
  8
0
  6
HIDDEN
 62
     7
 10
1229.297976166228
 20
958.7623321608703
 30
0.0
 11
1229.297976166228
 21
1006.26233216087
 31
0.0
  0
LINE
  5
5F3F
  8
0
  6
HIDDEN
 62
     7
 10
1243.3079761662279
 20
958.7623321608703
 30
0.0
 11
1243.3079761662279
 21
1006.26233216087
 31
0.0
  0
POINT
  5
5F40
  8
0
  6
HIDDEN
 62
     7
 10
1195.047976166227
 20
936.26233216087223
 30
0.0
 50
0.000000000000007
  0
LINE
  5
5F41
  8
0
  6
HIDDEN
 62
     7
 10
2348.8079761662252
 20
958.76233216087041
 30
0.0
 11
2348.8079761662252
 21
1006.26233216087
 31
0.0
  0
LINE
  5
5F42
  8
0
  6
HIDDEN
 62
     7
 10
2348.8079761662252
 20
958.76233216087007
 30
0.0
 11
2348.8079761662252
 21
1006.26233216087
 31
0.0
  0
ARC
  5
5F43
  8
0
  6
HIDDEN
 62
     7
 10
2371.3079761662252
 20
958.76233216087007
 30
0.0
 40
22.5
 50
180.0
 51
270.0
  0
ARC
  5
5F44
  8
0
  6
HIDDEN
 62
     7
 10
2371.3079761662252
 20
958.76233216087007
 30
0.0
 40
10.0
 50
180.0
 51
270.0
  0
LINE
  5
5F45
  8
0
  6
HIDDEN
 62
     7
 10
2371.3079761662252
 20
948.76233216087007
 30
0.0
 11
2413.8079761662252
 21
948.76233216087007
 31
0.0
  0
LINE
  5
5F46
  8
0
  6
HIDDEN
 62
     7
 10
2378.3079761662239
 20
929.26233216087201
 30
0.0
 11
2413.3079761662252
 21
929.26233216087201
 31
0.0
  0
LINE
  5
5F47
  8
0
  6
HIDDEN
 62
     7
 10
2371.3079761662252
 20
936.26233216087212
 30
0.0
 11
2413.8079761662252
 21
936.26233216087212
 31
0.0
  0
LINE
  5
5F48
  8
0
  6
HIDDEN
 62
     7
 10
2413.8079761662252
 20
936.26233216087212
 30
0.0
 11
2413.8079761662252
 21
948.76233216087007
 31
0.0
  0
LINE
  5
5F49
  8
0
  6
HIDDEN
 62
     7
 10
2413.3079761662252
 20
929.26233216087007
 30
0.0
 11
2413.3079761662252
 21
932.26233216087201
 31
0.0
  0
ARC
  5
5F4A
  8
0
  6
HIDDEN
 62
     7
 10
2409.3079761662239
 20
932.26233216087201
 30
0.0
 40
4.0
 50
0.000000000000007
 51
90.0
  0
LINE
  5
5F4B
  8
0
  6
HIDDEN
 62
     7
 10
2395.8079761662239
 20
929.26233216087201
 30
0.0
 11
2395.8079761662239
 21
938.93453320645767
 31
0.0
  0
LINE
  5
5F4C
  8
0
  6
HIDDEN
 62
     7
 10
2378.3079761662239
 20
929.26233216087007
 30
0.0
 11
2378.3079761662239
 21
932.26233216087201
 31
0.0
  0
ARC
  5
5F4D
  8
0
  6
HIDDEN
 62
     7
 10
2382.3079761662261
 20
932.26233216087201
 30
0.0
 40
4.0
 50
90.0
 51
180.0
  0
LINE
  5
5F4E
  8
0
  6
HIDDEN
 62
     7
 10
2348.8079761662252
 20
1006.26233216087
 30
0.0
 11
2361.3079761662252
 21
1006.26233216087
 31
0.0
  0
LINE
  5
5F4F
  8
0
  6
HIDDEN
 62
     7
 10
2361.3079761662252
 20
958.76233216087007
 30
0.0
 11
2361.3079761662252
 21
1006.26233216087
 31
0.0
  0
LINE
  5
5F50
  8
0
  6
HIDDEN
 62
     7
 10
2348.8079761662252
 20
958.76233216087007
 30
0.0
 11
2348.8079761662252
 21
1006.26233216087
 31
0.0
  0
POINT
  5
5F51
  8
0
  6
HIDDEN
 62
     7
 10
2395.8079761662239
 20
936.26233216087212
 30
0.0
 50
180.0
  0
LINE
  5
5F52
  8
0
  6
HIDDEN
 62
     7
 10
2209.3079761662252
 20
958.76233216086916
 30
0.0
 11
2209.3079761662252
 21
1006.2623321608691
 31
0.0
  0
LINE
  5
5F53
  8
0
  6
HIDDEN
 62
     7
 10
2209.3079761662252
 20
958.76233216086871
 30
0.0
 11
2209.3079761662252
 21
1006.2623321608691
 31
0.0
  0
ARC
  5
5F54
  8
0
  6
HIDDEN
 62
     7
 10
2231.807976166227
 20
958.76233216086916
 30
0.0
 40
22.5
 50
180.0
 51
270.0
  0
ARC
  5
5F55
  8
0
  6
HIDDEN
 62
     7
 10
2231.807976166227
 20
958.76233216086916
 30
0.0
 40
10.0
 50
180.0
 51
270.0
  0
LINE
  5
5F56
  8
0
  6
HIDDEN
 62
     7
 10
2231.807976166227
 20
948.76233216086916
 30
0.0
 11
2278.0579761662289
 21
948.76233216086916
 31
0.0
  0
LINE
  5
5F57
  8
0
  6
HIDDEN
 62
     7
 10
2242.5579761662261
 20
929.26233216087132
 30
0.0
 11
2277.557976166227
 21
929.26233216087132
 31
0.0
  0
LINE
  5
5F58
  8
0
  6
HIDDEN
 62
     7
 10
2231.807976166227
 20
936.26233216087076
 30
0.0
 11
2278.0579761662289
 21
936.26233216087076
 31
0.0
  0
LINE
  5
5F59
  8
0
  6
HIDDEN
 62
     7
 10
2278.0579761662289
 20
936.26233216087076
 30
0.0
 11
2278.0579761662289
 21
948.76233216086916
 31
0.0
  0
LINE
  5
5F5A
  8
0
  6
HIDDEN
 62
     7
 10
2277.557976166227
 20
929.26233216086916
 30
0.0
 11
2277.557976166227
 21
932.26233216087132
 31
0.0
  0
ARC
  5
5F5B
  8
0
  6
HIDDEN
 62
     7
 10
2273.557976166227
 20
932.26233216087132
 30
0.0
 40
4.0
 50
0.000000000000007
 51
90.0
  0
LINE
  5
5F5C
  8
0
  6
HIDDEN
 62
     7
 10
2260.057976166227
 20
929.26233216087132
 30
0.0
 11
2260.057976166227
 21
938.93453320645676
 31
0.0
  0
LINE
  5
5F5D
  8
0
  6
HIDDEN
 62
     7
 10
2242.5579761662261
 20
929.26233216086916
 30
0.0
 11
2242.5579761662261
 21
932.26233216087132
 31
0.0
  0
ARC
  5
5F5E
  8
0
  6
HIDDEN
 62
     7
 10
2246.5579761662261
 20
932.26233216087132
 30
0.0
 40
4.0
 50
90.0
 51
180.0
  0
LINE
  5
5F5F
  8
0
  6
HIDDEN
 62
     7
 10
2209.3079761662252
 20
1006.2623321608691
 30
0.0
 11
2221.807976166227
 21
1006.2623321608691
 31
0.0
  0
LINE
  5
5F60
  8
0
  6
HIDDEN
 62
     7
 10
2221.807976166227
 20
958.76233216086916
 30
0.0
 11
2221.807976166227
 21
1006.2623321608691
 31
0.0
  0
LINE
  5
5F61
  8
0
  6
HIDDEN
 62
     7
 10
2209.3079761662252
 20
958.76233216086916
 30
0.0
 11
2209.3079761662252
 21
1006.2623321608691
 31
0.0
  0
POINT
  5
5F62
  8
0
  6
HIDDEN
 62
     7
 10
2260.057976166227
 20
936.26233216087076
 30
0.0
 50
180.0
  0
LINE
  5
5F70
  8
0
 62
     7
 10
1227.307976166227
 20
1690.1001991520779
 30
0.0
 11
1227.307976166227
 21
1508.6518225811419
 31
0.0
  0
CIRCLE
  5
635E
  8
0
 10
3532.7648659109268
 20
688.39233216087223
 30
0.0
 40
11.0
  0
CIRCLE
  5
6363
  8
0
 10
3532.7648659109268
 20
766.23436651048644
 30
0.0
 40
6.349999999999997
  0
LINE
  5
6368
  8
0
 10
2419.1579761662279
 20
773.58436651048703
 30
0.0
 11
2419.1579761662279
 21
758.88436651048642
 31
0.0
  0
LINE
  5
636A
  8
0
 10
2348.807976166227
 20
2331.2001991520801
 30
0.0
 11
2415.8579761662281
 21
2331.2001991520801
 31
0.0
  0
LINE
  5
636B
  8
0
 10
2415.8579761662281
 20
2330.200199152081
 30
0.0
 11
2431.8579761662281
 21
2330.200199152081
 31
0.0
  0
LINE
  5
636C
  8
0
 10
2378.307976166227
 20
2353.2001991520801
 30
0.0
 11
2415.8579761662281
 21
2353.200199152081
 31
0.0
  0
LINE
  5
636D
  8
0
 10
2415.8579761662281
 20
2354.200199152081
 30
0.0
 11
2431.8579761662281
 21
2354.200199152081
 31
0.0
  0
LINE
  5
636E
  8
0
 10
2431.8579761662281
 20
2354.200199152081
 30
0.0
 11
2431.8579761662281
 21
2330.200199152081
 31
0.0
  0
LINE
  5
636F
  8
0
 10
2415.8579761662281
 20
2354.200199152081
 30
0.0
 11
2415.8579761662281
 21
2330.200199152081
 31
0.0
  0
LINE
  5
6371
  8
0
 10
2348.807976166227
 20
2335.8501991520811
 30
0.0
 11
2419.1579761662269
 21
2335.850199152082
 31
0.0
  0
LINE
  5
6372
  8
0
 10
2419.1579761662269
 20
2334.850199152082
 30
0.0
 11
2431.8579761662281
 21
2334.850199152082
 31
0.0
  0
LINE
  5
6373
  8
0
 10
2348.807976166227
 20
2348.55019915208
 30
0.0
 11
2419.1579761662269
 21
2348.5501991520809
 31
0.0
  0
LINE
  5
6374
  8
0
 10
2419.1579761662269
 20
2349.55019915208
 30
0.0
 11
2431.8579761662281
 21
2349.55019915208
 31
0.0
  0
LINE
  5
6375
  8
0
 10
2431.8579761662281
 20
2349.55019915208
 30
0.0
 11
2431.8579761662281
 21
2334.850199152082
 31
0.0
  0
LINE
  5
6376
  8
0
 10
2419.1579761662269
 20
2349.55019915208
 30
0.0
 11
2419.1579761662269
 21
2334.850199152082
 31
0.0
  0
LINE
  5
6377
  8
0
 10
2368.7579761662269
 20
2331.2001991520801
 30
0.0
 11
2368.7579761662269
 21
2163.7101991520772
 31
0.0
  0
LINE
  5
6DA9
  8
0
 62
     7
 10
2395.8079761662261
 20
956.26233216087019
 30
0.0
 11
2395.8079761662261
 21
1219.9668517125181
 31
0.0
  0
CIRCLE
  5
7168
  8
0
 10
3556.3648659109249
 20
998.26233216087223
 30
0.0
 40
6.0
  0
CIRCLE
  5
716A
  8
0
 10
3556.3648659109249
 20
968.26233216087235
 30
0.0
 40
6.0
  0
CIRCLE
  5
716B
  8
0
 10
2890.3648659109258
 20
998.26233216087223
 30
0.0
 40
6.0
  0
CIRCLE
  5
716C
  8
0
 10
2890.3648659109258
 20
968.26233216087235
 30
0.0
 40
6.0
  0
LINE
  5
71B9
  8
0
 10
2348.807976166227
 20
1044.162332160872
 30
0.0
 11
2348.807976166227
 21
649.16233216087176
 31
0.0
  0
LINE
  5
71BA
  8
0
 10
2348.8079761662239
 20
1055.162332160872
 30
0.0
 11
2348.8079761662239
 21
959.76233216087235
 31
0.0
  0
LINE
  5
71BB
  8
0
 10
2351.3079761662279
 20
1052.6623321608711
 30
0.0
 11
2351.3079761662279
 21
959.76233216087223
 31
0.0
  0
LINE
  5
71BC
  8
0
 10
2348.8079761662239
 20
959.76233216087235
 30
0.0
 11
2351.3079761662279
 21
959.76233216087223
 31
0.0
  0
LINE
  5
71BD
  8
0
 10
1243.3079761662279
 20
649.16233216087187
 30
0.0
 11
1136.807976166227
 21
649.16233216087187
 31
0.0
  0
ENDSEC
  0
EOF
