  0
SECTION
  2
HEADER
  9
$ACADVER
  1
AC1009
  9
$INSBASE
 10
0.0
 20
0.0
 30
0.0
  9
$EXTMIN
 10
-741.79560738492717
 20
-0.7363542791354121
 30
-0.0000000349181948
  9
$EXTMAX
 10
5564.577607412928
 20
6734.2936757780417
 30
0.0000000814935747
  9
$LIMMIN
 10
0.0
 20
0.0
  9
$LIMMAX
 10
7780.0
 20
5320.0
  9
$ORTHOMODE
 70
     1
  9
$REGENMODE
 70
     1
  9
$FILLMODE
 70
     1
  9
$QTEXTMODE
 70
     0
  9
$MIRRTEXT
 70
     0
  9
$DRAGMODE
 70
     2
  9
$LTSCALE
 40
180.0
  9
$OSMODE
 70
  3071
  9
$ATTMODE
 70
     1
  9
$TEXTSIZE
 40
60.0
  9
$TRACEWID
 40
0.05
  9
$TEXTSTYLE
  7
TITLE3
  9
$CLAYER
  8
TEXT
  9
$CELTYPE
  6
BYLAYER
  9
$CECOLOR
 62
   256
  9
$DIMSCALE
 40
1.0
  9
$DIMASZ
 40
0.12
  9
$DIMEXO
 40
0.05
  9
$DIMDLI
 40
0.5
  9
$DIMRND
 40
0.0
  9
$DIMDLE
 40
0.0
  9
$DIMEXE
 40
0.1
  9
$DIMTP
 40
0.1
  9
$DIMTM
 40
0.1
  9
$DIMTXT
 40
0.12
  9
$DIMCEN
 40
0.0
  9
$DIMTSZ
 40
0.0
  9
$DIMTOL
 70
     0
  9
$DIMLIM
 70
     0
  9
$DIMTIH
 70
     1
  9
$DIMTOH
 70
     1
  9
$DIMSE1
 70
     0
  9
$DIMSE2
 70
     0
  9
$DIMTAD
 70
     0
  9
$DIMZIN
 70
     7
  9
$DIMBLK
  1

  9
$DIMASO
 70
     0
  9
$DIMSHO
 70
     0
  9
$DIMPOST
  1

  9
$DIMAPOST
  1
mm
  9
$DIMALT
 70
     0
  9
$DIMALTD
 70
     2
  9
$DIMALTF
 40
25.399999999999999
  9
$DIMLFAC
 40
1.0
  9
$DIMTOFL
 70
     0
  9
$DIMTVP
 40
0.0
  9
$DIMTIX
 70
     0
  9
$DIMSOXD
 70
     0
  9
$DIMSAH
 70
     0
  9
$DIMBLK1
  1

  9
$DIMBLK2
  1

  9
$DIMSTYLE
  2
AM_ANSI
  9
$DIMCLRD
 70
   256
  9
$DIMCLRE
 70
   256
  9
$DIMCLRT
 70
     2
  9
$DIMTFAC
 40
0.71
  9
$DIMGAP
 40
0.06
  9
$LUNITS
 70
     2
  9
$LUPREC
 70
     2
  9
$SKETCHINC
 40
0.1
  9
$FILLETRAD
 40
0.0
  9
$AUNITS
 70
     0
  9
$AUPREC
 70
     2
  9
$MENU
  1
\acad12\support\cnc
  9
$ELEVATION
 40
0.0
  9
$PELEVATION
 40
0.0
  9
$THICKNESS
 40
0.0
  9
$LIMCHECK
 70
     0
  9
$BLIPMODE
 70
     0
  9
$CHAMFERA
 40
27.0
  9
$CHAMFERB
 40
0.0
  9
$SKPOLY
 70
     0
  9
$TDCREATE
 40
2450982.459466551
  9
$TDUPDATE
 40
2457176.5385987619
  9
$TDINDWG
 40
0.583989375
  9
$TDUSRTIMER
 40
0.5839875579
  9
$USRTIMER
 70
     1
  9
$ANGBASE
 50
0.0
  9
$ANGDIR
 70
     0
  9
$PDMODE
 70
     2
  9
$PDSIZE
 40
1.0
  9
$PLINEWID
 40
0.0
  9
$COORDS
 70
     1
  9
$SPLFRAME
 70
     0
  9
$SPLINETYPE
 70
     6
  9
$SPLINESEGS
 70
     8
  9
$ATTDIA
 70
     1
  9
$ATTREQ
 70
     1
  9
$HANDLING
 70
     1
  9
$HANDSEED
  5
2602
  9
$SURFTAB1
 70
     6
  9
$SURFTAB2
 70
     6
  9
$SURFTYPE
 70
     6
  9
$SURFU
 70
     6
  9
$SURFV
 70
     6
  9
$UCSNAME
  2

  9
$UCSORG
 10
0.0
 20
0.0
 30
0.0
  9
$UCSXDIR
 10
1.0
 20
0.0
 30
0.0
  9
$UCSYDIR
 10
0.0
 20
1.0
 30
0.0
  9
$PUCSNAME
  2

  9
$PUCSORG
 10
0.0
 20
0.0
 30
0.0
  9
$PUCSXDIR
 10
1.0
 20
0.0
 30
0.0
  9
$PUCSYDIR
 10
0.0
 20
1.0
 30
0.0
  9
$USERI1
 70
     0
  9
$USERI2
 70
     0
  9
$USERI3
 70
     0
  9
$USERI4
 70
     0
  9
$USERI5
 70
     0
  9
$USERR1
 40
0.0
  9
$USERR2
 40
0.0
  9
$USERR3
 40
0.0
  9
$USERR4
 40
0.0
  9
$USERR5
 40
0.0
  9
$WORLDVIEW
 70
     1
  9
$SHADEDGE
 70
     3
  9
$SHADEDIF
 70
    70
  9
$TILEMODE
 70
     1
  9
$MAXACTVP
 70
    16
  9
$PLIMCHECK
 70
     0
  9
$PEXTMIN
 10
1.0000000000000000E+020
 20
1.0000000000000000E+020
 30
1.0000000000000000E+020
  9
$PEXTMAX
 10
-1.0000000000000000E+020
 20
-1.0000000000000000E+020
 30
-1.0000000000000000E+020
  9
$PLIMMIN
 10
0.0
 20
0.0
  9
$PLIMMAX
 10
12.0
 20
9.0
  9
$UNITMODE
 70
     0
  9
$VISRETAIN
 70
     0
  9
$PLINEGEN
 70
     0
  9
$PSLTSCALE
 70
     0
  0
ENDSEC
  0
SECTION
  2
TABLES
  0
TABLE
  2
VPORT
 70
     1
  0
VPORT
  2
*ACTIVE
 70
     0
 10
0.0
 20
0.0
 11
1.0
 21
1.0
 12
2411.3910000140008
 22
3366.778660749454
 13
0.0
 23
0.0
 14
50.0
 24
50.0
 15
100.0
 25
100.0
 16
0.0
 26
0.0
 36
1.0
 17
0.0
 27
0.0
 37
0.0
 40
6776.6900096245417
 41
1.9174406604747161
 42
50.0
 43
0.0
 44
0.0
 50
0.0
 51
0.0
 71
     0
 72
   100
 73
     1
 74
     0
 75
     0
 76
     0
 77
     0
 78
     1
  0
ENDTAB
  0
TABLE
  2
LTYPE
 70
    12
  0
LTYPE
  2
CONTINUOUS
 70
     0
  3
Solid line
 72
    65
 73
     0
 40
0.0
  0
LTYPE
  2
PHANTOM
 70
     0
  3
Phantom ______  __  __  ______  __  __  ______
 72
    65
 73
     6
 40
2.5
 49
1.25
 49
-0.25
 49
0.25
 49
-0.25
 49
0.25
 49
-0.25
  0
LTYPE
  2
HIDDEN
 70
     0
  3
Hidden __ __ __ __ __ __ __ __ __ __ __ __ __ _
 72
    65
 73
     2
 40
0.375
 49
0.25
 49
-0.125
  0
LTYPE
  2
PHANTOM2
 70
     0
  3
Phantom (.5x) ___ _ _ ___ _ _ ___ _ _ ___ _ _
 72
    65
 73
     6
 40
1.25
 49
0.625
 49
-0.125
 49
0.125
 49
-0.125
 49
0.125
 49
-0.125
  0
LTYPE
  2
CENTER
 70
     0
  3
Center ____ _ ____ _ ____ _ ____ _ ____ _ ____
 72
    65
 73
     4
 40
2.0
 49
1.25
 49
-0.25
 49
0.25
 49
-0.25
  0
LTYPE
  2
AMCONSTR
 70
     0
  3
_______________________
 72
    65
 73
     2
 40
9999.0
 49
9999.0
 49
0.0
  0
LTYPE
  2
CENTER2
 70
     0
  3
Center (.5x) ___ _ ___ _ ___ _ ___ _ ___ _ ___
 72
    65
 73
     4
 40
1.125
 49
0.75
 49
-0.125
 49
0.125
 49
-0.125
  0
LTYPE
  2
HIDDEN2
 70
     0
  3
Hidden (.5x) _ _ _ _ _ _ _ _ _ _ _ _ _ _ _ _ _
 72
    65
 73
     2
 40
0.1875
 49
0.125
 49
-0.0625
  0
LTYPE
  2
AMZIGZAG2
 70
     0
  3
/\/-/\/-/\/-/\/-/\/-/\/
 72
    65
 73
     2
 40
0.4401
 49
0.0001
 49
-0.4400000000000003
  0
LTYPE
  2
ACANSTGB
 70
     0
  3
__ . . __ . .
 72
    65
 73
     6
 40
0.35433070866
 49
0.15748031496
 49
-0.03937007874
 49
0.03937007874
 49
-0.03937007874
 49
0.03937007874
 49
-0.03937007874
  0
LTYPE
  2
ACANSTGL
 70
     0
  3
_ _ _ _ _
 72
    65
 73
     2
 40
0.11811023622
 49
0.07874015748
 49
-0.03937007874
  0
ENDTAB
  0
TABLE
  2
LAYER
 70
     6
  0
LAYER
  2
0
 70
     0
 62
     7
  6
CONTINUOUS
  0
LAYER
  2
TEXT
 70
     0
 62
   100
  6
CONTINUOUS
  0
LAYER
  2
OUTLINE
 70
     0
 62
     7
  6
CONTINUOUS
  0
LAYER
  2
DIM
 70
     0
 62
     7
  6
CONTINUOUS
  0
LAYER
  2
CLEAR
 70
     0
 62
     1
  6
PHANTOM
  0
LAYER
  2
OVERLAY-A3
 70
     0
 62
     7
  6
CONTINUOUS
  0
ENDTAB
  0
TABLE
  2
STYLE
 70
     6
  0
STYLE
  2
STANDARD
 70
     0
 40
0.0
 41
1.0
 50
0.0
 71
     0
 42
0.2
  3
txt
  4

  0
STYLE
  2
ANNOTATIVE
 70
     0
 40
0.0
 41
1.0
 50
0.0
 71
     0
 42
0.2
  3
txt
  4

  0
STYLE
  2
TITLE3
 70
     0
 40
60.0
 41
1.0
 50
0.0
 71
     0
 42
60.0
  3
SIMPLEX
  4

  0
STYLE
  2
TITLE5
 70
     0
 40
100.0
 41
1.0
 50
0.0
 71
     0
 42
100.0
  3
SIMPLEX
  4

  0
STYLE
  2
SIMPLEX
 70
     0
 40
60.0
 41
1.0
 50
0.0
 71
     0
 42
60.0
  3
simplex
  4

  0
STYLE
  2
ACANSGDT
 70
     0
 40
0.0
 41
1.0
 50
0.0
 71
     0
 42
60.0
  3
amgdt.shx
  4

  0
ENDTAB
  0
TABLE
  2
VIEW
 70
     0
  0
ENDTAB
  0
TABLE
  2
UCS
 70
     0
  0
ENDTAB
  0
TABLE
  2
APPID
 70
    18
  0
APPID
  2
ACAD
 70
     0
  0
APPID
  2
ACADANNOTATIVE
 70
     0
  0
APPID
  2
ACAD_MLEADERVER
 70
     0
  0
APPID
  2
MCAD_NO_VIS
 70
     0
  0
APPID
  2
ACAD_TEMP_GRAPHIC
 70
     0
  0
APPID
  2
AD_DRAW
 70
     0
  0
APPID
  2
ACATTRIBSERVICES
 70
     0
  0
APPID
  2
DESIGNERASSEMBLIES
 70
     0
  0
APPID
  2
ACADM_DIM_EDIT
 70
     0
  0
APPID
  2
AMDT_DM_ADJ
 70
     0
  0
APPID
  2
ACAD_EXEMPT_FROM_CAD_STANDARDS
 70
     0
  0
APPID
  2
ACAD_DSTYLE_DIMBREAK
 70
     0
  0
APPID
  2
ACAD_DSTYLE_DIMJAG
 70
     0
  0
APPID
  2
ACAD_NAV_VCDISPLAY
 70
     0
  0
APPID
  2
ACAECLAYERSTANDARD
 70
     0
  0
APPID
  2
GENIUS_GENFIL_13
 70
     0
  0
APPID
  2
GENIUS_GENODEF_13
 70
     0
  0
APPID
  2
GENIUS_GENOBJ-N-CHA_13
 70
     0
  0
ENDTAB
  0
TABLE
  2
DIMSTYLE
 70
     8
  0
DIMSTYLE
  2
STANDARD
 70
     0
  3

  4

  5

  6

  7

 40
1.0
 41
0.18
 42
0.0625
 43
0.38
 44
0.18
 45
0.0
 46
0.0
 47
0.0
 48
0.0
140
0.18
141
0.09
142
0.0
143
25.399999999999999
144
1.0
145
0.0
146
1.0
147
0.09
 71
     0
 72
     0
 73
     1
 74
     1
 75
     0
 76
     0
 77
     0
 78
     0
170
     0
171
     2
172
     0
173
     0
174
     0
175
     0
176
     0
177
     0
178
     0
  0
DIMSTYLE
  2
ANNOTATIVE
 70
     0
  3

  4

  5

  6

  7

 40
1.0
 41
0.18
 42
0.0625
 43
0.38
 44
0.18
 45
0.0
 46
0.0
 47
0.0
 48
0.0
140
0.18
141
0.09
142
0.0
143
25.399999999999999
144
1.0
145
0.0
146
1.0
147
0.09
 71
     0
 72
     0
 73
     1
 74
     1
 75
     0
 76
     0
 77
     0
 78
     0
170
     0
171
     2
172
     0
173
     0
174
     0
175
     0
176
     0
177
     0
178
     0
  0
DIMSTYLE
  2
AM_ANSI
 70
     0
  3

  4
mm
  5

  6

  7

 40
1.0
 41
0.12
 42
0.05
 43
0.5
 44
0.1
 45
0.0
 46
0.0
 47
0.1
 48
0.1
140
0.12
141
0.0
142
0.0
143
25.399999999999999
144
1.0
145
0.0
146
0.71
147
0.06
 71
     0
 72
     0
 73
     1
 74
     1
 75
     0
 76
     0
 77
     0
 78
     7
170
     0
171
     2
172
     0
173
     0
174
     0
175
     0
176
   256
177
   256
178
     2
  0
DIMSTYLE
  2
AM_ANSI$3
 70
     0
  3

  4
mm
  5

  6

  7

 40
1.0
 41
0.12
 42
0.05
 43
0.5
 44
0.1
 45
0.0
 46
0.0
 47
0.1
 48
0.1
140
0.12
141
0.0
142
0.0
143
25.399999999999999
144
1.0
145
0.0
146
0.71
147
0.06
 71
     0
 72
     0
 73
     1
 74
     1
 75
     0
 76
     0
 77
     0
 78
     7
170
     0
171
     2
172
     0
173
     0
174
     0
175
     0
176
   256
177
   256
178
     2
  0
DIMSTYLE
  2
AM_ANSI$4
 70
     0
  3

  4
mm
  5

  6

  7

 40
1.0
 41
0.12
 42
0.05
 43
0.5
 44
0.1
 45
0.0
 46
0.0
 47
0.1
 48
0.1
140
0.12
141
0.0
142
0.0
143
25.399999999999999
144
1.0
145
0.0
146
0.71
147
0.06
 71
     0
 72
     0
 73
     1
 74
     1
 75
     0
 76
     0
 77
     0
 78
     7
170
     0
171
     2
172
     0
173
     0
174
     0
175
     0
176
   256
177
   256
178
     2
  0
DIMSTYLE
  2
AM_ANSI$7
 70
     0
  3

  4
mm
  5

  6

  7

 40
1.0
 41
0.12
 42
0.05
 43
0.5
 44
0.1
 45
0.0
 46
0.0
 47
0.1
 48
0.1
140
0.12
141
0.0
142
0.0
143
25.399999999999999
144
1.0
145
0.0
146
0.71
147
0.06
 71
     0
 72
     0
 73
     1
 74
     1
 75
     0
 76
     0
 77
     0
 78
     7
170
     0
171
     2
172
     0
173
     0
174
     0
175
     0
176
   256
177
   256
178
     2
  0
DIMSTYLE
  2
AM_ANSI$SF
 70
     0
  3

  4
mm
  5

  6

  7

 40
1.0
 41
0.12
 42
0.05
 43
0.5
 44
0.1
 45
0.0
 46
0.0
 47
0.1
 48
0.1
140
0.12
141
0.0
142
0.0
143
25.399999999999999
144
1.0
145
0.0
146
0.71
147
0.06
 71
     0
 72
     0
 73
     1
 74
     1
 75
     1
 76
     1
 77
     0
 78
     7
170
     0
171
     2
172
     0
173
     0
174
     0
175
     0
176
   256
177
   256
178
     2
  0
DIMSTYLE
  2
AM_ANSI$SH
 70
     0
  3

  4
mm
  5

  6

  7

 40
1.0
 41
0.12
 42
0.05
 43
0.5
 44
0.1
 45
0.0
 46
0.0
 47
0.1
 48
0.1
140
0.12
141
0.0
142
0.0
143
25.399999999999999
144
1.0
145
0.0
146
0.71
147
0.06
 71
     0
 72
     0
 73
     1
 74
     1
 75
     1
 76
     1
 77
     0
 78
     7
170
     0
171
     2
172
     0
173
     1
174
     0
175
     0
176
   256
177
   256
178
     2
  0
ENDTAB
  0
ENDSEC
  0
SECTION
  2
BLOCKS
  0
BLOCK
  8
0
  2
$MODEL_SPACE
 70
     0
 10
0.0
 20
0.0
 30
0.0
  3
$MODEL_SPACE
  1

  0
ENDBLK
  5
256B
  8
0
  0
BLOCK
 67
     1
  8
0
  2
$PAPER_SPACE
 70
     0
 10
0.0
 20
0.0
 30
0.0
  3
$PAPER_SPACE
  1

  0
ENDBLK
  5
2567
 67
     1
  8
0
  0
BLOCK
  8
0
  2
NEW_BLOCK
 70
     0
 10
0.0
 20
0.0
 30
0.0
  3
NEW_BLOCK
  1

  0
TEXT
  5
127C
  8
TEXT
 10
27.285946821803002
 20
25.27142175952417
 30
0.0
 40
40.0
  1
available on request
  7
TITLE3
  0
TEXT
  5
127D
  8
TEXT
 10
27.285946821803002
 20
93.842850330952714
 30
0.0
 40
40.0
  1
Certified dimensions
  7
TITLE3
  0
TEXT
  5
127E
  8
TEXT
 10
27.285946821803002
 20
162.4142789023812
 30
0.0
 40
40.0
  1
without notice or obligation.
  7
TITLE3
  0
TEXT
  5
127F
  8
TEXT
 10
27.285946821803002
 20
230.9857074738097
 30
0.0
 40
40.0
  1
specifications at any time
  7
TITLE3
  0
TEXT
  5
1280
  8
TEXT
 10
27.285946821803002
 20
299.55713604523839
 30
0.0
 40
40.0
  1
the right to change 
  7
TITLE3
  0
TEXT
  5
1281
  8
TEXT
 10
27.285946821803002
 20
436.69999318809488
 30
0.0
 40
40.0
  1
NOTE
  7
TITLE3
  0
TEXT
  5
1282
  8
TEXT
 10
27.285946821803002
 20
368.12856461666678
 30
0.0
 40
40.0
  1
The manufacturer reserves
  7
TITLE3
  0
ENDBLK
  5
1283
  8
0
  0
ENDSEC
  0
SECTION
  2
ENTITIES
  0
TEXT
  5
1284
  8
TEXT
 10
-487.91899647702041
 20
6041.2843787543397
 30
0.0
 40
85.0
  1
temperzone OSA 380RKTBGV
  7
TITLE5
 72
     1
 11
453.15243209440803
 21
6041.2843787543397
 31
0.0
  0
TEXT
  5
1285
  8
TEXT
 10
627.22855295335421
 20
5651.9457668027044
 30
0.0
 40
60.0
  1
OSA380RKTBGV
 41
0.8388429752066127
  7
TITLE3
 72
     5
 11
1207.2285529533549
 21
5651.9457668027044
 31
0.0
  0
LINE
  5
1286
  8
OUTLINE
 10
-153.07812195416861
 20
1654.221829978507
 30
0.0
 11
1327.9218780458309
 21
1654.2218299785061
 31
0.0
  0
LINE
  5
1287
  8
OUTLINE
 10
1327.9218780458291
 20
388.22182997850717
 30
0.0
 11
-153.07812195416861
 21
388.22182997850899
 31
0.0
  0
LINE
  5
1288
  8
OUTLINE
 10
1327.92187804583
 20
1654.2218299785061
 30
0.0
 11
1327.9218780458291
 21
388.22182997850717
 31
0.0
  0
LINE
  5
128A
  8
OUTLINE
 10
-153.07812195416761
 20
1654.221829978507
 30
0.0
 11
-153.07812195416861
 21
388.22182997850899
 31
0.0
  0
LINE
  5
128B
  8
DIM
 10
4382.789162360501
 20
6284.5685708274586
 30
0.0
 11
3734.7086571367831
 21
6284.5685708274586
 31
0.0
  0
LINE
  5
128C
  8
DIM
 10
2821.394371422497
 20
6284.5685708274586
 30
0.0
 11
3323.280085708212
 21
6284.5685708274586
 31
0.0
  0
SOLID
  5
128D
  8
DIM
 10
4382.789162360501
 20
6294.5685708274586
 30
0.0
 11
4382.789162360501
 21
6274.5685708274577
 31
0.0
 12
4443.1943714224972
 22
6284.2217500182087
 32
0.0
 13
4443.1943714224972
 23
6284.2217500182087
 33
0.0
  0
SOLID
  5
128E
  8
DIM
 10
2821.394371422497
 20
6294.5685708274586
 30
0.0
 11
2821.394371422497
 21
6274.5685708274577
 31
0.0
 12
2761.394371422497
 22
6284.5685708274586
 32
0.0
 13
2761.394371422497
 23
6284.5685708274586
 33
0.0
  0
TEXT
  5
128F
  8
DIM
 10
3428.9943714224969
 20
6254.5685708274577
 30
0.0
 40
60.0
  1
1683
  7
TITLE3
 72
     1
 11
3528.9943714224969
 21
6284.5685708274586
 31
0.0
 73
     2
  0
LINE
  5
1290
  8
DIM
 10
2692.1943714224999
 20
4614.3600254815901
 30
0.0
 11
2489.4071030034629
 21
4614.3600254815901
 31
0.0
  0
LINE
  5
1291
  8
DIM
 10
2692.1943714224999
 20
6092.3600254815929
 30
0.0
 11
2489.4071030034629
 21
6092.3600254815929
 31
0.0
  0
LINE
  5
1292
  8
DIM
 10
2529.4071030034638
 20
4672.8600254815901
 30
0.0
 11
2529.4071030034638
 21
5131.1014766193584
 31
0.0
  0
LINE
  5
1293
  8
DIM
 10
2529.4071030034638
 20
6033.8600254815892
 30
0.0
 11
2529.4071030034638
 21
5553.9586194765043
 31
0.0
  0
SOLID
  5
1294
  8
DIM
 10
2539.4071030034638
 20
4672.8600254815901
 30
0.0
 11
2519.4071030034661
 21
4672.8600254815901
 31
0.0
 12
2529.4071030034638
 22
4614.3600254815901
 32
0.0
 13
2529.4071030034638
 23
4614.3600254815901
 33
0.0
  0
SOLID
  5
1295
  8
DIM
 10
2539.4071030034638
 20
6033.8600254815892
 30
0.0
 11
2519.4071030034661
 21
6033.8600254815892
 31
0.0
 12
2529.4071030034638
 22
6092.3600254815929
 32
0.0
 13
2529.4071030034638
 23
6092.3600254815929
 33
0.0
  0
TEXT
  5
1296
  8
DIM
 10
2559.4071030034652
 20
5243.9586194765043
 30
0.0
 40
60.0
  1
1479
 50
90.0
  7
TITLE3
 72
     1
 11
2529.4071030034638
 21
5342.5300480479327
 31
0.0
 73
     2
  0
LINE
  5
1297
  8
DIM
 10
2906.9442768825438
 20
338.22182997851002
 30
0.0
 11
2576.474157782679
 21
338.22182997851002
 31
0.0
  0
LINE
  5
1298
  8
DIM
 10
2721.3943714224988
 20
1648.940784282644
 30
0.0
 11
2576.474157782679
 21
1648.940784282644
 31
0.0
  0
LINE
  5
1299
  8
DIM
 10
2616.474157782679
 20
386.22182997851002
 30
0.0
 11
2616.474157782679
 21
792.44897574709262
 31
0.0
  0
LINE
  5
129A
  8
DIM
 10
2616.474157782679
 20
1600.2218299785079
 30
0.0
 11
2616.474157782679
 21
1087.767634154126
 31
0.0
  0
SOLID
  5
129B
  8
DIM
 10
2606.4741577826799
 20
398.22182997851002
 30
0.0
 11
2626.474157782679
 21
398.22182997851002
 31
0.0
 12
2616.474157782679
 22
338.22182997851002
 32
0.0
 13
2616.474157782679
 23
338.22182997851002
 33
0.0
  0
SOLID
  5
129C
  8
DIM
 10
2606.4741577826799
 20
1595.2218299785079
 30
0.0
 11
2626.474157782679
 21
1595.2218299785079
 31
0.0
 12
2617.5209987319899
 22
1648.940784282644
 32
0.0
 13
2617.5209987319899
 23
1648.940784282644
 33
0.0
  0
TEXT
  5
129D
  8
DIM
 10
2646.474157782679
 20
849.09498364069191
 30
0.0
 40
60.0
  1
1315
 50
90.0
  7
TITLE3
 72
     4
 11
2616.474157782679
 21
943.38069792640624
 31
0.0
  0
LINE
  5
129E
  8
DIM
 10
3439.079810624019
 20
1850.865753100089
 30
0.0
 11
3401.0878311282549
 21
1850.865753100089
 31
0.0
  0
LINE
  5
129F
  8
DIM
 10
3420.083820876137
 20
1923.064842969445
 30
0.0
 11
3360.2464531703072
 21
1873.914504203648
 31
0.0
  0
LINE
  5
12A0
  8
DIM
 10
3360.2464531703072
 20
1873.914504203648
 30
0.0
 11
3401.0878311282549
 21
1873.914504203648
 31
0.0
  0
LINE
  5
12A1
  8
DIM
 10
3401.0878311282549
 20
1873.914504203648
 30
0.0
 11
3401.0878311282549
 21
1850.865753100089
 31
0.0
  0
LINE
  5
12A2
  8
DIM
 10
3420.083820876137
 20
1923.064842969445
 30
0.0
 11
3479.921188581965
 21
1873.914504203648
 31
0.0
  0
LINE
  5
12A3
  8
DIM
 10
3479.921188581965
 20
1873.914504203648
 30
0.0
 11
3439.079810624019
 21
1873.914504203648
 31
0.0
  0
LINE
  5
12A4
  8
DIM
 10
3439.079810624019
 20
1873.914504203648
 30
0.0
 11
3439.079810624019
 21
1850.865753100089
 31
0.0
  0
TEXT
  5
12A5
  8
TEXT
 10
10519.19229952241
 20
34534.021163469079
 30
0.0
 40
180.0
  1

  7
SIMPLEX
  0
TEXT
  5
12A6
  8
TEXT
 10
10519.19229952241
 20
61134.021163470163
 30
0.0
 40
180.0
  1

  7
SIMPLEX
  0
TEXT
  5
12A7
  8
TEXT
 10
10519.19229952241
 20
61134.021163469093
 30
0.0
 40
180.0
  1

  7
SIMPLEX
  0
TEXT
  5
12A8
  8
TEXT
 10
10519.19229952241
 20
37194.021163469079
 30
0.0
 40
180.0
  1

  7
SIMPLEX
  0
TEXT
  5
12A9
  8
TEXT
 10
10519.19229952241
 20
63794.021163470163
 30
0.0
 40
180.0
  1

  7
SIMPLEX
  0
TEXT
  5
12AA
  8
TEXT
 10
10519.19229952241
 20
63794.021163469093
 30
0.0
 40
180.0
  1

  7
SIMPLEX
  0
TEXT
  5
12AB
  8
TEXT
 10
6068.1934915237043
 20
14067.82211798511
 30
0.0
 40
18.0
  1

  7
SIMPLEX
  0
TEXT
  5
12AC
  8
TEXT
 10
6068.1934915237043
 20
14067.82211798511
 30
0.0
 40
18.0
  1

  7
SIMPLEX
  0
TEXT
  5
12AD
  8
TEXT
 10
6068.1934915237043
 20
11407.82211798513
 30
0.0
 40
18.0
  1

  7
SIMPLEX
  0
TEXT
  5
12AE
  8
TEXT
 10
6068.1934915237043
 20
11407.82211798513
 30
0.0
 40
18.0
  1

  7
SIMPLEX
  0
TEXT
  5
12AF
  8
TEXT
 10
10184.56997263704
 20
34556.95302002049
 30
0.0
 40
180.0
  1

  7
SIMPLEX
  0
TEXT
  5
12B0
  8
TEXT
 10
10184.56997263704
 20
61156.953020021581
 30
0.0
 40
180.0
  1

  7
SIMPLEX
  0
TEXT
  5
12B1
  8
TEXT
 10
10184.56997263704
 20
61156.95302002049
 30
0.0
 40
180.0
  1

  7
SIMPLEX
  0
TEXT
  5
12B2
  8
TEXT
 10
10184.56997263704
 20
37216.953020020497
 30
0.0
 40
180.0
  1

  7
SIMPLEX
  0
TEXT
  5
12B3
  8
TEXT
 10
10184.56997263704
 20
63816.953020021581
 30
0.0
 40
180.0
  1

  7
SIMPLEX
  0
TEXT
  5
12B4
  8
TEXT
 10
10184.56997263704
 20
63816.95302002049
 30
0.0
 40
180.0
  1

  7
SIMPLEX
  0
TEXT
  5
12B5
  8
TEXT
 10
5733.5711646383261
 20
14090.75397453653
 30
0.0
 40
18.0
  1

  7
SIMPLEX
  0
TEXT
  5
12B6
  8
TEXT
 10
5733.5711646383261
 20
14090.75397453653
 30
0.0
 40
18.0
  1

  7
SIMPLEX
  0
TEXT
  5
12B7
  8
TEXT
 10
5733.5711646383261
 20
11430.75397453653
 30
0.0
 40
18.0
  1

  7
SIMPLEX
  0
TEXT
  5
12B8
  8
TEXT
 10
5733.5711646383261
 20
11430.75397453653
 30
0.0
 40
18.0
  1

  7
SIMPLEX
  0
LINE
  5
12B9
  8
DIM
 10
4101.0866883468743
 20
1850.865753100089
 30
0.0
 11
4063.0947088511089
 21
1850.865753100089
 31
0.0
  0
LINE
  5
12BA
  8
DIM
 10
4082.0906985989909
 20
1923.064842969445
 30
0.0
 11
4022.2533308931602
 21
1873.914504203648
 31
0.0
  0
LINE
  5
12BB
  8
DIM
 10
4063.0947088511089
 20
1873.914504203648
 30
0.0
 11
4063.0947088511089
 21
1850.865753100089
 31
0.0
  0
LINE
  5
12BC
  8
DIM
 10
4022.2533308931602
 20
1873.914504203648
 30
0.0
 11
4063.0947088511089
 21
1873.914504203648
 31
0.0
  0
LINE
  5
12BD
  8
DIM
 10
4082.0906985989909
 20
1923.064842969445
 30
0.0
 11
4141.9280663048212
 21
1873.914504203648
 31
0.0
  0
LINE
  5
12BE
  8
DIM
 10
4101.0866883468743
 20
1873.914504203648
 30
0.0
 11
4101.0866883468743
 21
1850.865753100089
 31
0.0
  0
LINE
  5
12BF
  8
DIM
 10
4141.9280663048212
 20
1873.914504203648
 30
0.0
 11
4101.0866883468743
 21
1873.914504203648
 31
0.0
  0
LINE
  5
12C0
  8
DIM
 10
2906.9442768825438
 20
338.22182997851002
 30
0.0
 11
2435.219464580643
 21
338.22182997851002
 31
0.0
  0
LINE
  5
12C1
  8
DIM
 10
2475.219464580643
 20
398.2218299785103
 30
0.0
 11
2475.219464580643
 21
832.44004263950399
 31
0.0
  0
LINE
  5
12C2
  8
DIM
 10
2475.2194645806439
 20
1702.2218299785079
 30
0.0
 11
2475.2194645806439
 21
1141.601765309679
 31
0.0
  0
SOLID
  5
12C3
  8
DIM
 10
2465.2194645806421
 20
398.2218299785103
 30
0.0
 11
2485.2194645806421
 21
398.2218299785103
 31
0.0
 12
2475.219464580643
 22
338.22182997851002
 32
0.0
 13
2475.219464580643
 23
338.22182997851002
 33
0.0
  0
SOLID
  5
12C4
  8
DIM
 10
2465.2194645806439
 20
1694.221829978509
 30
0.0
 11
2485.2194645806439
 21
1694.221829978509
 31
0.0
 12
2475.2194645806439
 22
1754.22182997851
 32
0.0
 13
2475.2194645806439
 23
1754.22182997851
 33
0.0
  0
TEXT
  5
12C5
  8
DIM
 10
2505.219464580643
 20
882.64690156105451
 30
0.0
 40
60.0
  1
1418
 50
90.0
  7
TITLE3
  0
LINE
  5
12C6
  8
OUTLINE
 10
2760.194371422499
 20
4614.3600254815883
 30
0.0
 11
2760.1943714224981
 21
6092.3600254815929
 31
0.0
  0
LINE
  5
12C8
  8
OUTLINE
 10
4443.194371422499
 20
4614.3600254815883
 30
0.0
 11
2759.194371422499
 21
4614.3600254815883
 31
0.0
  0
LINE
  5
12C9
  8
OUTLINE
 10
4445.5943714224968
 20
1649.221829978507
 30
0.0
 11
2762.5943714224991
 21
1649.221829978507
 31
0.0
  0
LINE
  5
12CA
  8
OUTLINE
 10
4445.5943714224968
 20
391.22182997850848
 30
0.0
 11
2762.5943714224991
 21
391.22182997850922
 31
0.0
  0
LINE
  5
12CB
  8
OUTLINE
 10
2762.5943714224991
 20
1649.221829978507
 30
0.0
 11
2762.5943714224991
 21
391.22182997850922
 31
0.0
  0
LINE
  5
12CC
  8
OUTLINE
 10
3044.0941823425878
 20
338.22182997850899
 30
0.0
 11
2930.094182342586
 21
338.22182997850899
 31
0.0
  0
LINE
  5
12CD
  8
OUTLINE
 10
2903.0893335193819
 20
391.22182997850922
 30
0.0
 11
2930.094182342586
 21
338.22182997850899
 31
0.0
  0
LINE
  5
12CE
  8
OUTLINE
 10
3071.0990311657952
 20
391.22182997850922
 30
0.0
 11
3044.0941823425878
 21
338.22182997850899
 31
0.0
  0
LINE
  5
12CF
  8
OUTLINE
 10
4445.5943714224968
 20
1649.221829978507
 30
0.0
 11
4445.5943714224968
 21
391.22182997850848
 31
0.0
  0
LINE
  5
12D0
  8
OUTLINE
 10
4147.0943714224959
 20
338.22182997850899
 30
0.0
 11
4261.0943714224968
 21
338.22182997850899
 31
0.0
  0
LINE
  5
12D1
  8
OUTLINE
 10
4120.0895225992926
 20
391.22182997850848
 30
0.0
 11
4147.0943714224959
 21
338.22182997850899
 31
0.0
  0
LINE
  5
12D2
  8
OUTLINE
 10
4288.0992202457001
 20
391.22182997850848
 30
0.0
 11
4261.0943714224968
 21
338.22182997850899
 31
0.0
  0
LINE
  5
12D3
  8
OUTLINE
 10
2759.1943714224981
 20
6092.3600254815929
 30
0.0
 11
4443.1943714224972
 21
6092.3600254815892
 31
0.0
  0
TEXT
  5
12D4
  8
TEXT
 10
-293.12529147010349
 20
5731.9457668027017
 30
0.0
 40
60.0
  1
01-08-13
 41
0.708860759493671
  7
TITLE3
 72
     5
 11
26.874708529896449
 21
5731.9457668027017
 31
0.0
  0
LINE
  5
12D5
  8
OUTLINE
 10
2988.9442768825429
 20
4590.0600254815881
 30
0.0
 11
3092.9442768825438
 21
4590.0600254815881
 31
0.0
  0
LINE
  5
12D6
  8
OUTLINE
 10
2988.9442768825452
 20
4614.3600254815901
 30
0.0
 11
2988.9442768825429
 21
4590.0600254815881
 31
0.0
  0
LINE
  5
12D7
  8
OUTLINE
 10
3092.9442768825452
 20
4614.3600254815901
 30
0.0
 11
3092.9442768825438
 21
4590.0600254815881
 31
0.0
  0
LINE
  5
12D8
  8
OUTLINE
 10
2988.9442768825429
 20
6116.6600254815894
 30
0.0
 11
3092.9442768825438
 21
6116.6600254815894
 31
0.0
  0
LINE
  5
12D9
  8
OUTLINE
 10
2988.9442768825452
 20
6092.3600254815892
 30
0.0
 11
2988.9442768825429
 21
6116.6600254815894
 31
0.0
  0
LINE
  5
12DA
  8
OUTLINE
 10
3092.9442768825452
 20
6092.3600254815892
 30
0.0
 11
3092.9442768825438
 21
6116.6600254815894
 31
0.0
  0
LINE
  5
12DB
  8
OUTLINE
 10
4067.8444659624538
 20
4590.0600254815881
 30
0.0
 11
3963.8444659624552
 21
4590.0600254815881
 31
0.0
  0
LINE
  5
12DC
  8
OUTLINE
 10
3963.8444659624529
 20
4614.3600254815901
 30
0.0
 11
3963.8444659624552
 21
4590.0600254815881
 31
0.0
  0
LINE
  5
12DD
  8
OUTLINE
 10
4067.8444659624529
 20
4614.3600254815901
 30
0.0
 11
4067.8444659624538
 21
4590.0600254815881
 31
0.0
  0
LINE
  5
12DE
  8
OUTLINE
 10
4067.8444659624538
 20
6116.6600254815894
 30
0.0
 11
3963.8444659624552
 21
6116.6600254815894
 31
0.0
  0
LINE
  5
12DF
  8
OUTLINE
 10
3963.8444659624529
 20
6092.3600254815892
 30
0.0
 11
3963.8444659624552
 21
6116.6600254815894
 31
0.0
  0
LINE
  5
12E0
  8
OUTLINE
 10
4067.8444659624529
 20
6092.3600254815892
 30
0.0
 11
4067.8444659624538
 21
6116.6600254815894
 31
0.0
  0
LINE
  5
12E1
  8
DIM
 10
1354.67187804583
 20
295.82012168641791
 30
0.0
 11
1354.67187804583
 21
44.050926315785532
 31
0.0
  0
LINE
  5
12E2
  8
DIM
 10
-179.32812195416861
 20
295.82012168641791
 30
0.0
 11
-179.32812195416861
 21
44.050926315785532
 31
0.0
  0
LINE
  5
12E3
  8
DIM
 10
1290.6718780458309
 20
84.050926315785546
 30
0.0
 11
709.07785197541034
 21
84.050926315785546
 31
0.0
  0
LINE
  5
12E4
  8
DIM
 10
-115.32812195416849
 20
84.050926315785546
 30
0.0
 11
440.50642340398088
 21
84.050926315785546
 31
0.0
  0
SOLID
  5
12E5
  8
DIM
 10
1290.6718780458309
 20
94.050926315785546
 30
0.0
 11
1290.6718780458309
 21
74.05092631578546
 31
0.0
 12
1354.67187804583
 22
84.050926315785546
 32
0.0
 13
1354.67187804583
 23
84.050926315785546
 33
0.0
  0
SOLID
  5
12E6
  8
DIM
 10
-115.32812195416849
 20
94.050926315785546
 30
0.0
 11
-115.32812195416849
 21
74.05092631578546
 31
0.0
 12
-179.32812195416861
 22
84.050926315785546
 32
0.0
 13
-179.32812195416861
 23
84.050926315785546
 33
0.0
  0
TEXT
  5
12E7
  8
DIM
 10
480.50642340398048
 20
54.050926315785432
 30
0.0
 40
60.0
  1
1534
  7
TITLE3
  0
TEXT
  5
12E8
  8
OVERLAY-A3
 10
-534.90347225580172
 20
5733.6081945229062
 30
0.0
 40
48.0
  1
Date
  7
SIMPLEX
  0
TEXT
  5
12E9
  8
OVERLAY-A3
 10
1259.4509377005579
 20
5770.9523708495281
 30
0.0
 40
48.0
  1
Revision
 41
0.7812095035934759
  7
SIMPLEX
 72
     5
 11
1470.1543009554839
 21
5770.9523708495281
 31
0.0
  0
LINE
  5
12EA
  8
OVERLAY-A3
 10
1236.211252933675
 20
5553.6307524993372
 30
0.0
 11
1236.2112529336739
 21
5848.483078219796
 31
0.0
  0
LINE
  5
12EB
  8
OVERLAY-A3
 10
-594.06838813235106
 20
6169.4460261869972
 30
0.0
 11
-594.06838813235106
 21
5553.6307524993372
 31
0.0
  0
LINE
  5
12EC
  8
OVERLAY-A3
 10
601.05590897954244
 20
5553.6307524993372
 30
0.0
 11
601.05590897954244
 21
5848.483078219796
 31
0.0
  0
LINE
  5
12ED
  8
OVERLAY-A3
 10
601.05590897954153
 20
5698.5709653416297
 30
0.0
 11
-594.06838813235106
 21
5698.5709653416297
 31
0.0
  0
LINE
  5
12EE
  8
OVERLAY-A3
 10
1490.3794834290379
 20
5848.483078219796
 30
0.0
 11
-594.06838813235106
 21
5848.483078219796
 31
0.0
  0
LINE
  5
12EF
  8
OVERLAY-A3
 10
-594.06838813235106
 20
5553.6307524993372
 30
0.0
 11
1489.7844690723371
 21
5553.6307524993372
 31
0.0
  0
LINE
  5
12F0
  8
OVERLAY-A3
 10
1489.7844690723371
 20
5553.6307524993372
 30
0.0
 11
1489.7844690723371
 21
6169.4460261869972
 31
0.0
  0
LINE
  5
12F1
  8
OVERLAY-A3
 10
1489.7844690723371
 20
6169.4460261869972
 30
0.0
 11
-594.06838813235106
 21
6169.4460261869972
 31
0.0
  0
TEXT
  5
12F2
  8
OVERLAY-A3
 10
-543.80500884042601
 20
5607.7907429334209
 30
0.0
 40
40.0
  1
Scale
 41
1.3701747965659721
  7
SIMPLEX
 72
     5
 11
-342.8460386774168
 21
5607.7907429334209
 31
0.0
  0
TEXT
  5
12F3
  8
OVERLAY-A3
 10
716.94680015494805
 20
5769.7326298161242
 30
0.0
 40
40.0
  1
Drawing No.
  7
SIMPLEX
 72
     2
 11
1065.5182287263769
 21
5769.7326298161242
 31
0.0
  0
LINE
  5
12F4
  8
OVERLAY-A3
 10
-741.27554174562192
 20
-0.3558578775973729
 30
0.0
 11
5564.422023467595
 21
-0.3558578775973729
 31
0.0
  0
LINE
  5
12F5
  8
OVERLAY-A3
 10
5564.422023467595
 20
-0.3558578775973729
 30
0.0
 11
5564.422023467595
 21
6733.982577544416
 31
0.0
  0
LINE
  5
12F6
  8
OVERLAY-A3
 10
5564.422023467595
 20
6733.982577544416
 30
0.0
 11
-741.27554174562192
 21
6733.982577544416
 31
0.0
  0
LINE
  5
12F7
  8
OVERLAY-A3
 10
-741.27554174562192
 20
6733.982577544416
 30
0.0
 11
-741.27554174562192
 21
-0.3558578775973729
 31
0.0
  0
LINE
  5
12F8
  8
OUTLINE
 10
124.79879098715629
 20
1756.2218299785061
 30
0.0
 11
-36.182799973962567
 21
1748.391656903382
 31
0.0
  0
LINE
  5
12FE
  8
OUTLINE
 10
196.64011487949031
 20
1740.419321716636
 30
0.0
 11
172.25370799350549
 21
1740.419321716636
 31
0.0
  0
LINE
  5
12FF
  8
OUTLINE
 10
196.6401148794894
 20
1735.219321716638
 30
0.0
 11
245.87187804583121
 21
1735.2193217166371
 31
0.0
  0
LINE
  5
1302
  8
OUTLINE
 10
196.64011487949031
 20
1740.419321716636
 30
0.0
 11
196.6401148794894
 21
1735.219321716638
 31
0.0
  0
ARC
  5
1303
  8
OUTLINE
 10
124.79879098715629
 20
1741.821829978506
 30
0.0
 40
14.4
 50
70.650415913284803
 51
90.0
  0
LINE
  5
1304
  8
OUTLINE
 10
129.56995795516829
 20
1755.408439775043
 30
0.0
 11
172.25370799350549
 21
1740.419321716636
 31
0.0
  0
LINE
  5
1305
  8
OUTLINE
 10
-79.128121954167895
 20
1654.221829978507
 30
0.0
 11
-54.356167655317222
 21
1736.2004369032311
 31
0.0
  0
LINE
  5
1307
  8
OUTLINE
 10
-179.32812195416861
 20
338.22182997850922
 30
0.0
 11
1354.67187804583
 21
338.22182997850899
 31
0.0
  0
LINE
  5
1308
  8
OUTLINE
 10
1354.67187804583
 20
346.22182997850922
 30
0.0
 11
1307.171878045833
 21
388.2218299785082
 31
0.0
  0
LINE
  5
1309
  8
OUTLINE
 10
1354.67187804583
 20
338.22182997850899
 30
0.0
 11
1354.67187804583
 21
346.22182997850922
 31
0.0
  0
LINE
  5
130A
  8
OUTLINE
 10
-179.32812195416861
 20
346.22182997851002
 30
0.0
 11
-131.82812195416849
 21
388.22182997850899
 31
0.0
  0
LINE
  5
130B
  8
OUTLINE
 10
-179.32812195416861
 20
338.22182997850922
 30
0.0
 11
-179.32812195416861
 21
346.22182997851002
 31
0.0
  0
LINE
  5
130C
  8
DIM
 10
-164.32812195416861
 20
298.22182997850888
 30
0.0
 11
-164.32812195416861
 21
169.2007783240623
 31
0.0
  0
LINE
  5
130D
  8
DIM
 10
1339.67187804583
 20
298.22182997850888
 30
0.0
 11
1339.67187804583
 21
169.2007783240623
 31
0.0
  0
LINE
  5
130E
  8
DIM
 10
-104.32812195416859
 20
209.20077832406241
 30
0.0
 11
294.58028060066681
 21
209.20077832406241
 31
0.0
  0
LINE
  5
130F
  8
DIM
 10
1279.67187804583
 20
209.20077832406241
 30
0.0
 11
857.43742345780993
 21
209.20077832406241
 31
0.0
  0
SOLID
  5
1310
  8
DIM
 10
-104.32812195416859
 20
219.20077832406221
 30
0.0
 11
-104.32812195416859
 21
199.2007783240623
 31
0.0
 12
-164.32812195416861
 22
209.20077832406241
 32
0.0
 13
-164.32812195416861
 23
209.20077832406241
 33
0.0
  0
SOLID
  5
1311
  8
DIM
 10
1279.67187804583
 20
219.20077832406221
 30
0.0
 11
1279.67187804583
 21
199.2007783240623
 31
0.0
 12
1339.67187804583
 22
209.20077832406241
 32
0.0
 13
1339.67187804583
 23
209.20077832406241
 33
0.0
  0
TEXT
  5
1312
  8
DIM
 10
334.58028060066408
 20
179.2007783240623
 30
0.0
 40
60.0
  1
1504 CTRS
  7
TITLE3
  0
CIRCLE
  5
1314
  8
OUTLINE
 10
4088.3943714224988
 20
5688.3600254815901
 30
0.0
 40
325.0
  0
LINE
  5
1315
  8
CLEAR
 10
2187.1943714224958
 20
6092.360025481591
 30
0.0
 11
2760.1943714224981
 21
6092.360025481591
 31
0.0
  0
LINE
  5
1316
  8
CLEAR
 10
4943.194371422499
 20
6092.360025481591
 30
0.0
 11
4943.194371422499
 21
4614.3600254815883
 31
0.0
  0
LINE
  5
1317
  8
CLEAR
 10
2187.194371422499
 20
4614.3600254815883
 30
0.0
 11
2187.1943714224958
 21
6092.360025481591
 31
0.0
  0
LINE
  5
1318
  8
CLEAR
 10
4447.9943714224974
 20
3612.8600254815892
 30
0.0
 11
2760.194371422499
 21
3612.8600254815892
 31
0.0
  0
TEXT
  5
1319
  8
TEXT
 10
-262.15653640051642
 20
5607.4756759378697
 30
0.0
 40
60.0
  1
1:20
  7
TITLE3
  0
LINE
  5
1338
  8
DIM
 10
2865.1755331701861
 20
1754.22182997851
 30
0.0
 11
2435.2194645806439
 21
1754.22182997851
 31
0.0
  0
LINE
  5
1339
  8
CLEAR
 10
2187.194371422499
 20
4614.3600254815883
 30
0.0
 11
2477.8264944105758
 21
4614.3600254815883
 31
0.0
  0
LINE
  5
133A
  8
CLEAR
 10
2760.194371422499
 20
3612.8600254815892
 30
0.0
 11
2760.194371422499
 21
4597.6483323332486
 31
0.0
  0
LINE
  5
133B
  8
CLEAR
 10
4447.9943714224974
 20
3612.8600254815892
 30
0.0
 11
4447.9943714224974
 21
4597.6483323332486
 31
0.0
  0
LINE
  5
133C
  8
CLEAR
 10
4943.194371422499
 20
4614.3600254815883
 30
0.0
 11
4473.2609845991237
 21
4614.3600254815883
 31
0.0
  0
LINE
  5
133D
  8
DIM
 10
2762.5943714224991
 20
368.26941238391748
 30
0.0
 11
2762.5943714224991
 21
123.07968599317969
 31
0.0
  0
LINE
  5
133E
  8
DIM
 10
2702.5943714225009
 20
174.0500629713824
 30
0.0
 11
2642.5943714224991
 21
174.0500629713824
 31
0.0
  0
SOLID
  5
133F
  8
DIM
 10
2702.5943714225009
 20
184.05006297138249
 30
0.0
 11
2702.5943714225009
 21
164.0500629713826
 31
0.0
 12
2762.5943714224991
 22
174.0500629713824
 32
0.0
 13
2762.5943714224991
 23
174.0500629713824
 33
0.0
  0
TEXT
  5
1340
  8
DIM
 10
2812.1868000559639
 20
144.0500629713824
 30
0.0
 40
60.0
  1
220
  7
TITLE3
  0
LINE
  5
1341
  8
DIM
 10
2987.0941823425878
 20
298.22182997850888
 30
0.0
 11
2987.0941823425878
 21
123.07968599317969
 31
0.0
  0
LINE
  5
1342
  8
DIM
 10
4204.094371422495
 20
298.22182997850888
 30
0.0
 11
4204.094371422495
 21
123.07968599317969
 31
0.0
  0
LINE
  5
1343
  8
DIM
 10
3047.0941823425878
 20
174.0500629713824
 30
0.0
 11
3406.3978363076289
 21
174.0500629713824
 31
0.0
  0
LINE
  5
1344
  8
DIM
 10
4144.0943714224959
 20
174.0500629713824
 30
0.0
 11
3663.371536262192
 21
174.0500629713824
 31
0.0
  0
SOLID
  5
1345
  8
DIM
 10
3047.0941823425878
 20
184.05006297138249
 30
0.0
 11
3047.0941823425878
 21
164.0500629713824
 31
0.0
 12
2987.0941823425878
 22
174.0500629713824
 32
0.0
 13
2987.0941823425878
 23
174.0500629713824
 33
0.0
  0
SOLID
  5
1346
  8
DIM
 10
4144.0943714224959
 20
184.05006297138249
 30
0.0
 11
4144.0943714224959
 21
164.0500629713824
 31
0.0
 12
4204.094371422495
 22
174.0500629713824
 32
0.0
 13
4204.094371422495
 23
174.0500629713824
 33
0.0
  0
TEXT
  5
1347
  8
DIM
 10
3446.3978363076321
 20
148.56487448227921
 30
0.0
 40
60.0
  1
1217
  7
TITLE3
  0
LINE
  5
1348
  8
DIM
 10
4447.5943714224986
 20
348.22182997850848
 30
0.0
 11
4447.5943714224986
 21
120.2479963672448
 31
0.0
  0
LINE
  5
1349
  8
DIM
 10
4507.5943714224977
 20
174.0500629713824
 30
0.0
 11
4567.5943714224959
 21
174.0500629713824
 31
0.0
  0
SOLID
  5
134A
  8
DIM
 10
4507.5943714224977
 20
184.05006297138249
 30
0.0
 11
4507.5943714224977
 21
164.0500629713824
 31
0.0
 12
4447.5943714224986
 22
174.0500629713824
 32
0.0
 13
4447.5943714224986
 23
174.0500629713824
 33
0.0
  0
TEXT
  5
134B
  8
DIM
 10
4228.3293517135107
 20
144.0500629713824
 30
0.0
 40
60.0
  1
242
  7
TITLE3
  0
LINE
  5
134C
  8
CLEAR
 10
4447.9943714224974
 20
3502.2218299785081
 30
0.0
 11
2761.3943714224988
 21
3502.2218299785081
 31
0.0
  0
LINE
  5
134D
  8
CLEAR
 10
2761.3943714224988
 20
3502.2218299785081
 30
0.0
 11
2762.5943714224991
 21
1654.221829978507
 31
0.0
  0
LINE
  5
134E
  8
CLEAR
 10
4447.9943714224974
 20
3502.2218299785081
 30
0.0
 11
4445.5943714224968
 21
1654.221829978507
 31
0.0
  0
LINE
  5
134F
  8
DIM
 10
3596.9031540141018
 20
6215.741148450109
 30
0.0
 11
3558.9111745183368
 21
6215.741148450109
 31
0.0
  0
LINE
  5
1350
  8
DIM
 10
3577.9071642662188
 20
6143.5420585807542
 30
0.0
 11
3637.74453197205
 21
6192.6923973465491
 31
0.0
  0
LINE
  5
1351
  8
DIM
 10
3558.9111745183368
 20
6192.6923973465491
 30
0.0
 11
3558.9111745183368
 21
6215.741148450109
 31
0.0
  0
LINE
  5
1352
  8
DIM
 10
3518.0697965603881
 20
6192.6923973465491
 30
0.0
 11
3558.9111745183368
 21
6192.6923973465491
 31
0.0
  0
LINE
  5
1353
  8
DIM
 10
3577.9071642662188
 20
6143.5420585807542
 30
0.0
 11
3518.0697965603881
 21
6192.6923973465491
 31
0.0
  0
LINE
  5
1354
  8
DIM
 10
3596.9031540141018
 20
6192.6923973465491
 30
0.0
 11
3596.9031540141018
 21
6215.741148450109
 31
0.0
  0
LINE
  5
1355
  8
DIM
 10
3637.74453197205
 20
6192.6923973465491
 30
0.0
 11
3596.9031540141018
 21
6192.6923973465491
 31
0.0
  0
LINE
  5
1356
  8
DIM
 10
3596.9031540141018
 20
4483.7247324598193
 30
0.0
 11
3558.9111745183368
 21
4483.7247324598193
 31
0.0
  0
LINE
  5
1357
  8
DIM
 10
3577.9071642662188
 20
4555.9238223291723
 30
0.0
 11
3637.74453197205
 21
4506.7734835633764
 31
0.0
  0
LINE
  5
1358
  8
DIM
 10
3558.9111745183368
 20
4506.7734835633764
 30
0.0
 11
3558.9111745183368
 21
4483.7247324598193
 31
0.0
  0
LINE
  5
1359
  8
DIM
 10
3518.0697965603881
 20
4506.7734835633764
 30
0.0
 11
3558.9111745183368
 21
4506.7734835633764
 31
0.0
  0
LINE
  5
135A
  8
DIM
 10
3577.9071642662188
 20
4555.9238223291723
 30
0.0
 11
3518.0697965603881
 21
4506.7734835633764
 31
0.0
  0
LINE
  5
135B
  8
DIM
 10
3596.9031540141018
 20
4506.7734835633764
 30
0.0
 11
3596.9031540141018
 21
4483.7247324598193
 31
0.0
  0
LINE
  5
135C
  8
DIM
 10
3637.74453197205
 20
4506.7734835633764
 30
0.0
 11
3596.9031540141018
 21
4506.7734835633764
 31
0.0
  0
TEXT
  5
135D
  8
TEXT
 10
2955.9280919884709
 20
822.55160875293348
 30
0.0
 40
100.0
  1
OSA380RKTBGV
  7
TITLE5
 72
     1
 11
3532.118568178947
 21
822.55160875293348
 31
0.0
  0
TEXT
  5
135E
  8
TEXT
 10
3143.9635147037029
 20
5570.701625650132
 30
0.0
 40
100.0
  1
OSA380RKTBGV
  7
TITLE5
 72
     1
 11
3720.1539908941791
 21
5570.701625650132
 31
0.0
  0
TEXT
  5
135F
  8
TEXT
 10
-5.1454636196622232
 20
804.47044500696552
 30
0.0
 40
100.0
  1
OSA380RKTBGV
  7
TITLE5
 72
     1
 11
571.04501257081392
 21
804.47044500696552
 31
0.0
  0
TEXT
  5
1361
  8
TEXT
 10
3080.5034835128281
 20
3387.7711551386578
 30
0.0
 40
60.0
  1
2000 min CLEARANCE
  7
TITLE3
  0
TEXT
  5
1362
  8
TEXT
 10
3080.5034835128281
 20
3642.4480133432512
 30
0.0
 40
60.0
  1
1000 min CLEARANCE
  7
TITLE3
  0
TEXT
  5
1363
  8
TEXT
 10
2282.6327945870789
 20
4911.8785801337963
 30
0.0
 40
60.0
  1
500 min CLEARANCE
 50
90.0
  7
TITLE3
  0
TEXT
  5
1364
  8
TEXT
 10
4893.0042667998659
 20
4911.8785801337963
 30
0.0
 40
60.0
  1
500 min CLEARANCE
 50
90.0
  7
TITLE3
  0
INSERT
  5
1365
  8
TEXT
  2
NEW_BLOCK
 10
560.93189895514911
 20
4974.4688288124235
 30
0.0
  0
ARC
  5
1629
  8
OUTLINE
 10
-37.169772126580007
 20
1730.221862480561
 30
0.0
 40
18.196580541343359
 50
86.890783808702082
 51
160.81891700020631
  0
LINE
  5
162C
  8
OUTLINE
 10
366.9449651045079
 20
1756.2218299785061
 30
0.0
 11
527.92655606562676
 21
1748.391656903382
 31
0.0
  0
ARC
  5
162D
  8
OUTLINE
 10
528.91352821824603
 20
1730.221862480561
 30
0.0
 40
18.196580541342151
 50
19.181082999798871
 51
93.109216191245721
  0
LINE
  5
162E
  8
OUTLINE
 10
295.1036412121739
 20
1740.419321716636
 30
0.0
 11
319.4900480981587
 21
1740.419321716636
 31
0.0
  0
LINE
  5
162F
  8
OUTLINE
 10
295.10364121217481
 20
1735.219321716638
 30
0.0
 11
245.871878045833
 21
1735.2193217166371
 31
0.0
  0
LINE
  5
1630
  8
OUTLINE
 10
295.1036412121739
 20
1740.419321716636
 30
0.0
 11
295.10364121217481
 21
1735.219321716638
 31
0.0
  0
ARC
  5
1631
  8
OUTLINE
 10
366.9449651045079
 20
1741.821829978506
 30
0.0
 40
14.4
 50
90.0
 51
109.34958408671601
  0
LINE
  5
1632
  8
OUTLINE
 10
362.17379813649598
 20
1755.408439775043
 30
0.0
 11
319.4900480981587
 21
1740.419321716636
 31
0.0
  0
LINE
  5
1633
  8
OUTLINE
 10
570.87187804583209
 20
1654.221829978507
 30
0.0
 11
546.09992374698106
 21
1736.2004369032311
 31
0.0
  0
LINE
  5
1634
  8
OUTLINE
 10
794.79879098715605
 20
1756.2218299785061
 30
0.0
 11
633.81720002603765
 21
1748.391656903382
 31
0.0
  0
ARC
  5
1635
  8
OUTLINE
 10
632.83022787341997
 20
1730.221862480561
 30
0.0
 40
18.19658054134387
 50
86.890783808702082
 51
160.81891700020631
  0
LINE
  5
1636
  8
OUTLINE
 10
866.64011487949006
 20
1740.419321716636
 30
0.0
 11
842.2537079935048
 21
1740.419321716636
 31
0.0
  0
LINE
  5
1637
  8
OUTLINE
 10
866.64011487948926
 20
1735.219321716638
 30
0.0
 11
915.87187804583084
 21
1735.2193217166371
 31
0.0
  0
LINE
  5
1638
  8
OUTLINE
 10
866.64011487949006
 20
1740.419321716636
 30
0.0
 11
866.64011487948926
 21
1735.219321716638
 31
0.0
  0
ARC
  5
1639
  8
OUTLINE
 10
794.79879098715605
 20
1741.821829978506
 30
0.0
 40
14.4
 50
70.650415913284689
 51
90.0
  0
LINE
  5
163A
  8
OUTLINE
 10
799.56995795516832
 20
1755.408439775043
 30
0.0
 11
842.2537079935048
 21
1740.419321716636
 31
0.0
  0
LINE
  5
163B
  8
OUTLINE
 10
590.87187804583209
 20
1654.221829978507
 30
0.0
 11
615.64383234468278
 21
1736.2004369032311
 31
0.0
  0
LINE
  5
163C
  8
OUTLINE
 10
1036.9449651045079
 20
1756.2218299785061
 30
0.0
 11
1197.926556065627
 21
1748.391656903382
 31
0.0
  0
ARC
  5
163D
  8
OUTLINE
 10
1198.913528218246
 20
1730.221862480561
 30
0.0
 40
18.196580541342289
 50
19.181082999800591
 51
93.109216191245721
  0
LINE
  5
163E
  8
OUTLINE
 10
965.10364121217378
 20
1740.419321716636
 30
0.0
 11
989.49004809815847
 21
1740.419321716636
 31
0.0
  0
LINE
  5
163F
  8
OUTLINE
 10
965.10364121217469
 20
1735.219321716638
 30
0.0
 11
915.87187804583266
 21
1735.2193217166371
 31
0.0
  0
LINE
  5
1640
  8
OUTLINE
 10
965.10364121217378
 20
1740.419321716636
 30
0.0
 11
965.10364121217469
 21
1735.219321716638
 31
0.0
  0
ARC
  5
1641
  8
OUTLINE
 10
1036.9449651045079
 20
1741.821829978506
 30
0.0
 40
14.4
 50
90.0
 51
109.34958408671601
  0
LINE
  5
1642
  8
OUTLINE
 10
1032.1737981364961
 20
1755.408439775043
 30
0.0
 11
989.49004809815847
 21
1740.419321716636
 31
0.0
  0
LINE
  5
1643
  8
OUTLINE
 10
1240.8718780458321
 20
1654.221829978507
 30
0.0
 11
1216.0999237469809
 21
1736.2004369032311
 31
0.0
  0
LINE
  5
1645
  8
OUTLINE
 10
3300.2212843638208
 20
1756.2218299785061
 30
0.0
 11
3139.239693402702
 21
1748.391656903382
 31
0.0
  0
ARC
  5
1646
  8
OUTLINE
 10
3140.2113482184209
 20
1728.4152736742001
 30
0.0
 40
20.0
 50
92.784682177210044
 51
163.18645155141431
  0
LINE
  5
1647
  8
OUTLINE
 10
3372.0626082561539
 20
1740.419321716636
 30
0.0
 11
3347.67620137017
 21
1740.419321716636
 31
0.0
  0
LINE
  5
1648
  8
OUTLINE
 10
3372.0626082561539
 20
1733.219321716638
 30
0.0
 11
3421.2943714224962
 21
1733.2193217166371
 31
0.0
  0
LINE
  5
1649
  8
OUTLINE
 10
3372.0626082561539
 20
1740.419321716636
 30
0.0
 11
3372.0626082561539
 21
1733.219321716638
 31
0.0
  0
ARC
  5
164A
  8
OUTLINE
 10
3300.2212843638208
 20
1741.821829978506
 30
0.0
 40
14.4
 50
70.650415913283993
 51
90.0
  0
LINE
  5
164B
  8
OUTLINE
 10
3304.9924513318329
 20
1755.408439775043
 30
0.0
 11
3347.67620137017
 21
1740.419321716636
 31
0.0
  0
LINE
  5
164C
  8
OUTLINE
 10
3096.2943714224971
 20
1654.221829978507
 30
0.0
 11
3121.0663257213469
 21
1734.2004369032311
 31
0.0
  0
LINE
  5
164D
  8
OUTLINE
 10
3542.367458481172
 20
1756.2218299785061
 30
0.0
 11
3703.3490494422908
 21
1748.391656903382
 31
0.0
  0
ARC
  5
164E
  8
OUTLINE
 10
3702.3773946265728
 20
1728.4152736742001
 30
0.0
 40
20.0
 50
16.813548448589199
 51
87.215317822763808
  0
LINE
  5
164F
  8
OUTLINE
 10
3470.526134588838
 20
1740.419321716636
 30
0.0
 11
3494.9125414748228
 21
1740.419321716636
 31
0.0
  0
LINE
  5
1650
  8
OUTLINE
 10
3470.5261345888389
 20
1733.219321716638
 30
0.0
 11
3421.2943714224971
 21
1733.2193217166371
 31
0.0
  0
LINE
  5
1651
  8
OUTLINE
 10
3470.526134588838
 20
1740.419321716636
 30
0.0
 11
3470.5261345888389
 21
1733.219321716638
 31
0.0
  0
ARC
  5
1652
  8
OUTLINE
 10
3542.367458481172
 20
1741.821829978506
 30
0.0
 40
14.4
 50
90.0
 51
109.34958408671601
  0
LINE
  5
1653
  8
OUTLINE
 10
3537.5962915131599
 20
1755.408439775043
 30
0.0
 11
3494.9125414748228
 21
1740.419321716636
 31
0.0
  0
LINE
  5
1654
  8
OUTLINE
 10
3746.2943714224962
 20
1654.221829978507
 30
0.0
 11
3721.5224171236459
 21
1734.2004369032311
 31
0.0
  0
LINE
  5
1655
  8
OUTLINE
 10
3970.2212843638208
 20
1756.2218299785061
 30
0.0
 11
3809.239693402702
 21
1748.391656903382
 31
0.0
  0
ARC
  5
1656
  8
OUTLINE
 10
3810.2113482184209
 20
1728.4152736742001
 30
0.0
 40
20.0
 50
92.784682177210044
 51
163.18645155141431
  0
LINE
  5
1657
  8
OUTLINE
 10
4042.0626082561548
 20
1740.419321716636
 30
0.0
 11
4017.6762013701709
 21
1740.419321716636
 31
0.0
  0
LINE
  5
1658
  8
OUTLINE
 10
4042.062608256153
 20
1733.219321716638
 30
0.0
 11
4091.2943714224939
 21
1733.2193217166371
 31
0.0
  0
LINE
  5
1659
  8
OUTLINE
 10
4042.0626082561548
 20
1740.419321716636
 30
0.0
 11
4042.062608256153
 21
1733.219321716638
 31
0.0
  0
ARC
  5
165A
  8
OUTLINE
 10
3970.2212843638208
 20
1741.821829978506
 30
0.0
 40
14.4
 50
70.650415913283993
 51
90.0
  0
LINE
  5
165B
  8
OUTLINE
 10
3974.9924513318329
 20
1755.408439775043
 30
0.0
 11
4017.6762013701709
 21
1740.419321716636
 31
0.0
  0
LINE
  5
165C
  8
OUTLINE
 10
3766.2943714224971
 20
1654.221829978507
 30
0.0
 11
3791.0663257213469
 21
1734.2004369032311
 31
0.0
  0
LINE
  5
165D
  8
OUTLINE
 10
4212.3674584811733
 20
1756.2218299785061
 30
0.0
 11
4373.3490494422922
 21
1748.391656903382
 31
0.0
  0
ARC
  5
165E
  8
OUTLINE
 10
4372.3773946265719
 20
1728.4152736742001
 30
0.0
 40
20.0
 50
16.813548448590819
 51
87.215317822763808
  0
LINE
  5
165F
  8
OUTLINE
 10
4140.5261345888384
 20
1740.419321716636
 30
0.0
 11
4164.9125414748232
 21
1740.419321716636
 31
0.0
  0
LINE
  5
1660
  8
OUTLINE
 10
4140.5261345888393
 20
1733.219321716638
 30
0.0
 11
4091.2943714224971
 21
1733.2193217166371
 31
0.0
  0
LINE
  5
1661
  8
OUTLINE
 10
4140.5261345888384
 20
1740.419321716636
 30
0.0
 11
4140.5261345888393
 21
1733.219321716638
 31
0.0
  0
ARC
  5
1662
  8
OUTLINE
 10
4212.3674584811733
 20
1741.821829978506
 30
0.0
 40
14.4
 50
90.0
 51
109.34958408671601
  0
LINE
  5
1663
  8
OUTLINE
 10
4207.5962915131586
 20
1755.408439775043
 30
0.0
 11
4164.9125414748232
 21
1740.419321716636
 31
0.0
  0
LINE
  5
1664
  8
OUTLINE
 10
4416.2943714224957
 20
1654.221829978507
 30
0.0
 11
4391.522417123645
 21
1734.2004369032311
 31
0.0
  0
CIRCLE
  5
1681
  8
OUTLINE
 10
3418.3943714224988
 20
5688.3600254815901
 30
0.0
 40
325.0
  0
CIRCLE
  5
1682
  8
OUTLINE
 10
4088.3943714224988
 20
5018.3600254815901
 30
0.0
 40
325.0
  0
CIRCLE
  5
1683
  8
OUTLINE
 10
3418.3943714224988
 20
5018.3600254815901
 30
0.0
 40
325.0
  0
LINE
  5
168F
  8
OUTLINE
 10
4443.194371422499
 20
4614.3600254815883
 30
0.0
 11
4443.1943714224972
 21
6092.3600254815892
 31
0.0
  0
CIRCLE
  5
1693
  8
OUTLINE
 10
59.67187804583137
 20
446.22182997850911
 30
0.0
 40
19.0
  0
CIRCLE
  5
1695
  8
OUTLINE
 10
124.2718780458317
 20
446.22182997850911
 30
0.0
 40
25.0
  0
CIRCLE
  5
16A4
  8
OUTLINE
 10
1115.1718780458291
 20
446.22182997850911
 30
0.0
 40
19.0
  0
CIRCLE
  5
16A5
  8
OUTLINE
 10
1050.571878045829
 20
446.22182997850911
 30
0.0
 40
25.0
  0
LINE
  5
16AB
  8
OUTLINE
 10
-153.07812195416861
 20
1630.221829978509
 30
0.0
 11
1327.9218780458309
 21
1630.2218299785079
 31
0.0
  0
LINE
  5
16AE
  8
OUTLINE
 10
-68.078121954167855
 20
1630.221829978509
 30
0.0
 11
-68.078121954168637
 21
388.22182997850899
 31
0.0
  0
LINE
  5
16AF
  8
OUTLINE
 10
1242.92187804583
 20
1630.2218299785079
 30
0.0
 11
1242.9218780458291
 21
388.22182997850717
 31
0.0
  0
LINE
  5
16B1
  8
OUTLINE
 10
-68.078121954169546
 20
495.22182997850888
 30
0.0
 11
537.42187804583034
 21
495.22182997850888
 31
0.0
  0
LINE
  5
16B9
  8
DIM
 10
-198.47802741421131
 20
338.22182997851002
 30
0.0
 11
-343.02424035286458
 21
338.22182997851002
 31
0.0
  0
LINE
  5
16BA
  8
DIM
 10
22.1214521156171
 20
446.22182997850911
 30
0.0
 11
-342.17144263412678
 21
446.22182997850911
 31
0.0
  0
LINE
  5
16BB
  8
DIM
 10
-303.02424035286458
 20
494.22182997850848
 30
0.0
 11
-303.02424035286458
 21
622.10754426422307
 31
0.0
  0
LINE
  5
16BC
  8
DIM
 10
-303.02424035286458
 20
338.22182997851002
 30
0.0
 11
-303.02424035286458
 21
147.92285885201821
 31
0.0
  0
SOLID
  5
16BD
  8
DIM
 10
-313.02424035286373
 20
506.22182997850888
 30
0.0
 11
-293.02424035286458
 21
506.22182997850888
 31
0.0
 12
-303.02424035286458
 22
446.22182997850911
 32
0.0
 13
-303.02424035286458
 23
446.22182997850911
 33
0.0
  0
SOLID
  5
16BE
  8
DIM
 10
-313.02424035286373
 20
278.22182997850922
 30
0.0
 11
-293.02424035286458
 21
278.22182997850922
 31
0.0
 12
-303.02424035286458
 22
338.22182997851002
 32
0.0
 13
-303.02424035286458
 23
338.22182997851002
 33
0.0
  0
TEXT
  5
16BF
  8
DIM
 10
-384.14558172428178
 20
316.72482139184922
 30
0.0
 40
60.0
  1
108
 50
90.0
  7
TITLE3
 72
     4
 11
-414.14558172428173
 21
388.15339282042061
 31
0.0
  0
LINE
  5
16C0
  8
DIM
 10
-198.47802741421131
 20
338.22182997851002
 30
0.0
 11
-343.02424035286458
 21
338.22182997851002
 31
0.0
  0
LINE
  5
177A
  8
OUTLINE
 10
2760.1943714224981
 20
6127.7215588133131
 30
0.0
 11
2760.1943714224981
 21
6348.2820556069873
 31
0.0
  0
LINE
  5
177B
  8
OUTLINE
 10
4443.1943714224972
 20
6127.7215588133131
 30
0.0
 11
4443.1943714224972
 21
6490.9714673991903
 31
0.0
  0
LINE
  5
17A1
  8
DIM
 10
259.87815137732758
 20
1853.6162903460861
 30
0.0
 11
221.8861718815634
 21
1853.6162903460861
 31
0.0
  0
LINE
  5
17A2
  8
DIM
 10
240.88216162944539
 20
1925.8153802154411
 30
0.0
 11
181.0447939236152
 21
1876.6650414496451
 31
0.0
  0
LINE
  5
17A3
  8
DIM
 10
181.0447939236152
 20
1876.6650414496451
 30
0.0
 11
221.8861718815634
 21
1876.6650414496451
 31
0.0
  0
LINE
  5
17A4
  8
DIM
 10
221.8861718815634
 20
1876.6650414496451
 30
0.0
 11
221.8861718815634
 21
1853.6162903460861
 31
0.0
  0
LINE
  5
17A5
  8
DIM
 10
240.88216162944539
 20
1925.8153802154411
 30
0.0
 11
300.71952933527439
 21
1876.6650414496451
 31
0.0
  0
LINE
  5
17A6
  8
DIM
 10
300.71952933527439
 20
1876.6650414496451
 30
0.0
 11
259.87815137732758
 21
1876.6650414496451
 31
0.0
  0
LINE
  5
17A7
  8
DIM
 10
259.87815137732758
 20
1876.6650414496451
 30
0.0
 11
259.87815137732758
 21
1853.6162903460861
 31
0.0
  0
LINE
  5
17A8
  8
DIM
 10
921.88502910018235
 20
1853.6162903460861
 30
0.0
 11
883.89304960441814
 21
1853.6162903460861
 31
0.0
  0
LINE
  5
17A9
  8
DIM
 10
902.88903935230076
 20
1925.8153802154411
 30
0.0
 11
843.05167164647014
 21
1876.6650414496451
 31
0.0
  0
LINE
  5
17AA
  8
DIM
 10
883.89304960441814
 20
1876.6650414496451
 30
0.0
 11
883.89304960441814
 21
1853.6162903460861
 31
0.0
  0
LINE
  5
17AB
  8
DIM
 10
843.05167164647014
 20
1876.6650414496451
 30
0.0
 11
883.89304960441814
 21
1876.6650414496451
 31
0.0
  0
LINE
  5
17AC
  8
DIM
 10
902.88903935230076
 20
1925.8153802154411
 30
0.0
 11
962.72640705812989
 21
1876.6650414496451
 31
0.0
  0
LINE
  5
17AD
  8
DIM
 10
921.88502910018235
 20
1876.6650414496451
 30
0.0
 11
921.88502910018235
 21
1853.6162903460861
 31
0.0
  0
LINE
  5
17AE
  8
DIM
 10
962.72640705812989
 20
1876.6650414496451
 30
0.0
 11
921.88502910018235
 21
1876.6650414496451
 31
0.0
  0
LINE
  5
2008
  8
OUTLINE
 10
2732.194371422499
 20
4641.3600254815883
 30
0.0
 11
2732.1943714224981
 21
6065.3600254815919
 31
0.0
  0
LINE
  5
200F
  8
OUTLINE
 10
2759.1943714224981
 20
6092.3600254815929
 30
0.0
 11
2732.1943714224981
 21
6065.3600254815919
 31
0.0
1001
GENIUS_GENFIL_13
1070
     1
1040
27.0
1040
0.0
1040
27.0
1040
45.0
1002
{
1002
}
1001
GENIUS_GENODEF_13
1002
{
1000
HIER
1070
     0
1002
}
1002
{
1000
MANEDIT
1070
     0
1002
}
1002
{
1000
NOSEL
1070
     0
1002
}
1002
{
1000
BEHIND
1070
     0
1002
}
1002
{
1000
OTHER
1070
     0
1002
}
1002
{
1000
REACTOR
1002
}
1001
GENIUS_GENOBJ-N-CHA_13
1002
{
1000
OWNER
1000
GEN
1002
}
  0
LINE
  5
2013
  8
OUTLINE
 10
2759.194371422499
 20
4614.3600254815883
 30
0.0
 11
2732.194371422499
 21
4641.3600254815883
 31
0.0
1001
GENIUS_GENFIL_13
1070
     1
1040
27.0
1040
0.0
1040
27.0
1040
45.0
1002
{
1002
}
1001
GENIUS_GENODEF_13
1002
{
1000
HIER
1070
     0
1002
}
1002
{
1000
MANEDIT
1070
     0
1002
}
1002
{
1000
NOSEL
1070
     0
1002
}
1002
{
1000
BEHIND
1070
     0
1002
}
1002
{
1000
OTHER
1070
     0
1002
}
1002
{
1000
REACTOR
1002
}
1001
GENIUS_GENOBJ-N-CHA_13
1002
{
1000
OWNER
1000
GEN
1002
}
  0
LINE
  5
2014
  8
DIM
 10
4382.789162360501
 20
6417.1684059199924
 30
0.0
 11
3734.7086571367831
 21
6417.1684059199924
 31
0.0
  0
LINE
  5
2015
  8
DIM
 10
2793.394371422497
 20
6417.1684059199924
 30
0.0
 11
3323.280085708212
 21
6417.1684059199924
 31
0.0
  0
SOLID
  5
2016
  8
DIM
 10
4382.789162360501
 20
6427.1684059199906
 30
0.0
 11
4382.789162360501
 21
6407.1684059199906
 31
0.0
 12
4443.1943714224972
 22
6416.8215851107416
 32
0.0
 13
4443.1943714224972
 23
6416.8215851107416
 33
0.0
  0
SOLID
  5
2017
  8
DIM
 10
2793.394371422497
 20
6427.1684059199906
 30
0.0
 11
2793.394371422497
 21
6407.1684059199906
 31
0.0
 12
2733.394371422497
 22
6417.1684059199924
 32
0.0
 13
2733.394371422497
 23
6417.1684059199924
 33
0.0
  0
TEXT
  5
2018
  8
DIM
 10
3447.5657999939249
 20
6387.1684059199906
 30
0.0
 40
60.0
  1
1711
  7
TITLE3
 72
     1
 11
3528.9943714224969
 21
6417.1684059199924
 31
0.0
 73
     2
  0
LINE
  5
2019
  8
OUTLINE
 10
2732.1943714224981
 20
6100.7215588133122
 30
0.0
 11
2732.1943714224981
 21
6491.4310626592633
 31
0.0
  0
LINE
  5
2336
  8
OUTLINE
 10
637.42187804583125
 20
1630.2218299785079
 30
0.0
 11
637.42187804583023
 21
388.22182997850803
 31
0.0
  0
LINE
  5
2337
  8
OUTLINE
 10
537.42187804583125
 20
1630.2218299785079
 30
0.0
 11
537.42187804583023
 21
388.2218299785082
 31
0.0
  0
LINE
  5
2338
  8
OUTLINE
 10
637.42187804583034
 20
495.22182997850888
 30
0.0
 11
1242.92187804583
 21
495.22182997850888
 31
0.0
  0
LINE
  5
25A7
  8
CLEAR
 10
4443.1943714224972
 20
6092.3600254815901
 30
0.0
 11
4943.194371422499
 21
6092.360025481591
 31
0.0
  0
ENDSEC
  0
EOF
