  0
SECTION
  2
HEADER
  9
$ACADVER
  1
AC1009
  9
$INSBASE
 10
0.0
 20
0.0
 30
0.0
  9
$EXTMIN
 10
333.33333333333388
 20
166.66666666666691
 30
0.0
  9
$EXTMAX
 10
7139.0308985465499
 20
6901.0051020886822
 30
0.0
  9
$LIMMIN
 10
0.0
 20
0.0
  9
$LIMMAX
 10
7000.0000000000009
 20
4950.0
  9
$ORTHOMODE
 70
     0
  9
$REGENMODE
 70
     1
  9
$FILLMODE
 70
     1
  9
$QTEXTMODE
 70
     0
  9
$MIRRTEXT
 70
     0
  9
$DRAGMODE
 70
     2
  9
$LTSCALE
 40
16.666666666666671
  9
$OSMODE
 70
  3071
  9
$ATTMODE
 70
     1
  9
$TEXTSIZE
 40
0.2
  9
$TRACEWID
 40
0.05
  9
$TEXTSTYLE
  7
STANDARD
  9
$CLAYER
  8
0
  9
$CELTYPE
  6
BYLAYER
  9
$CECOLOR
 62
   256
  9
$DIMSCALE
 40
1.0
  9
$DIMASZ
 40
1.799999999999996
  9
$DIMEXO
 40
0.0625
  9
$DIMDLI
 40
0.38
  9
$DIMRND
 40
0.0
  9
$DIMDLE
 40
0.0
  9
$DIMEXE
 40
0.18
  9
$DIMTP
 40
0.0
  9
$DIMTM
 40
0.0
  9
$DIMTXT
 40
1.799999999999996
  9
$DIMCEN
 40
0.09
  9
$DIMTSZ
 40
0.0
  9
$DIMTOL
 70
     0
  9
$DIMLIM
 70
     0
  9
$DIMTIH
 70
     1
  9
$DIMTOH
 70
     1
  9
$DIMSE1
 70
     0
  9
$DIMSE2
 70
     0
  9
$DIMTAD
 70
     0
  9
$DIMZIN
 70
     0
  9
$DIMBLK
  1

  9
$DIMASO
 70
     1
  9
$DIMSHO
 70
     1
  9
$DIMPOST
  1

  9
$DIMAPOST
  1

  9
$DIMALT
 70
     0
  9
$DIMALTD
 70
     2
  9
$DIMALTF
 40
25.399999999999999
  9
$DIMLFAC
 40
1.0
  9
$DIMTOFL
 70
     0
  9
$DIMTVP
 40
0.0
  9
$DIMTIX
 70
     0
  9
$DIMSOXD
 70
     0
  9
$DIMSAH
 70
     0
  9
$DIMBLK1
  1

  9
$DIMBLK2
  1

  9
$DIMSTYLE
  2
STANDARD
  9
$DIMCLRD
 70
     0
  9
$DIMCLRE
 70
     0
  9
$DIMCLRT
 70
     0
  9
$DIMTFAC
 40
1.0
  9
$DIMGAP
 40
0.09
  9
$LUNITS
 70
     2
  9
$LUPREC
 70
     4
  9
$SKETCHINC
 40
0.1
  9
$FILLETRAD
 40
0.0
  9
$AUNITS
 70
     0
  9
$AUPREC
 70
     0
  9
$MENU
  1
.
  9
$ELEVATION
 40
0.0
  9
$PELEVATION
 40
0.0
  9
$THICKNESS
 40
0.0
  9
$LIMCHECK
 70
     0
  9
$BLIPMODE
 70
     0
  9
$CHAMFERA
 40
0.0
  9
$CHAMFERB
 40
0.0
  9
$SKPOLY
 70
     0
  9
$TDCREATE
 40
2456632.572410984
  9
$TDUPDATE
 40
2456633.4552457761
  9
$TDINDWG
 40
0.1207637153
  9
$TDUSRTIMER
 40
0.1207635648
  9
$USRTIMER
 70
     1
  9
$ANGBASE
 50
0.0
  9
$ANGDIR
 70
     0
  9
$PDMODE
 70
     0
  9
$PDSIZE
 40
0.0
  9
$PLINEWID
 40
0.0
  9
$COORDS
 70
     1
  9
$SPLFRAME
 70
     0
  9
$SPLINETYPE
 70
     6
  9
$SPLINESEGS
 70
     8
  9
$ATTDIA
 70
     1
  9
$ATTREQ
 70
     1
  9
$HANDLING
 70
     1
  9
$HANDSEED
  5
D3814
  9
$SURFTAB1
 70
     6
  9
$SURFTAB2
 70
     6
  9
$SURFTYPE
 70
     6
  9
$SURFU
 70
     6
  9
$SURFV
 70
     6
  9
$UCSNAME
  2

  9
$UCSORG
 10
0.0
 20
0.0
 30
0.0
  9
$UCSXDIR
 10
1.0
 20
0.0
 30
0.0
  9
$UCSYDIR
 10
0.0
 20
1.0
 30
0.0
  9
$PUCSNAME
  2

  9
$PUCSORG
 10
0.0
 20
0.0
 30
0.0
  9
$PUCSXDIR
 10
1.0
 20
0.0
 30
0.0
  9
$PUCSYDIR
 10
0.0
 20
1.0
 30
0.0
  9
$USERI1
 70
     0
  9
$USERI2
 70
     0
  9
$USERI3
 70
     0
  9
$USERI4
 70
     0
  9
$USERI5
 70
     0
  9
$USERR1
 40
0.0
  9
$USERR2
 40
0.0
  9
$USERR3
 40
0.0
  9
$USERR4
 40
0.0
  9
$USERR5
 40
0.0
  9
$WORLDVIEW
 70
     1
  9
$SHADEDGE
 70
     3
  9
$SHADEDIF
 70
    70
  9
$TILEMODE
 70
     1
  9
$MAXACTVP
 70
    64
  9
$PLIMCHECK
 70
     0
  9
$PEXTMIN
 10
0.0
 20
0.0
 30
0.0
  9
$PEXTMAX
 10
7000.0000000000009
 20
4950.0
 30
0.0
  9
$PLIMMIN
 10
0.0
 20
0.0
  9
$PLIMMAX
 10
7000.0000000000009
 20
4950.0
  9
$UNITMODE
 70
     0
  9
$VISRETAIN
 70
     1
  9
$PLINEGEN
 70
     0
  9
$PSLTSCALE
 70
     1
  0
ENDSEC
  0
SECTION
  2
TABLES
  0
TABLE
  2
VPORT
 70
     1
  0
VPORT
  2
*ACTIVE
 70
     0
 10
0.0
 20
0.0
 11
1.0
 21
1.0
 12
10458.33402411932
 22
2956.221733618424
 13
0.0
 23
0.0
 14
1.0
 24
1.0
 15
0.0
 25
0.0
 16
0.0
 26
0.0
 36
1.0
 17
0.0
 27
0.0
 37
0.0
 40
9236.9848312305076
 41
2.225181598062953
 42
50.0
 43
0.0
 44
0.0
 50
0.0
 51
0.0
 71
     0
 72
   100
 73
     1
 74
     1
 75
     0
 76
     0
 77
     0
 78
     0
  0
ENDTAB
  0
TABLE
  2
LTYPE
 70
    18
  0
LTYPE
  2
CONTINUOUS
 70
     0
  3
Solid line
 72
    65
 73
     0
 40
0.0
  0
LTYPE
  2
PHANTOM2
 70
     0
  3
___ _ _ ___ _ _ ___ _ _ ___ _ _
 72
    65
 73
     6
 40
1.25
 49
0.625
 49
-0.125
 49
0.125
 49
-0.125
 49
0.125
 49
-0.125
  0
LTYPE
  2
CENTER
 70
     0
  3
Center ____ _ ____ _ ____ _ ____ _ ____ _ ____
 72
    65
 73
     4
 40
2.0
 49
1.25
 49
-0.25
 49
0.25
 49
-0.25
  0
LTYPE
  2
CENTER2
 70
     0
  3
Center (.5x) ___ _ ___ _ ___ _ ___ _ ___ _ ___
 72
    65
 73
     4
 40
1.125
 49
0.75
 49
-0.125
 49
0.125
 49
-0.125
  0
LTYPE
  2
HIDDEN
 70
     0
  3
Hidden __ __ __ __ __ __ __ __ __ __ __ __ __ _
 72
    65
 73
     2
 40
0.375
 49
0.25
 49
-0.125
  0
LTYPE
  2
HIDDEN2
 70
     0
  3
Hidden (.5x) _ _ _ _ _ _ _ _ _ _ _ _ _ _ _ _ _
 72
    65
 73
     2
 40
0.1875
 49
0.125
 49
-0.0625
  0
LTYPE
  2
PHANTOM
 70
     0
  3
Phantom ______  __  __  ______  __  __  ______
 72
    65
 73
     6
 40
2.5
 49
1.25
 49
-0.25
 49
0.25
 49
-0.25
 49
0.25
 49
-0.25
  0
LTYPE
  2
AMCONSTR
 70
     0
  3
_______________________
 72
    65
 73
     2
 40
9999.0
 49
9999.0
 49
0.0
  0
LTYPE
  2
AMZIGZAG2
 70
     0
  3
/\/-/\/-/\/-/\/-/\/-/\/
 72
    65
 73
     2
 40
0.4401
 49
0.0001
 49
-0.4400000000000003
  0
LTYPE
  2
ACANSTGB
 70
     0
  3
__ . . __ . .
 72
    65
 73
     6
 40
0.35433070866
 49
0.15748031496
 49
-0.03937007874
 49
0.03937007874
 49
-0.03937007874
 49
0.03937007874
 49
-0.03937007874
  0
LTYPE
  2
ACANSTGL
 70
     0
  3
_ _ _ _ _
 72
    65
 73
     2
 40
0.11811023622
 49
0.07874015748
 49
-0.03937007874
  0
LTYPE
  2
AM_ISO02W050
 70
     0
  3
__ __ __ __ __ __ __ __ __ __ __ __ __ __ __
 72
    65
 73
     2
 40
7.5
 49
6.0
 49
-1.5
  0
LTYPE
  2
AM_ISO08W050
 70
     0
  3
____ . ____ . ____ . ____ . ____ . ____ . ____
 72
    65
 73
     4
 40
18.0
 49
12.0
 49
-1.5
 49
3.0
 49
-1.5
  0
LTYPE
  2
AM_ISO09W050
 70
     0
  3
_____ . . _____ . . _____ . . ____ .. ____
 72
    65
 73
     6
 40
22.5
 49
12.0
 49
-1.5
 49
3.0
 49
-1.5
 49
3.0
 49
-1.5
  0
LTYPE
  2
AM_ISO08W050X2
 70
     0
  3
__ . __ . __ . __ . __ . __
 72
    65
 73
     4
 40
9.0
 49
6.0
 49
-0.75
 49
1.5
 49
-0.75
  0
LTYPE
  2
AM_ISO02W050X2
 70
     0
  3
 _ _ _ _ _ _ _ _ _ _ _ _
 72
    65
 73
     2
 40
3.75
 49
3.0
 49
-0.75
  0
LTYPE
  2
AMZIGZAG
 70
     0
  3
/\/-/\/-/\/-/\/-/\/-/\/
 72
    65
 73
     2
 40
11.0001
 49
0.0001
 49
-11.0
  0
ENDTAB
  0
TABLE
  2
LAYER
 70
     7
  0
LAYER
  2
0
 70
     0
 62
     7
  6
CONTINUOUS
  0
LAYER
  2
VISIBLE
 70
     0
 62
     7
  6
CONTINUOUS
  0
LAYER
  2
TEXT
 70
     0
 62
   100
  6
CONTINUOUS
  0
LAYER
  2
DIM
 70
     0
 62
     7
  6
CONTINUOUS
  0
LAYER
  2
CLEAR
 70
     0
 62
     1
  6
PHANTOM
  0
LAYER
  2
OVERLAY-A3
 70
     0
 62
     7
  6
CONTINUOUS
  0
LAYER
  2
DEFPOINTS
 70
     0
 62
     7
  6
CONTINUOUS
  0
ENDTAB
  0
TABLE
  2
STYLE
 70
     8
  0
STYLE
  2
STANDARD
 70
     0
 40
0.0
 41
1.0
 50
0.0
 71
     0
 42
0.2
  3
txt
  4

  0
STYLE
  2
ANNOTATIVE
 70
     0
 40
0.0
 41
1.0
 50
0.0
 71
     0
 42
0.2
  3
txt
  4

  0
STYLE
  2
ACANSGDT
 70
     0
 40
0.0
 41
1.0
 50
0.0
 71
     0
 42
0.2
  3
amgdt.shx
  4

  0
STYLE
  2
TITLE3
 70
     0
 40
60.0
 41
1.0
 50
0.0
 71
     0
 42
60.0
  3
SIMPLEX
  4

  0
STYLE
  2
TITLE5
 70
     0
 40
100.0
 41
1.0
 50
0.0
 71
     0
 42
100.0
  3
SIMPLEX
  4

  0
STYLE
  2
SIMPLEX
 70
     0
 40
60.0
 41
1.0
 50
0.0
 71
     0
 42
60.0
  3
simplex
  4

  0
STYLE
  2

 70
     1
 40
0.0
 41
1.0
 50
0.0
 71
     0
 42
0.2
  3
genltshp.shx
  4

  0
STYLE
  2
ACANSTS
 70
     0
 40
1.0
 41
1.0
 50
0.0
 71
     0
 42
0.2
  3
romans.shx
  4

  0
ENDTAB
  0
TABLE
  2
VIEW
 70
     0
  0
ENDTAB
  0
TABLE
  2
UCS
 70
     0
  0
ENDTAB
  0
TABLE
  2
APPID
 70
    12
  0
APPID
  2
ACAD
 70
     0
  0
APPID
  2
ACADANNOTATIVE
 70
     0
  0
APPID
  2
ACADANNOPO
 70
     0
  0
APPID
  2
ACAD_MLEADERVER
 70
     0
  0
APPID
  2
MCAD_NO_VIS
 70
     0
  0
APPID
  2
ACAD_TEMP_GRAPHIC
 70
     0
  0
APPID
  2
ACATTRIBSERVICES
 70
     0
  0
APPID
  2
DESIGNERASSEMBLIES
 70
     0
  0
APPID
  2
ACAD_DSTYLE_DIMJAG
 70
     0
  0
APPID
  2
ACAD_DSTYLE_DIMBREAK
 70
     0
  0
APPID
  2
ACAD_NAV_VCDISPLAY
 70
     0
  0
APPID
  2
ACAD_EXEMPT_FROM_CAD_STANDARDS
 70
     0
  0
ENDTAB
  0
TABLE
  2
DIMSTYLE
 70
     8
  0
DIMSTYLE
  2
STANDARD
 70
     0
  3

  4

  5

  6

  7

 40
1.0
 41
0.18
 42
0.0625
 43
0.38
 44
0.18
 45
0.0
 46
0.0
 47
0.0
 48
0.0
140
0.18
141
0.09
142
0.0
143
25.399999999999999
144
1.0
145
0.0
146
1.0
147
0.09
 71
     0
 72
     0
 73
     1
 74
     1
 75
     0
 76
     0
 77
     0
 78
     0
170
     0
171
     2
172
     0
173
     0
174
     0
175
     0
176
     0
177
     0
178
     0
  0
DIMSTYLE
  2
ANNOTATIVE
 70
     0
  3

  4

  5

  6

  7

 40
1.0
 41
0.18
 42
0.0625
 43
0.38
 44
0.18
 45
0.0
 46
0.0
 47
0.0
 48
0.0
140
0.18
141
0.09
142
0.0
143
25.399999999999999
144
1.0
145
0.0
146
1.0
147
0.09
 71
     0
 72
     0
 73
     1
 74
     1
 75
     0
 76
     0
 77
     0
 78
     0
170
     0
171
     2
172
     0
173
     0
174
     0
175
     0
176
     0
177
     0
178
     0
  0
DIMSTYLE
  2
AM_ANSI
 70
     0
  3

  4
mm
  5

  6

  7

 40
1.0
 41
0.12
 42
0.05
 43
0.5
 44
0.1
 45
0.0
 46
0.0
 47
0.1
 48
0.1
140
0.12
141
0.0
142
0.0
143
25.399999999999999
144
1.0
145
0.0
146
0.71
147
0.06
 71
     0
 72
     0
 73
     1
 74
     1
 75
     0
 76
     0
 77
     0
 78
     7
170
     0
171
     2
172
     0
173
     0
174
     0
175
     0
176
   256
177
   256
178
     2
  0
DIMSTYLE
  2
AM_ANSI$3
 70
     0
  3

  4
mm
  5

  6

  7

 40
1.0
 41
0.12
 42
0.05
 43
0.5
 44
0.1
 45
0.0
 46
0.0
 47
0.1
 48
0.1
140
0.12
141
0.0
142
0.0
143
25.399999999999999
144
1.0
145
0.0
146
0.71
147
0.06
 71
     0
 72
     0
 73
     1
 74
     1
 75
     0
 76
     0
 77
     0
 78
     7
170
     0
171
     2
172
     0
173
     0
174
     0
175
     0
176
   256
177
   256
178
     2
  0
DIMSTYLE
  2
AM_ANSI$4
 70
     0
  3

  4
mm
  5

  6

  7

 40
1.0
 41
0.12
 42
0.05
 43
0.5
 44
0.1
 45
0.0
 46
0.0
 47
0.1
 48
0.1
140
0.12
141
0.0
142
0.0
143
25.399999999999999
144
1.0
145
0.0
146
0.71
147
0.06
 71
     0
 72
     0
 73
     1
 74
     1
 75
     0
 76
     0
 77
     0
 78
     7
170
     0
171
     2
172
     0
173
     0
174
     0
175
     0
176
   256
177
   256
178
     2
  0
DIMSTYLE
  2
AM_ANSI$7
 70
     0
  3

  4
mm
  5

  6

  7

 40
1.0
 41
0.12
 42
0.05
 43
0.5
 44
0.1
 45
0.0
 46
0.0
 47
0.1
 48
0.1
140
0.12
141
0.0
142
0.0
143
25.399999999999999
144
1.0
145
0.0
146
0.71
147
0.06
 71
     0
 72
     0
 73
     1
 74
     1
 75
     0
 76
     0
 77
     0
 78
     7
170
     0
171
     2
172
     0
173
     0
174
     0
175
     0
176
   256
177
   256
178
     2
  0
DIMSTYLE
  2
AM_ANSI$SF
 70
     0
  3

  4
mm
  5

  6

  7

 40
1.0
 41
0.12
 42
0.05
 43
0.5
 44
0.1
 45
0.0
 46
0.0
 47
0.1
 48
0.1
140
0.12
141
0.0
142
0.0
143
25.399999999999999
144
1.0
145
0.0
146
0.71
147
0.06
 71
     0
 72
     0
 73
     1
 74
     1
 75
     1
 76
     1
 77
     0
 78
     7
170
     0
171
     2
172
     0
173
     0
174
     0
175
     0
176
   256
177
   256
178
     2
  0
DIMSTYLE
  2
AM_ANSI$SH
 70
     0
  3

  4
mm
  5

  6

  7

 40
1.0
 41
0.12
 42
0.05
 43
0.5
 44
0.1
 45
0.0
 46
0.0
 47
0.1
 48
0.1
140
0.12
141
0.0
142
0.0
143
25.399999999999999
144
1.0
145
0.0
146
0.71
147
0.06
 71
     0
 72
     0
 73
     1
 74
     1
 75
     1
 76
     1
 77
     0
 78
     7
170
     0
171
     2
172
     0
173
     1
174
     0
175
     0
176
   256
177
   256
178
     2
  0
ENDTAB
  0
ENDSEC
  0
SECTION
  2
BLOCKS
  0
BLOCK
  8
0
  2
$MODEL_SPACE
 70
     0
 10
0.0
 20
0.0
 30
0.0
  3
$MODEL_SPACE
  1

  0
ENDBLK
  5
D3728
  8
0
  0
BLOCK
 67
     1
  8
0
  2
$PAPER_SPACE
 70
     0
 10
0.0
 20
0.0
 30
0.0
  3
$PAPER_SPACE
  1

  0
ENDBLK
  5
D3724
 67
     1
  8
0
  0
BLOCK
  8
0
  2
NEW_BLOCK
 70
     0
 10
0.0
 20
0.0
 30
0.0
  3
NEW_BLOCK
  1

  0
TEXT
  5
D2CFF
  8
TEXT
 10
27.285946821803002
 20
25.27142175952417
 30
0.0
 40
40.0
  1
available on request
  7
TITLE3
  0
TEXT
  5
D2D00
  8
TEXT
 10
27.285946821803002
 20
93.842850330952714
 30
0.0
 40
40.0
  1
Certified dimensions
  7
TITLE3
  0
TEXT
  5
D2D01
  8
TEXT
 10
27.285946821803002
 20
162.4142789023812
 30
0.0
 40
40.0
  1
without notice or obligation.
  7
TITLE3
  0
TEXT
  5
D2D02
  8
TEXT
 10
27.285946821803002
 20
230.9857074738097
 30
0.0
 40
40.0
  1
specifications at any time
  7
TITLE3
  0
TEXT
  5
D2D03
  8
TEXT
 10
27.285946821803002
 20
299.55713604523839
 30
0.0
 40
40.0
  1
the right to change 
  7
TITLE3
  0
TEXT
  5
D2D04
  8
TEXT
 10
27.285946821803002
 20
436.69999318809488
 30
0.0
 40
40.0
  1
NOTE
  7
TITLE3
  0
TEXT
  5
D2D05
  8
TEXT
 10
27.285946821803002
 20
368.12856461666678
 30
0.0
 40
40.0
  1
The manufacturer reserves
  7
TITLE3
  0
ENDBLK
  5
D2D06
  8
0
  0
ENDSEC
  0
SECTION
  2
ENTITIES
  0
LINE
  5
2D0
  8
VISIBLE
 10
1566.5639150552031
 20
1827.5948084792331
 30
0.0
 11
1565.8639150552019
 21
1827.5948084792331
 31
0.0
  0
LINE
  5
2D4
  8
VISIBLE
 10
1673.8639150552019
 20
643.74480847923235
 30
0.0
 11
1673.8639150552019
 21
828.94480847922796
 31
0.0
  0
LINE
  5
2D5
  8
VISIBLE
 10
1673.8639150552019
 20
934.14480847922835
 30
0.0
 11
1673.8639150552019
 21
1651.399808479277
 31
0.0
  0
LINE
  5
2D6
  8
VISIBLE
 10
1673.8639150552019
 20
1756.599808479277
 30
0.0
 11
1673.8639150552019
 21
1912.894808479231
 31
0.0
  0
LINE
  5
2D7
  8
VISIBLE
 10
1566.5639150552031
 20
643.7448084792328
 30
0.0
 11
1568.713915055203
 21
643.7448084792328
 31
0.0
  0
LINE
  5
2E0
  8
VISIBLE
 10
1671.713915055203
 20
643.7448084792328
 30
0.0
 11
1568.713915055203
 21
643.7448084792328
 31
0.0
  0
LINE
  5
2E1
  8
VISIBLE
 10
1566.5639150552031
 20
643.7448084792328
 30
0.0
 11
1566.5639150552031
 21
644.26996280610103
 31
0.0
  0
LINE
  5
2E2
  8
VISIBLE
 10
1566.5639150552031
 20
643.74480847923235
 30
0.0
 11
1566.5639150552031
 21
957.74480847922916
 31
0.0
  0
LINE
  5
2E3
  8
VISIBLE
 10
1566.5639150552031
 20
1062.9448084792291
 30
0.0
 11
1566.5639150552031
 21
1651.394808479193
 31
0.0
  0
LINE
  5
2E4
  8
VISIBLE
 10
1566.5639150552031
 20
1756.5948084791919
 30
0.0
 11
1566.5639150552031
 21
1912.894808479243
 31
0.0
  0
LINE
  5
2F1
  8
VISIBLE
 10
1673.8639150552019
 20
674.89480847923244
 30
0.0
 11
2421.5639150552179
 21
674.89480847923244
 31
0.0
  0
LINE
  5
2F5
  8
VISIBLE
 10
2423.4639150552048
 20
643.74480847923235
 30
0.0
 11
1672.213915055203
 21
643.74480847923235
 31
0.0
  0
LINE
  5
326
  8
VISIBLE
 10
816.21391505521024
 20
641.19480847923239
 30
0.0
 11
809.21391505521012
 21
634.19480847923251
 31
0.0
  0
LINE
  5
327
  8
VISIBLE
 10
816.21391505521024
 20
641.19480847923239
 30
0.0
 11
866.71391505520296
 21
641.19480847923239
 31
0.0
  0
LINE
  5
328
  8
VISIBLE
 10
809.21391505521012
 20
632.2448084792328
 30
0.0
 11
809.21391505521012
 21
634.19480847923251
 31
0.0
  0
LINE
  5
32D
  8
VISIBLE
 10
2590.213915055203
 20
634.19480847922375
 30
0.0
 11
2583.213915055203
 21
641.19480847922375
 31
0.0
  0
LINE
  5
32E
  8
VISIBLE
 10
2532.7139150552011
 20
641.19480847922375
 30
0.0
 11
2583.213915055203
 21
641.19480847922375
 31
0.0
  0
LINE
  5
32F
  8
VISIBLE
 10
2590.213915055203
 20
634.19480847922375
 30
0.0
 11
2590.213915055203
 21
632.24480847923155
 31
0.0
  0
LINE
  5
330
  8
VISIBLE
 10
2521.7639150552732
 20
633.24480847923303
 30
0.0
 11
2532.7139150552061
 21
633.24480847922166
 31
0.0
  0
LINE
  5
331
  8
VISIBLE
 10
866.71391505520296
 20
633.24480847923303
 30
0.0
 11
877.66391505513275
 21
633.24480847923303
 31
0.0
  0
ARC
  5
332
  8
VISIBLE
 10
2521.7639150552732
 20
623.74480847923314
 30
0.0
 40
9.4999999999998543
 50
90.0
 51
161.59151982943621
  0
ARC
  5
333
  8
VISIBLE
 10
877.66391505513275
 20
623.74480847923314
 30
0.0
 40
9.4999999999998703
 50
18.40848017056377
 51
90.0
  0
ARC
  5
334
  8
VISIBLE
 10
2486.763915055275
 20
623.74480847923303
 30
0.0
 40
9.5000000000000124
 50
18.40848017056377
 51
161.59151982943621
  0
ARC
  5
335
  8
VISIBLE
 10
912.66391505513263
 20
623.74480847923303
 30
0.0
 40
9.5000000000000124
 50
18.40848017056377
 51
161.59151982943621
  0
ARC
  5
336
  8
VISIBLE
 10
1614.213915055203
 20
626.74480847923269
 30
0.0
 40
9.4999999999999964
 50
0.0
 51
180.0
  0
ARC
  5
337
  8
VISIBLE
 10
1534.213915055203
 20
626.74480847923269
 30
0.0
 40
9.4999999999999911
 50
0.0
 51
180.0
  0
CIRCLE
  5
33A
  8
VISIBLE
 10
835.21391505520296
 20
593.7448084792328
 30
0.0
 40
16.0
  0
CIRCLE
  5
33B
  8
VISIBLE
 10
2564.2139150552048
 20
593.7448084792328
 30
0.0
 40
16.0
  0
LINE
  5
33C
  8
VISIBLE
 10
2495.777793243933
 20
626.74480847923269
 30
0.0
 11
2512.7500368666128
 21
626.74480847923269
 31
0.0
  0
LINE
  5
33D
  8
VISIBLE
 10
1623.713915055203
 20
626.74480847923303
 30
0.0
 11
2477.7500368666128
 21
626.74480847923269
 31
0.0
  0
LINE
  5
33E
  8
VISIBLE
 10
886.67779324379262
 20
626.74480847923269
 30
0.0
 11
903.65003686647265
 21
626.74480847923269
 31
0.0
  0
LINE
  5
33F
  8
VISIBLE
 10
1543.713915055203
 20
626.74480847923303
 30
0.0
 11
1604.713915055203
 21
626.74480847923269
 31
0.0
  0
LINE
  5
340
  8
VISIBLE
 10
921.67779324379262
 20
626.74480847923269
 30
0.0
 11
1524.713915055203
 21
626.74480847923269
 31
0.0
  0
LINE
  5
341
  8
VISIBLE
 10
816.21391505520285
 20
560.74480847923314
 30
0.0
 11
2583.2139150552061
 21
560.74480847923314
 31
0.0
  0
LINE
  5
342
  8
VISIBLE
 10
809.21391505520285
 20
548.24480847923314
 30
0.0
 11
809.21391505520285
 21
553.74480847923314
 31
0.0
  0
LINE
  5
343
  8
VISIBLE
 10
809.21391505520285
 20
553.74480847923314
 30
0.0
 11
809.21391505520285
 21
632.2448084792328
 31
0.0
  0
LINE
  5
344
  8
VISIBLE
 10
2590.2139150552048
 20
632.2448084792328
 30
0.0
 11
2590.2139150552048
 21
553.74480847923314
 31
0.0
  0
LINE
  5
345
  8
VISIBLE
 10
2590.2139150552048
 20
548.24480847923314
 30
0.0
 11
2590.2139150552048
 21
553.74480847923314
 31
0.0
  0
LINE
  5
346
  8
VISIBLE
 10
2532.7139150552061
 20
633.24480847922166
 30
0.0
 11
2532.7139150552061
 21
639.24480847923269
 31
0.0
  0
LINE
  5
348
  8
VISIBLE
 10
2532.7139150552061
 20
643.74480847923303
 30
0.0
 11
2532.7139150552061
 21
639.24480847923269
 31
0.0
  0
LINE
  5
349
  8
VISIBLE
 10
866.71391505520296
 20
639.24480847923269
 30
0.0
 11
866.71391505520296
 21
633.24480847923303
 31
0.0
  0
LINE
  5
34B
  8
VISIBLE
 10
866.71391505520296
 20
639.24480847923269
 30
0.0
 11
866.71391505520296
 21
643.74480847923303
 31
0.0
  0
LINE
  5
358
  8
VISIBLE
 10
2590.2139150552048
 20
553.74480847923314
 30
0.0
 11
2583.2139150552061
 21
560.74480847923314
 31
0.0
  0
LINE
  5
359
  8
VISIBLE
 10
816.21391505520285
 20
560.74480847923314
 30
0.0
 11
809.21391505520285
 21
553.74480847923314
 31
0.0
  0
LINE
  5
35C
  8
VISIBLE
 10
1637.713915055203
 20
577.24480847923212
 30
0.0
 11
1637.713915055203
 21
560.74480847923314
 31
0.0
  0
LINE
  5
35D
  8
VISIBLE
 10
1510.713915055203
 20
560.74480847923314
 30
0.0
 11
1510.713915055203
 21
577.24480847923212
 31
0.0
  0
LINE
  5
35E
  8
VISIBLE
 10
1510.713915055203
 20
577.24480847923212
 30
0.0
 11
1637.713915055203
 21
577.24480847923212
 31
0.0
  0
LINE
  5
35F
  8
VISIBLE
 10
809.21391505520285
 20
548.24480847923314
 30
0.0
 11
809.21391505520285
 21
543.74480847923314
 31
0.0
  0
LINE
  5
360
  8
VISIBLE
 10
809.21391505520285
 20
543.74480847923314
 30
0.0
 11
2590.2139150552048
 21
543.74480847923314
 31
0.0
  0
LINE
  5
361
  8
VISIBLE
 10
2590.2139150552048
 20
548.24480847923314
 30
0.0
 11
2590.2139150552048
 21
543.74480847923314
 31
0.0
  0
LINE
  5
380
  8
VISIBLE
 10
928.96391505520296
 20
626.74480847923269
 30
0.0
 11
928.96391505520296
 21
560.7448084792328
 31
0.0
  0
LINE
  5
38B
  8
VISIBLE
 10
2470.4639150552048
 20
560.7448084792328
 30
0.0
 11
2470.4639150552048
 21
626.74480847923269
 31
0.0
  0
LINE
  5
390
  8
VISIBLE
 10
1023.863915055204
 20
813.74480847923212
 30
0.0
 11
1566.5639150552031
 21
813.74480847923212
 31
0.0
  0
LINE
  5
391
  8
VISIBLE
 10
1021.713915055205
 20
643.7448084792328
 30
0.0
 11
1566.5639150552031
 21
643.7448084792328
 31
0.0
  0
LINE
  5
39B
  8
VISIBLE
 10
1608.1639150552021
 20
1952.894808479233
 30
0.0
 11
1608.1639150552021
 21
1912.894808479231
 31
0.0
  0
LINE
  5
39F
  8
VISIBLE
 10
2556.0139150552041
 20
1952.894808479233
 30
0.0
 11
2556.013915055205
 21
1912.8948084792321
 31
0.0
  0
LINE
  5
3A7
  8
VISIBLE
 10
863.56391505520162
 20
1912.8948084792501
 30
0.0
 11
2556.013915055205
 21
1912.8948084792321
 31
0.0
  0
LINE
  5
3A9
  8
VISIBLE
 10
2556.0139150552041
 20
1952.894808479233
 30
0.0
 11
1608.1639150552021
 21
1952.894808479233
 31
0.0
  0
LINE
  5
4BB
  8
VISIBLE
 10
1577.8639150552019
 20
1912.894808479241
 30
0.0
 11
1577.8639150552019
 21
1952.8948084792321
 31
0.0
  0
LINE
  5
4BF
  8
VISIBLE
 10
863.56391505520344
 20
1952.8948084792321
 30
0.0
 11
863.56391505520162
 21
1912.8948084792501
 31
0.0
  0
LINE
  5
4C1
  8
VISIBLE
 10
863.56391505520344
 20
1952.8948084792321
 30
0.0
 11
1577.8639150552019
 21
1952.8948084792321
 31
0.0
  0
ARC
  5
55E
  8
VISIBLE
 10
2408.5639150552151
 20
1339.199808479234
 30
0.0
 40
7.0000000000000311
 50
90.0
 51
180.0
  0
ARC
  5
55F
  8
VISIBLE
 10
2408.5639150552151
 20
1253.199808479234
 30
0.0
 40
6.999999999999992
 50
180.0
 51
270.0
  0
LINE
  5
560
  8
VISIBLE
 10
2408.5639150552151
 20
1346.199808479234
 30
0.0
 11
2421.5639150552179
 21
1346.199808479234
 31
0.0
  0
LINE
  5
561
  8
VISIBLE
 10
2401.5639150552179
 20
1253.199808479234
 30
0.0
 11
2401.5639150552179
 21
1339.199808479234
 31
0.0
  0
LINE
  5
562
  8
VISIBLE
 10
2421.5639150552179
 20
1246.199808479234
 30
0.0
 11
2408.5639150552151
 21
1246.199808479234
 31
0.0
  0
LINE
  5
584
  8
VISIBLE
 10
1564.2689150552069
 20
957.74480847922916
 30
0.0
 11
1564.2689150552069
 21
1062.9448084792291
 31
0.0
  0
LINE
  5
5A8
  8
VISIBLE
 10
1676.1589150552061
 20
1732.499808479276
 30
0.0
 11
1700.6639150552051
 21
1732.499808479276
 31
0.0
  0
LINE
  5
5A9
  8
VISIBLE
 10
1700.6639150552051
 20
1732.499808479276
 30
0.0
 11
1700.6639150552051
 21
1675.499808479276
 31
0.0
  0
LINE
  5
5AA
  8
VISIBLE
 10
1700.6639150552051
 20
1675.499808479276
 30
0.0
 11
1676.1589150552061
 21
1675.499808479276
 31
0.0
  0
LINE
  5
5B1
  8
VISIBLE
 10
1676.1639150552051
 20
1653.9998084792769
 30
0.0
 11
1712.963915055205
 21
1653.9998084792769
 31
0.0
  0
LINE
  5
5B2
  8
VISIBLE
 10
1712.963915055205
 20
1653.9998084792769
 30
0.0
 11
1712.963915055205
 21
1753.999808479276
 31
0.0
  0
LINE
  5
5B3
  8
VISIBLE
 10
1712.963915055205
 20
1753.999808479276
 30
0.0
 11
1676.1639150552051
 21
1753.999808479276
 31
0.0
  0
LINE
  5
5BA
  8
VISIBLE
 10
1664.1689150552049
 20
1756.599808479277
 30
0.0
 11
1676.1589150552061
 21
1756.599808479277
 31
0.0
  0
LINE
  5
5BD
  8
VISIBLE
 10
1676.1589150552061
 20
1651.399808479277
 30
0.0
 11
1664.1689150552049
 21
1651.399808479277
 31
0.0
  0
LINE
  5
5BE
  8
VISIBLE
 10
1676.1589150552061
 20
1756.599808479277
 30
0.0
 11
1676.1589150552061
 21
1651.399808479277
 31
0.0
  0
LINE
  5
5BF
  8
VISIBLE
 10
1664.1689150552049
 20
1756.599808479277
 30
0.0
 11
1664.1689150552049
 21
1651.399808479277
 31
0.0
  0
LINE
  5
5E9
  8
VISIBLE
 10
1564.2639150552061
 20
981.84480847922919
 30
0.0
 11
1539.7639150552061
 21
981.84480847922919
 31
0.0
  0
LINE
  5
5EA
  8
VISIBLE
 10
1539.7639150552061
 20
981.84480847922919
 30
0.0
 11
1539.7639150552061
 21
1038.844808479229
 31
0.0
  0
LINE
  5
5EB
  8
VISIBLE
 10
1539.7639150552061
 20
1038.844808479229
 30
0.0
 11
1564.2639150552061
 21
1038.844808479229
 31
0.0
  0
LINE
  5
5F5
  8
VISIBLE
 10
1564.2639150552061
 20
1060.344808479229
 30
0.0
 11
1527.463915055205
 21
1060.344808479229
 31
0.0
  0
LINE
  5
5F6
  8
VISIBLE
 10
1527.463915055205
 20
1060.344808479229
 30
0.0
 11
1527.463915055205
 21
960.34480847922919
 31
0.0
  0
LINE
  5
5F7
  8
VISIBLE
 10
1527.463915055205
 20
960.34480847922919
 30
0.0
 11
1564.2639150552061
 21
960.34480847922919
 31
0.0
  0
LINE
  5
5FE
  8
VISIBLE
 10
1576.2589150552069
 20
957.74480847922916
 30
0.0
 11
1564.2689150552051
 21
957.74480847922916
 31
0.0
  0
LINE
  5
601
  8
VISIBLE
 10
1564.2689150552069
 20
1062.9448084792291
 30
0.0
 11
1576.2589150552069
 21
1062.9448084792291
 31
0.0
  0
LINE
  5
603
  8
VISIBLE
 10
1576.2589150552069
 20
957.74480847922916
 30
0.0
 11
1576.2589150552069
 21
1062.944808479228
 31
0.0
  0
LINE
  5
6E0
  8
VISIBLE
 10
1112.2639150552079
 20
1287.919808479234
 30
0.0
 11
1112.2639150552079
 21
1426.4198084792331
 31
0.0
  0
LINE
  5
6E6
  8
VISIBLE
 10
1112.2639150552079
 20
1426.4198084792331
 30
0.0
 11
1075.2639150552091
 21
1426.4198084792331
 31
0.0
  0
LINE
  5
6E7
  8
VISIBLE
 10
1075.2639150552091
 20
1287.919808479234
 30
0.0
 11
1112.2639150552079
 21
1287.919808479234
 31
0.0
  0
LINE
  5
6ED
  8
VISIBLE
 10
1075.2639150552091
 20
1426.4198084792331
 30
0.0
 11
1075.2639150552091
 21
1287.919808479234
 31
0.0
  0
LINE
  5
712
  8
VISIBLE
 10
2421.5639150552179
 20
1912.894808479231
 30
0.0
 11
2421.5639150552179
 21
643.74480847923235
 31
0.0
  0
LINE
  5
713
  8
VISIBLE
 10
2533.863915055219
 20
1912.8948084792321
 30
0.0
 11
2533.863915055219
 21
643.7448084792328
 31
0.0
  0
LINE
  5
714
  8
VISIBLE
 10
2531.4639150552111
 20
643.7448084792328
 30
0.0
 11
2533.8639150552099
 21
643.7448084792328
 31
0.0
  0
LINE
  5
71A
  8
VISIBLE
 10
2531.463915055218
 20
643.7448084792328
 30
0.0
 11
2423.963915055218
 21
643.7448084792328
 31
0.0
  0
LINE
  5
71D
  8
VISIBLE
 10
2596.2639150552432
 20
1783.5948084792581
 30
0.0
 11
2596.2639150552432
 21
1784.74480847926
 31
0.0
  0
LINE
  5
71E
  8
VISIBLE
 10
2596.2639150552432
 20
1784.74480847926
 30
0.0
 11
2533.863915055219
 21
1784.74480847926
 31
0.0
  0
LINE
  5
71F
  8
VISIBLE
 10
2596.2639150552432
 20
1783.594808479259
 30
0.0
 11
2596.2639150552432
 21
1783.2448084793391
 31
0.0
  0
LINE
  5
727
  8
VISIBLE
 10
2596.2639150552232
 20
759.4448084792333
 30
0.0
 11
2533.863915055219
 21
759.4448084792333
 31
0.0
  0
LINE
  5
728
  8
VISIBLE
 10
2596.2639150552232
 20
759.4448084792333
 30
0.0
 11
2596.2639150552232
 21
761.84480847923214
 31
0.0
  0
LINE
  5
733
  8
VISIBLE
 10
2596.26391505523
 20
1780.8448084792319
 30
0.0
 11
2596.26391505523
 21
1783.244808479232
 31
0.0
  0
LINE
  5
734
  8
VISIBLE
 10
2596.26391505523
 20
1780.8448084792331
 30
0.0
 11
2596.2639150552232
 21
761.84480847923214
 31
0.0
  0
LINE
  5
73E
  8
VISIBLE
 10
865.56391505520492
 20
643.7448084792328
 30
0.0
 11
865.56391505521788
 21
1912.8948084792501
 31
0.0
  0
LINE
  5
73F
  8
VISIBLE
 10
865.56391505520492
 20
643.7448084792328
 30
0.0
 11
867.71391505520467
 21
643.7448084792328
 31
0.0
  0
LINE
  5
741
  8
VISIBLE
 10
1023.863915055204
 20
643.7448084792328
 30
0.0
 11
1023.863915055219
 21
1912.8948084792489
 31
0.0
  0
LINE
  5
744
  8
VISIBLE
 10
1021.713915055205
 20
643.7448084792328
 30
0.0
 11
867.71391505520467
 21
643.7448084792328
 31
0.0
  0
LINE
  5
AA6
  8
VISIBLE
 10
809.21391505521012
 20
5451.4358539003333
 30
0.0
 11
1608.163915055208
 21
5451.4358539003333
 31
0.0
  0
LINE
  5
AA9
  8
VISIBLE
 10
2556.0139150552118
 20
5451.4358539003333
 30
0.0
 11
2590.213915055213
 21
5451.4358539003333
 31
0.0
  0
LINE
  5
AAA
  8
VISIBLE
 10
2590.213915055213
 20
5451.4358539003333
 30
0.0
 11
2590.213915055213
 21
5422.1358539003213
 31
0.0
  0
LINE
  5
AAB
  8
VISIBLE
 10
809.21391505521012
 20
5379.8858539003622
 30
0.0
 11
809.21391505521012
 21
5451.4358539003333
 31
0.0
  0
CIRCLE
  5
AB7
  8
VISIBLE
 10
841.21391505521024
 20
5416.4358539003288
 30
0.0
 40
8.0000000000000036
  0
LINE
  5
AB9
  8
VISIBLE
 10
809.21391505521012
 20
5383.9358539003306
 30
0.0
 11
809.21391505521012
 21
5385.9358539003288
 31
0.0
  0
LINE
  5
AC1
  8
VISIBLE
 10
809.21391505521012
 20
4052.9858539003549
 30
0.0
 11
863.56391505521071
 21
4052.9858539003549
 31
0.0
  0
LINE
  5
AC2
  8
VISIBLE
 10
809.21391505521012
 20
5379.8858539003622
 30
0.0
 11
863.56391505521071
 21
5379.8858539003586
 31
0.0
  0
LINE
  5
ACC
  8
VISIBLE
 10
2590.213915055213
 20
4052.9858539003581
 30
0.0
 11
2556.0139150552091
 21
4052.9858539003581
 31
0.0
  0
LINE
  5
AE2
  8
VISIBLE
 10
809.21391505521012
 20
3981.4358539003351
 30
0.0
 11
1608.163915055208
 21
3981.4358539003351
 31
0.0
  0
LINE
  5
AE6
  8
VISIBLE
 10
2556.0139150552118
 20
3981.4358539003319
 30
0.0
 11
2590.213915055213
 21
3981.4358539003319
 31
0.0
  0
LINE
  5
AE7
  8
VISIBLE
 10
2590.213915055213
 20
4052.9858539003581
 30
0.0
 11
2590.213915055213
 21
3981.4358539003319
 31
0.0
  0
LINE
  5
AE8
  8
VISIBLE
 10
809.21391505521012
 20
3981.4358539003351
 30
0.0
 11
809.21391505521012
 21
4052.9858539003549
 31
0.0
  0
ARC
  5
AF1
  8
VISIBLE
 10
2558.213915055213
 20
4016.4358539003251
 30
0.0
 40
7.9999999999999609
 50
296.74368395114942
 51
105.9620141628256
  0
CIRCLE
  5
AF2
  8
VISIBLE
 10
841.21391505521024
 20
4016.4358539003279
 30
0.0
 40
8.0000000000000036
  0
LINE
  5
E29
  8
VISIBLE
 10
1608.163915055208
 20
3963.135853900746
 30
0.0
 11
1608.163915055208
 21
5469.7358539007446
 31
0.0
  0
LINE
  5
E38
  8
VISIBLE
 10
1608.163915055208
 20
5469.7358539007446
 30
0.0
 11
2556.0139150552118
 21
5469.7358539007428
 31
0.0
  0
LINE
  5
E3A
  8
VISIBLE
 10
2556.0139150552118
 20
5469.7358539007428
 30
0.0
 11
2556.0139150552118
 21
3963.135853900746
 31
0.0
  0
LINE
  5
E3B
  8
VISIBLE
 10
2556.0139150552118
 20
3963.1358539007451
 30
0.0
 11
1608.163915055208
 21
3963.135853900746
 31
0.0
  0
LINE
  5
1524
  8
VISIBLE
 10
863.56391505521071
 20
3981.4358539003351
 30
0.0
 11
863.56391505521071
 21
5451.4358539003333
 31
0.0
  0
LINE
  5
1576
  8
VISIBLE
 10
2596.2639150552518
 20
4467.7858539007593
 30
0.0
 11
2596.2639150552518
 21
4470.1858539007571
 31
0.0
  0
LINE
  5
1577
  8
VISIBLE
 10
2596.2639150552518
 20
4470.1858539007599
 30
0.0
 11
2556.0139150552118
 21
4470.1858539007608
 31
0.0
  0
LINE
  5
1578
  8
VISIBLE
 10
2596.2639150552518
 20
4467.7858539007593
 30
0.0
 11
2596.2639150552518
 21
4455.1858539007599
 31
0.0
  0
LINE
  5
157A
  8
VISIBLE
 10
2556.0139150552118
 20
4069.185853900548
 30
0.0
 11
2596.2639150552368
 21
4069.185853900548
 31
0.0
  0
LINE
  5
157B
  8
VISIBLE
 10
2596.2639150552368
 20
4069.185853900548
 30
0.0
 11
2596.2639150552368
 21
4071.5858539005462
 31
0.0
  0
LINE
  5
157C
  8
VISIBLE
 10
2596.2639150552591
 20
4455.185853900758
 30
0.0
 11
2596.2639150552368
 21
4071.5858539005462
 31
0.0
  0
LINE
  5
1636
  8
VISIBLE
 10
2596.2639150552081
 20
5419.7358539006873
 30
0.0
 11
2596.2639150552081
 21
5422.1358539006869
 31
0.0
  0
LINE
  5
1637
  8
VISIBLE
 10
2596.2639150552081
 20
5422.1358539006869
 30
0.0
 11
2556.0139150552118
 21
5422.1358539006869
 31
0.0
  0
LINE
  5
1638
  8
VISIBLE
 10
2596.2639150552081
 20
5419.7358539006873
 30
0.0
 11
2596.2639150552081
 21
5407.1358539006878
 31
0.0
  0
LINE
  5
163A
  8
VISIBLE
 10
2556.0139150552118
 20
5057.1358539006878
 30
0.0
 11
2596.2639150551759
 21
5057.1358539006851
 31
0.0
  0
LINE
  5
163B
  8
VISIBLE
 10
2596.2639150551759
 20
5057.1358539006851
 30
0.0
 11
2596.2639150551759
 21
5059.5358539006902
 31
0.0
  0
LINE
  5
163C
  8
VISIBLE
 10
2596.2639150552041
 20
5407.1358539006842
 30
0.0
 11
2596.2639150551759
 21
5059.5358539006902
 31
0.0
  0
LINE
  5
19A1
  8
VISIBLE
 10
5010.1174759024361
 20
643.74480847929044
 30
0.0
 11
4878.9674759024374
 21
643.74480847929044
 31
0.0
  0
LINE
  5
19FE
  8
VISIBLE
 10
5530.9674759023619
 20
626.74480847923303
 30
0.0
 11
5528.4674759023619
 21
626.74480847923303
 31
0.0
  0
LINE
  5
1A00
  8
VISIBLE
 10
5528.4674759023655
 20
626.74480847923303
 30
0.0
 11
5528.4674759023655
 21
641.24480847923303
 31
0.0
  0
LINE
  5
1A01
  8
VISIBLE
 10
5530.9674759023692
 20
643.7448084792328
 30
0.0
 11
5530.9674759023619
 21
626.74480847923303
 31
0.0
  0
LINE
  5
1A05
  8
VISIBLE
 10
5528.4674759023655
 20
641.24480847923303
 30
0.0
 11
5523.9674759023619
 21
641.24480847923155
 31
0.0
  0
LINE
  5
1A0A
  8
VISIBLE
 10
5533.4674759023837
 20
560.7448084792328
 30
0.0
 11
5535.9674759023837
 21
560.7448084792328
 31
0.0
  0
LINE
  5
1A0B
  8
VISIBLE
 10
5533.4674759023837
 20
560.7448084792328
 30
0.0
 11
5533.4674759023837
 21
546.24480847923235
 31
0.0
  0
LINE
  5
1A0C
  8
VISIBLE
 10
5535.9674759023837
 20
560.7448084792328
 30
0.0
 11
5535.9674759023837
 21
543.7448084792328
 31
0.0
  0
LINE
  5
1A0F
  8
VISIBLE
 10
5533.4674759023837
 20
546.24480847923235
 30
0.0
 11
5523.9674759023592
 21
546.24480847923235
 31
0.0
  0
LINE
  5
1A1A
  8
VISIBLE
 10
4073.467475902361
 20
626.74480847923269
 30
0.0
 11
4070.967475902361
 21
626.74480847923269
 31
0.0
  0
LINE
  5
1A1C
  8
VISIBLE
 10
4073.4674759023678
 20
641.24480847923314
 30
0.0
 11
4073.467475902361
 21
626.74480847923269
 31
0.0
  0
LINE
  5
1A1D
  8
VISIBLE
 10
4070.967475902366
 20
626.74480847923269
 30
0.0
 11
4070.967475902366
 21
643.74480847923235
 31
0.0
  0
LINE
  5
1A1F
  8
VISIBLE
 10
4077.9674759023642
 20
641.2448084792328
 30
0.0
 11
4073.4674759023678
 21
641.24480847923314
 31
0.0
  0
LINE
  5
1A24
  8
VISIBLE
 10
4065.9674759023792
 20
560.74480847923314
 30
0.0
 11
4068.4674759023828
 21
560.74480847923314
 31
0.0
  0
LINE
  5
1A27
  8
VISIBLE
 10
4068.4674759023828
 20
546.2448084792328
 30
0.0
 11
4068.4674759023828
 21
560.74480847923314
 31
0.0
  0
LINE
  5
1A2A
  8
VISIBLE
 10
4065.9674759023819
 20
543.74480847923382
 30
0.0
 11
4065.9674759023792
 21
560.74480847923314
 31
0.0
  0
LINE
  5
1A2B
  8
VISIBLE
 10
4077.967475902346
 20
546.24480847923314
 30
0.0
 11
4068.4674759023828
 21
546.2448084792328
 31
0.0
  0
LINE
  5
1A2C
  8
VISIBLE
 10
4137.5174759023866
 20
543.74480847922325
 30
0.0
 11
4065.9674759023819
 21
543.74480847923382
 31
0.0
  0
LINE
  5
1A4C
  8
VISIBLE
 10
5464.4174759023954
 20
628.74480847924076
 30
0.0
 11
4137.5174759023839
 21
628.74480847920086
 31
0.0
  0
LINE
  5
1A4D
  8
VISIBLE
 10
5464.4174759023954
 20
558.74480847922371
 30
0.0
 11
4137.5174759023866
 21
558.74480847926645
 31
0.0
  0
LINE
  5
1A58
  8
VISIBLE
 10
5464.4174759023954
 20
543.74480847922325
 30
0.0
 11
5464.4174759023954
 21
643.7448084792328
 31
0.0
  0
LINE
  5
1A5A
  8
VISIBLE
 10
4137.5174759023866
 20
643.7448084792328
 30
0.0
 11
4137.5174759023866
 21
543.74480847922325
 31
0.0
  0
LINE
  5
1A69
  8
VISIBLE
 10
4137.5174759023866
 20
543.74480847922325
 30
0.0
 11
5535.9674759023837
 21
543.74480847922325
 31
0.0
  0
LINE
  5
1A7D
  8
VISIBLE
 10
4077.9674759023642
 20
638.74480847923246
 30
0.0
 11
4077.9674759023642
 21
641.2448084792328
 31
0.0
  0
LINE
  5
1A80
  8
VISIBLE
 10
4077.9674759023492
 20
638.74480847923246
 30
0.0
 11
4077.9674759023492
 21
637.7448084792328
 31
0.0
  0
LINE
  5
1A81
  8
VISIBLE
 10
4077.967475902346
 20
546.2448084792328
 30
0.0
 11
4077.9674759023492
 21
637.7448084792328
 31
0.0
  0
LINE
  5
1A91
  8
VISIBLE
 10
5523.9674759023619
 20
638.74480847923166
 30
0.0
 11
5523.9674759023619
 21
641.24480847923155
 31
0.0
  0
LINE
  5
1A92
  8
VISIBLE
 10
5523.9674759023592
 20
548.74480847923155
 30
0.0
 11
5523.9674759023592
 21
546.24480847923155
 31
0.0
  0
LINE
  5
1A94
  8
VISIBLE
 10
5523.9674759023437
 20
638.74480847923212
 30
0.0
 11
5523.9674759023437
 21
637.74480847923155
 31
0.0
  0
LINE
  5
1A95
  8
VISIBLE
 10
5523.9674759023401
 20
548.74480847923155
 30
0.0
 11
5523.9674759023401
 21
549.74480847923155
 31
0.0
  0
LINE
  5
1A96
  8
VISIBLE
 10
5523.9674759023437
 20
637.74480847923155
 30
0.0
 11
5523.9674759023401
 21
549.74480847923155
 31
0.0
  0
LINE
  5
1AC0
  8
VISIBLE
 10
4554.7174759024492
 20
1107.194808479228
 30
0.0
 11
4199.2174759023192
 21
1107.1948084792291
 31
0.0
  0
LINE
  5
1AC2
  8
VISIBLE
 10
4554.7174759024492
 20
1660.294808479232
 30
0.0
 11
4199.2174759023173
 21
1660.294808479232
 31
0.0
  0
LINE
  5
1ADE
  8
VISIBLE
 10
4199.2174759023192
 20
1107.1948084792291
 30
0.0
 11
4199.2174759023173
 21
1660.294808479232
 31
0.0
  0
LINE
  5
1DBF
  8
VISIBLE
 10
5554.2674759023721
 20
1952.894808479233
 30
0.0
 11
5554.2674759023803
 21
1912.8948084792321
 31
0.0
  0
LINE
  5
1DC9
  8
VISIBLE
 10
4047.667475902374
 20
1952.894808479233
 30
0.0
 11
4047.667475902374
 21
1912.8948084792321
 31
0.0
  0
LINE
  5
1DCE
  8
VISIBLE
 10
4047.667475902374
 20
1912.8948084792321
 30
0.0
 11
5554.2674759023803
 21
1912.8948084792321
 31
0.0
  0
LINE
  5
1DCF
  8
VISIBLE
 10
5554.2674759023721
 20
1952.894808479233
 30
0.0
 11
4047.667475902374
 21
1952.894808479233
 31
0.0
  0
ARC
  5
20A8
  8
VISIBLE
 10
4893.8674759023861
 20
1248.094808479188
 30
0.0
 40
7.0000000000000311
 50
270.0
 51
0.0
  0
ARC
  5
20A9
  8
VISIBLE
 10
4893.8674759023861
 20
1334.0948084791889
 30
0.0
 40
6.9999999999999929
 50
0.0
 51
90.0
  0
LINE
  5
20AA
  8
VISIBLE
 10
4893.8674759023861
 20
1241.0948084791889
 30
0.0
 11
4883.2674759023848
 21
1241.0948084791889
 31
0.0
  0
LINE
  5
20AB
  8
VISIBLE
 10
4900.8674759023888
 20
1334.0948084791889
 30
0.0
 11
4900.8674759023888
 21
1248.094808479188
 31
0.0
  0
LINE
  5
20AC
  8
VISIBLE
 10
4883.2674759023848
 20
1341.094808479188
 30
0.0
 11
4893.8674759023861
 21
1341.094808479188
 31
0.0
  0
LINE
  5
20AD
  8
VISIBLE
 10
4880.8674759023852
 20
1241.0948084791889
 30
0.0
 11
4883.2674759023848
 21
1241.0948084791889
 31
0.0
  0
LINE
  5
20AE
  8
VISIBLE
 10
4880.8674759023852
 20
1722.2706705481969
 30
0.0
 11
4880.8674759023852
 21
866.51894641026718
 31
0.0
  0
LINE
  5
20AF
  8
VISIBLE
 10
4883.2674759023848
 20
1341.094808479188
 30
0.0
 11
4880.8674759023852
 21
1341.094808479188
 31
0.0
  0
CIRCLE
  5
231C
  8
VISIBLE
 10
4721.9674759023692
 20
742.49951855528514
 30
0.0
 40
20.99999999999995
  0
LINE
  5
2327
  8
VISIBLE
 10
4880.8674759023852
 20
1912.8948084792321
 30
0.0
 11
4880.8674759023852
 21
1722.2706705481969
 31
0.0
  0
LINE
  5
2329
  8
VISIBLE
 10
4880.8674759023852
 20
866.51894641026718
 30
0.0
 11
4880.8674759023852
 21
643.7448084792328
 31
0.0
  0
LINE
  5
232A
  8
VISIBLE
 10
4069.8174759023741
 20
643.7448084792328
 30
0.0
 11
4072.217475902376
 21
643.7448084792328
 31
0.0
  0
LINE
  5
232B
  8
VISIBLE
 10
4069.817475902385
 20
1912.894808479231
 30
0.0
 11
4069.817475902385
 21
643.7448084792328
 31
0.0
  0
LINE
  5
232C
  8
VISIBLE
 10
4878.4674759023874
 20
643.7448084792328
 30
0.0
 11
4072.2174759023828
 21
643.7448084792328
 31
0.0
  0
LINE
  5
2340
  8
VISIBLE
 10
4153.7174759024483
 20
760.94480847923433
 30
0.0
 11
4554.7174759024492
 21
760.94480847925831
 31
0.0
  0
LINE
  5
2342
  8
VISIBLE
 10
4554.7174759024492
 20
760.94480847925831
 30
0.0
 11
4554.7174759024492
 21
1783.2448084793391
 31
0.0
  0
LINE
  5
2354
  8
VISIBLE
 10
4554.7174759024492
 20
1783.2448084793391
 30
0.0
 11
4153.7174759022373
 21
1783.244808479232
 31
0.0
  0
LINE
  5
2356
  8
VISIBLE
 10
4153.7174759022373
 20
1783.244808479232
 30
0.0
 11
4153.7174759024483
 21
760.94480847923433
 31
0.0
  0
LINE
  5
24B9
  8
VISIBLE
 10
5529.717475902261
 20
643.7448084792328
 30
0.0
 11
5010.617475902257
 21
643.7448084792328
 31
0.0
  0
LINE
  5
24C0
  8
VISIBLE
 10
5008.2174759022591
 20
1912.8948084792321
 30
0.0
 11
5008.2174759022591
 21
1756.5948084792319
 31
0.0
  0
LINE
  5
24C1
  8
VISIBLE
 10
5008.2174759022591
 20
1651.394808479233
 30
0.0
 11
5008.2174759022591
 21
935.69480847923228
 31
0.0
  0
LINE
  5
24C2
  8
VISIBLE
 10
5008.2174759022591
 20
830.49480847923223
 30
0.0
 11
5008.2174759022591
 21
643.74480847929044
 31
0.0
  0
LINE
  5
24C3
  8
VISIBLE
 10
5532.1174759022579
 20
1912.8948084792321
 30
0.0
 11
5532.1174759022579
 21
643.7448084792328
 31
0.0
  0
LINE
  5
24C4
  8
VISIBLE
 10
5529.7174759023192
 20
643.7448084792328
 30
0.0
 11
5532.1174759023124
 21
643.7448084792328
 31
0.0
  0
LINE
  5
24D6
  8
VISIBLE
 10
5141.6674759023153
 20
760.94480847930822
 30
0.0
 11
5506.667475902379
 21
760.94480847933119
 31
0.0
  0
LINE
  5
24D8
  8
VISIBLE
 10
5506.667475902379
 20
760.94480847933119
 30
0.0
 11
5506.667475902379
 21
1783.2448084792809
 31
0.0
  0
LINE
  5
24EA
  8
VISIBLE
 10
5506.667475902379
 20
1783.2448084792809
 30
0.0
 11
5141.6674759023772
 21
1783.2448084792809
 31
0.0
  0
LINE
  5
24EC
  8
VISIBLE
 10
5141.6674759023772
 20
1783.2448084792809
 30
0.0
 11
5141.6674759023153
 21
760.94480847930822
 31
0.0
  0
LINE
  5
D25C2
  8
0
 10
1164.2147616495461
 20
2064.1844293392928
 30
0.0
 11
940.87857155886718
 21
2047.845174582915
 31
0.0
  0
LINE
  5
D25C3
  8
0
 10
940.87857155886718
 20
2047.845174582915
 30
0.0
 11
903.18885227440455
 21
1952.8948084792321
 31
0.0
  0
LINE
  5
D25C4
  8
0
 10
1309.45286130355
 20
2064.194425079118
 30
0.0
 11
1532.5492585515381
 21
2047.845174582915
 31
0.0
  0
LINE
  5
D25C5
  8
0
 10
1532.5492585515381
 20
2047.845174582915
 30
0.0
 11
1570.2389778360009
 21
1952.8948084792321
 31
0.0
  0
LINE
  5
D25C6
  8
0
 10
1164.2147616495461
 20
2064.1844293392928
 30
0.0
 11
1309.5147616495451
 21
2064.194429339293
 31
0.0
  0
LINE
  5
D25D2
  8
0
 10
897.21391505520285
 20
529.2448084792328
 30
0.0
 11
897.21391505520285
 21
543.74480847923314
 31
0.0
  0
LINE
  5
D25D3
  8
0
 10
2502.213915055203
 20
529.2448084792328
 30
0.0
 11
2502.213915055203
 21
543.74480847923314
 31
0.0
  0
LINE
  5
D262F
  8
0
 10
4437.043278229281
 20
2064.1844293392928
 30
0.0
 11
4213.7070881386007
 21
2047.845174582915
 31
0.0
  0
LINE
  5
D2630
  8
0
 10
4213.7070881386007
 20
2047.845174582915
 30
0.0
 11
4176.017368854139
 21
1952.894808479233
 31
0.0
  0
LINE
  5
D2631
  8
0
 10
4582.2813778832851
 20
2064.194425079118
 30
0.0
 11
4805.3777751312718
 21
2047.845174582915
 31
0.0
  0
LINE
  5
D2632
  8
0
 10
4805.3777751312718
 20
2047.845174582915
 30
0.0
 11
4843.0674944157381
 21
1952.894808479233
 31
0.0
  0
LINE
  5
D2633
  8
0
 10
4437.043278229281
 20
2064.1844293392928
 30
0.0
 11
4582.3432782292793
 21
2064.194429339293
 31
0.0
  0
LINE
  5
D2634
  8
0
 10
5109.2967148098332
 20
2064.184412807534
 30
0.0
 11
4886.2007311873931
 21
2047.845174582915
 31
0.0
  0
LINE
  5
D2635
  8
0
 10
4886.2007311873931
 20
2047.845174582915
 30
0.0
 11
4848.5110119029314
 21
1952.894808479233
 31
0.0
  0
LINE
  5
D2636
  8
0
 10
5254.836921278069
 20
2064.194429339293
 30
0.0
 11
5477.8714181800651
 21
2047.845174582915
 31
0.0
  0
LINE
  5
D2637
  8
0
 10
5477.8714181800651
 20
2047.845174582915
 30
0.0
 11
5515.5611374645259
 21
1952.894808479233
 31
0.0
  0
LINE
  5
D2638
  8
0
 10
5109.5369212780706
 20
2064.1844293392928
 30
0.0
 11
5254.836921278069
 21
2064.194429339293
 31
0.0
  0
LINE
  5
D2662
  8
0
 10
4100.9674759023692
 20
529.2448084792328
 30
0.0
 11
4100.9674759023819
 21
543.7448084792328
 31
0.0
  0
LINE
  5
D2663
  8
0
 10
5500.9674759023683
 20
529.2448084792328
 30
0.0
 11
5500.9674759023837
 21
543.7448084792328
 31
0.0
  0
LINE
  5
D277A
  8
VISIBLE
 10
1564.2689150552069
 20
1651.394808479193
 30
0.0
 11
1564.2689150552069
 21
1756.5948084791919
 31
0.0
  0
LINE
  5
D277B
  8
VISIBLE
 10
1564.2639150552061
 20
1675.4948084791929
 30
0.0
 11
1539.7639150552061
 21
1675.4948084791929
 31
0.0
  0
LINE
  5
D277C
  8
VISIBLE
 10
1539.7639150552061
 20
1675.4948084791929
 30
0.0
 11
1539.7639150552061
 21
1732.4948084791929
 31
0.0
  0
LINE
  5
D277D
  8
VISIBLE
 10
1539.7639150552061
 20
1732.4948084791929
 30
0.0
 11
1564.2639150552061
 21
1732.4948084791929
 31
0.0
  0
LINE
  5
D277E
  8
VISIBLE
 10
1564.2639150552061
 20
1753.9948084791929
 30
0.0
 11
1527.463915055205
 21
1753.9948084791929
 31
0.0
  0
LINE
  5
D277F
  8
VISIBLE
 10
1527.463915055205
 20
1753.9948084791929
 30
0.0
 11
1527.463915055205
 21
1653.9948084791929
 31
0.0
  0
LINE
  5
D2780
  8
VISIBLE
 10
1527.463915055205
 20
1653.9948084791929
 30
0.0
 11
1564.2639150552061
 21
1653.9948084791929
 31
0.0
  0
LINE
  5
D2781
  8
VISIBLE
 10
1576.2589150552069
 20
1651.394808479193
 30
0.0
 11
1564.2689150552051
 21
1651.394808479193
 31
0.0
  0
LINE
  5
D2782
  8
VISIBLE
 10
1564.2689150552069
 20
1756.5948084791919
 30
0.0
 11
1576.2589150552069
 21
1756.5948084791919
 31
0.0
  0
LINE
  5
D2783
  8
VISIBLE
 10
1576.2589150552069
 20
1651.394808479193
 30
0.0
 11
1576.2589150552069
 21
1756.5948084791919
 31
0.0
  0
LINE
  5
D2785
  8
VISIBLE
 10
1676.1589150552029
 20
910.04480847922741
 30
0.0
 11
1700.663915055203
 21
910.04480847922741
 31
0.0
  0
LINE
  5
D2786
  8
VISIBLE
 10
1700.663915055203
 20
910.04480847922741
 30
0.0
 11
1700.663915055203
 21
853.04480847922719
 31
0.0
  0
LINE
  5
D2787
  8
VISIBLE
 10
1700.663915055203
 20
853.04480847922719
 30
0.0
 11
1676.1589150552029
 21
853.04480847922719
 31
0.0
  0
LINE
  5
D2788
  8
VISIBLE
 10
1676.163915055203
 20
831.54480847922719
 30
0.0
 11
1712.963915055203
 21
831.54480847922719
 31
0.0
  0
LINE
  5
D2789
  8
VISIBLE
 10
1712.963915055203
 20
831.54480847922719
 30
0.0
 11
1712.963915055203
 21
931.54480847922741
 31
0.0
  0
LINE
  5
D278A
  8
VISIBLE
 10
1712.963915055203
 20
931.54480847922741
 30
0.0
 11
1676.163915055203
 21
931.54480847922741
 31
0.0
  0
LINE
  5
D278B
  8
VISIBLE
 10
1664.168915055202
 20
934.14480847922835
 30
0.0
 11
1676.1589150552029
 21
934.14480847922835
 31
0.0
  0
LINE
  5
D278C
  8
VISIBLE
 10
1676.1589150552029
 20
828.94480847922796
 30
0.0
 11
1664.168915055202
 21
828.94480847922796
 31
0.0
  0
LINE
  5
D278D
  8
VISIBLE
 10
1676.1589150552029
 20
934.14480847922835
 30
0.0
 11
1676.1589150552029
 21
828.94480847922796
 31
0.0
  0
LINE
  5
D278E
  8
VISIBLE
 10
1664.168915055202
 20
934.14480847922835
 30
0.0
 11
1664.168915055202
 21
828.94480847922796
 31
0.0
  0
LINE
  5
D2843
  8
VISIBLE
 10
5005.9224759023673
 20
1651.394808479231
 30
0.0
 11
5005.9224759023673
 21
1756.5948084792319
 31
0.0
  0
LINE
  5
D2844
  8
VISIBLE
 10
5005.9174759023654
 20
1675.4948084792311
 30
0.0
 11
4981.4174759023654
 21
1675.4948084792311
 31
0.0
  0
LINE
  5
D2845
  8
VISIBLE
 10
4981.4174759023654
 20
1675.4948084792311
 30
0.0
 11
4981.4174759023654
 21
1732.494808479232
 31
0.0
  0
LINE
  5
D2846
  8
VISIBLE
 10
4981.4174759023654
 20
1732.494808479232
 30
0.0
 11
5005.9174759023654
 21
1732.494808479232
 31
0.0
  0
LINE
  5
D2847
  8
VISIBLE
 10
5005.9174759023654
 20
1753.9948084792311
 30
0.0
 11
4969.117475902367
 21
1753.9948084792311
 31
0.0
  0
LINE
  5
D2848
  8
VISIBLE
 10
4969.117475902367
 20
1753.9948084792311
 30
0.0
 11
4969.117475902367
 21
1653.9948084792311
 31
0.0
  0
LINE
  5
D2849
  8
VISIBLE
 10
4969.117475902367
 20
1653.9948084792311
 30
0.0
 11
5005.9174759023654
 21
1653.9948084792311
 31
0.0
  0
LINE
  5
D284A
  8
VISIBLE
 10
5017.9124759023653
 20
1651.394808479231
 30
0.0
 11
5005.9224759023673
 21
1651.394808479231
 31
0.0
  0
LINE
  5
D284B
  8
VISIBLE
 10
5005.9224759023673
 20
1756.5948084792319
 30
0.0
 11
5017.9124759023653
 21
1756.5948084792319
 31
0.0
  0
LINE
  5
D284C
  8
VISIBLE
 10
5017.9124759023653
 20
1651.394808479231
 30
0.0
 11
5017.9124759023653
 21
1756.594808479231
 31
0.0
  0
LINE
  5
D284D
  8
VISIBLE
 10
5005.9224759023691
 20
830.49480847923223
 30
0.0
 11
5005.9224759023691
 21
935.69480847923228
 31
0.0
  0
LINE
  5
D284E
  8
VISIBLE
 10
5005.9174759023699
 20
854.59480847923123
 30
0.0
 11
4981.4174759023699
 21
854.59480847923123
 31
0.0
  0
LINE
  5
D284F
  8
VISIBLE
 10
4981.4174759023699
 20
854.59480847923123
 30
0.0
 11
4981.4174759023699
 21
911.59480847923203
 31
0.0
  0
LINE
  5
D2850
  8
VISIBLE
 10
4981.4174759023699
 20
911.59480847923203
 30
0.0
 11
5005.9174759023699
 21
911.59480847923203
 31
0.0
  0
LINE
  5
D2851
  8
VISIBLE
 10
5005.9174759023699
 20
933.09480847923123
 30
0.0
 11
4969.1174759023688
 21
933.09480847923123
 31
0.0
  0
LINE
  5
D2852
  8
VISIBLE
 10
4969.1174759023688
 20
933.09480847923123
 30
0.0
 11
4969.1174759023688
 21
833.09480847923123
 31
0.0
  0
LINE
  5
D2853
  8
VISIBLE
 10
4969.1174759023688
 20
833.09480847923123
 30
0.0
 11
5005.9174759023699
 21
833.09480847923123
 31
0.0
  0
LINE
  5
D2854
  8
VISIBLE
 10
5017.9124759023689
 20
830.49480847923223
 30
0.0
 11
5005.9224759023691
 21
830.49480847923223
 31
0.0
  0
LINE
  5
D2855
  8
VISIBLE
 10
5005.9224759023691
 20
935.69480847923228
 30
0.0
 11
5017.9124759023689
 21
935.69480847923228
 31
0.0
  0
LINE
  5
D2856
  8
VISIBLE
 10
5017.9124759023689
 20
830.49480847923223
 30
0.0
 11
5017.9124759023689
 21
935.69480847923069
 31
0.0
  0
CIRCLE
  5
D2909
  8
0
 10
1236.7139150552059
 20
5096.435853900749
 30
0.0
 40
329.5313426177579
  0
CIRCLE
  5
D2963
  8
0
 10
1236.71391505521
 20
4426.435853900748
 30
0.0
 40
329.53134261775608
  0
TEXT
  5
D2E4B
  8
TEXT
 10
4924.1313371217129
 20
6564.460276466205
 30
0.0
 40
85.0
  1
temperzone OPA280-P + UC7
  7
TITLE5
 72
     1
 11
5929.964670455046
 21
6564.460276466205
 31
0.0
  0
TEXT
  5
D2E4C
  8
TEXT
 10
6104.0407913139907
 20
6175.1216645145696
 30
0.0
 40
60.0
  1
OSA280-P+UC7
 41
0.7992125984251971
  7
TITLE3
 72
     5
 11
6684.0407913139907
 21
6175.1216645145696
 31
0.0
  0
LINE
  5
D2E60
  8
DIM
 10
1301.9303942636609
 20
2162.5758967117631
 30
0.0
 11
1263.9384147678941
 21
2162.5758967117631
 31
0.0
  0
LINE
  5
D2E61
  8
DIM
 10
1282.9344045157779
 20
2234.774986581117
 30
0.0
 11
1223.0970368099479
 21
2185.6246478153221
 31
0.0
  0
LINE
  5
D2E62
  8
DIM
 10
1223.0970368099479
 20
2185.6246478153221
 30
0.0
 11
1263.9384147678941
 21
2185.6246478153221
 31
0.0
  0
LINE
  5
D2E63
  8
DIM
 10
1263.9384147678941
 20
2185.6246478153221
 30
0.0
 11
1263.9384147678941
 21
2162.5758967117631
 31
0.0
  0
LINE
  5
D2E64
  8
DIM
 10
1282.9344045157779
 20
2234.774986581117
 30
0.0
 11
1342.7717722216039
 21
2185.6246478153221
 31
0.0
  0
LINE
  5
D2E65
  8
DIM
 10
1342.7717722216039
 20
2185.6246478153221
 30
0.0
 11
1301.9303942636609
 21
2185.6246478153221
 31
0.0
  0
LINE
  5
D2E66
  8
DIM
 10
1301.9303942636609
 20
2185.6246478153221
 30
0.0
 11
1301.9303942636609
 21
2162.5758967117631
 31
0.0
  0
LINE
  5
D2E67
  8
DIM
 10
2778.0142553700739
 20
5267.8741436257842
 30
0.0
 11
2778.0142553700739
 21
5229.8821641300201
 31
0.0
  0
LINE
  5
D2E68
  8
DIM
 10
2705.8151655007168
 20
5248.878153877904
 30
0.0
 11
2754.9655042665131
 21
5189.0407861720687
 31
0.0
  0
LINE
  5
D2E69
  8
DIM
 10
2754.9655042665131
 20
5229.8821641300201
 30
0.0
 11
2778.0142553700739
 21
5229.8821641300201
 31
0.0
  0
LINE
  5
D2E6A
  8
DIM
 10
2754.9655042665131
 20
5189.0407861720687
 30
0.0
 11
2754.9655042665131
 21
5229.8821641300201
 31
0.0
  0
LINE
  5
D2E6B
  8
DIM
 10
2705.8151655007168
 20
5248.878153877904
 30
0.0
 11
2754.9655042665131
 21
5308.7155215837338
 31
0.0
  0
LINE
  5
D2E6C
  8
DIM
 10
2754.9655042665131
 20
5267.8741436257842
 30
0.0
 11
2778.0142553700739
 21
5267.8741436257842
 31
0.0
  0
LINE
  5
D2E6D
  8
DIM
 10
2754.9655042665131
 20
5308.7155215837338
 30
0.0
 11
2754.9655042665131
 21
5267.8741436257842
 31
0.0
  0
TEXT
  5
D2E81
  8
TEXT
 10
5183.6869468905325
 20
6255.1216645145678
 30
0.0
 40
60.0
  1
01-12-13
 41
0.7272727272727292
  7
TITLE3
 72
     5
 11
5503.6869468905343
 21
6255.1216645145678
 31
0.0
  0
TEXT
  5
D2E89
  8
OVERLAY-A3
 10
4941.908766104837
 20
6256.7840922347741
 30
0.0
 40
48.0
  1
Date
  7
SIMPLEX
  0
TEXT
  5
D2E8A
  8
OVERLAY-A3
 10
6736.2631760611948
 20
6294.1282685613942
 30
0.0
 40
48.0
  1
Revision
 41
0.7812095035934773
  7
SIMPLEX
 72
     5
 11
6946.9665393161213
 21
6294.1282685613942
 31
0.0
  0
LINE
  5
D2E8B
  8
OVERLAY-A3
 10
6713.0234912943106
 20
6076.8066502112033
 30
0.0
 11
6713.0234912943106
 21
6371.658975931663
 31
0.0
  0
LINE
  5
D2E8C
  8
OVERLAY-A3
 10
4882.7438502282857
 20
6692.6219238988642
 30
0.0
 11
4882.7438502282857
 21
6076.8066502112033
 31
0.0
  0
LINE
  5
D2E8D
  8
OVERLAY-A3
 10
6077.8681473401793
 20
6076.8066502112033
 30
0.0
 11
6077.8681473401793
 21
6371.658975931663
 31
0.0
  0
LINE
  5
D2E8E
  8
OVERLAY-A3
 10
6077.8681473401757
 20
6221.7468630534959
 30
0.0
 11
4882.7438502282857
 21
6221.7468630534959
 31
0.0
  0
LINE
  5
D2E8F
  8
OVERLAY-A3
 10
6967.1917217896744
 20
6371.658975931663
 30
0.0
 11
4882.7438502282857
 21
6371.658975931663
 31
0.0
  0
LINE
  5
D2E90
  8
OVERLAY-A3
 10
4882.7438502282857
 20
6076.8066502112033
 30
0.0
 11
6966.5967074329737
 21
6076.8066502112033
 31
0.0
  0
LINE
  5
D2E91
  8
OVERLAY-A3
 10
6966.5967074329737
 20
6076.8066502112033
 30
0.0
 11
6966.5967074329737
 21
6692.6219238988642
 31
0.0
  0
LINE
  5
D2E92
  8
OVERLAY-A3
 10
6966.5967074329737
 20
6692.6219238988642
 30
0.0
 11
4882.7438502282857
 21
6692.6219238988642
 31
0.0
  0
TEXT
  5
D2E93
  8
OVERLAY-A3
 10
4933.0072295202099
 20
6130.9666406452861
 30
0.0
 40
40.0
  1
Scale
 41
1.370174796565985
  7
SIMPLEX
 72
     5
 11
5133.966199683221
 21
6130.9666406452861
 31
0.0
  0
TEXT
  5
D2E94
  8
OVERLAY-A3
 10
6193.7590385155827
 20
6292.9085275279886
 30
0.0
 40
40.0
  1
Drawing No.
  7
SIMPLEX
 72
     2
 11
6542.330467087012
 21
6292.9085275279886
 31
0.0
  0
LINE
  5
D2E95
  8
OVERLAY-A3
 10
333.33333333333388
 20
166.66666666666691
 30
0.0
 11
7139.0308985465499
 21
166.66666666666691
 31
0.0
  0
LINE
  5
D2E96
  8
OVERLAY-A3
 10
7139.0308985465499
 20
166.66666666666691
 30
0.0
 11
7139.0308985465499
 21
6901.0051020886822
 31
0.0
  0
LINE
  5
D2E97
  8
OVERLAY-A3
 10
7139.0308985465499
 20
6901.0051020886822
 30
0.0
 11
333.33333333333388
 21
6901.0051020886822
 31
0.0
  0
LINE
  5
D2E98
  8
OVERLAY-A3
 10
333.33333333333388
 20
6901.0051020886822
 30
0.0
 11
333.33333333333388
 21
166.66666666666691
 31
0.0
  0
TEXT
  5
D2EAC
  8
TEXT
 10
5214.6557019601196
 20
6130.6515736497358
 30
0.0
 40
60.0
  1
1:20
  7
TITLE3
  0
LINE
  5
D2ECB
  8
DIM
 10
682.00350638130476
 20
4731.0361532595052
 30
0.0
 11
682.00350638130476
 21
4769.028132755273
 31
0.0
  0
LINE
  5
D2ECC
  8
DIM
 10
754.20259625065569
 20
4750.0321430073891
 30
0.0
 11
705.05225748486191
 21
4690.1947753015538
 31
0.0
  0
LINE
  5
D2ECD
  8
DIM
 10
705.05225748486191
 20
4769.028132755273
 30
0.0
 11
682.00350638130476
 21
4769.028132755273
 31
0.0
  0
LINE
  5
D2ECE
  8
DIM
 10
705.05225748486191
 20
4809.869510713218
 30
0.0
 11
705.05225748486191
 21
4769.028132755273
 31
0.0
  0
LINE
  5
D2ECF
  8
DIM
 10
754.20259625065569
 20
4750.0321430073891
 30
0.0
 11
705.05225748486191
 21
4809.869510713218
 31
0.0
  0
LINE
  5
D2ED0
  8
DIM
 10
705.05225748486191
 20
4731.0361532595052
 30
0.0
 11
682.00350638130476
 21
4731.0361532595052
 31
0.0
  0
LINE
  5
D2ED1
  8
DIM
 10
705.05225748486191
 20
4690.1947753015538
 30
0.0
 11
705.05225748486191
 21
4731.0361532595052
 31
0.0
  0
INSERT
  5
D2ED8
  8
TEXT
  2
NEW_BLOCK
 10
6037.7441373157872
 20
5497.6447265242887
 30
0.0
  0
LINE
  5
D2F20
  8
DIM
 10
5554.2674759023721
 20
2262.731455958909
 30
0.0
 11
5554.2674759023721
 21
2011.6125681131341
 31
0.0
  0
LINE
  5
D2F21
  8
DIM
 10
4047.6590905937178
 20
2275.0976977322189
 30
0.0
 11
4047.6590905937178
 21
2032.852379164143
 31
0.0
  0
LINE
  5
D2F22
  8
DIM
 10
5490.2674759023721
 20
2458.8589098721068
 30
0.0
 11
4969.8988853152978
 21
2458.8589098721068
 31
0.0
  0
LINE
  5
D2F23
  8
DIM
 10
4112.3459866218172
 20
2458.8589098721068
 30
0.0
 11
4714.5803192462317
 21
2458.8589098721068
 31
0.0
  0
SOLID
  5
D2F24
  8
DIM
 10
5490.2674759023721
 20
2465.2589098721069
 30
0.0
 11
5490.2674759023721
 21
2445.258909872106
 31
0.0
 12
5554.2674759023721
 22
2455.2589098721069
 32
0.0
 13
5554.2674759023721
 23
2455.2589098721069
 33
0.0
  0
SOLID
  5
D2F25
  8
DIM
 10
4111.6590905937192
 20
2468.8589098721068
 30
0.0
 11
4111.6590905937192
 21
2448.8589098721068
 31
0.0
 12
4047.6590905937178
 22
2458.8589098721068
 32
0.0
 13
4047.6590905937178
 23
2458.8589098721068
 33
0.0
  0
TEXT
  5
D2F26
  8
DIM
 10
4741.1425757741736
 20
2428.8589098721068
 30
0.0
 40
60.0
  1
1505
  7
TITLE3
  0
LINE
  5
D2FCE
  8
DIM
 10
769.62727044679934
 20
544.09177681591598
 30
0.0
 11
449.45287034342601
 21
544.09177681591598
 31
0.0
  0
LINE
  5
D2FCF
  8
DIM
 10
568.15087701518132
 20
602.09177681591655
 30
0.0
 11
568.15087701518132
 21
1170.6591873998
 31
0.0
  0
LINE
  5
D2FD0
  8
DIM
 10
568.15087701518485
 20
2014.184429339291
 30
0.0
 11
568.15087701518485
 21
1456.186627948038
 31
0.0
  0
SOLID
  5
D2FD1
  8
DIM
 10
558.15087701518121
 20
604.09177681591632
 30
0.0
 11
578.15087701518132
 21
604.09177681591632
 31
0.0
 12
568.15087701518132
 22
544.09177681591598
 32
0.0
 13
568.15087701518132
 23
544.09177681591598
 33
0.0
  0
SOLID
  5
D2FD2
  8
DIM
 10
558.15087701518485
 20
2004.184429339291
 30
0.0
 11
578.15087701518485
 21
2004.184429339291
 31
0.0
 12
568.15087701518485
 22
2064.1844293392919
 32
0.0
 13
568.15087701518485
 23
2064.1844293392919
 33
0.0
  0
TEXT
  5
D2FD3
  8
DIM
 10
598.15087701518132
 20
1220.5593026269901
 30
0.0
 40
60.0
  1
1520
 50
90.0
  7
TITLE3
  0
LINE
  5
D2FD4
  8
DIM
 10
1090.82901045581
 20
2064.1844293392919
 30
0.0
 11
453.59513849545681
 21
2064.1844293392919
 31
0.0
  0
LINE
  5
D2FD5
  8
DIM
 10
2590.2177091542012
 20
501.343100187142
 30
0.0
 11
2590.2177091542012
 21
249.57390481650961
 31
0.0
  0
LINE
  5
D2FD6
  8
DIM
 10
809.08746954978039
 20
503.593100187142
 30
0.0
 11
809.08746954978039
 21
251.82390481650961
 31
0.0
  0
LINE
  5
D2FD7
  8
DIM
 10
2542.0677091541988
 20
289.57390481650953
 30
0.0
 11
1789.673893244591
 21
289.5739048165097
 31
0.0
  0
LINE
  5
D2FD8
  8
DIM
 10
873.08746954978028
 20
291.82390481650958
 30
0.0
 11
1509.722054513863
 21
290.05397815412272
 31
0.0
  0
SOLID
  5
D2FD9
  8
DIM
 10
2526.2177091542012
 20
299.57390481650958
 30
0.0
 11
2526.2177091542012
 21
279.57390481650953
 31
0.0
 12
2590.2177091542012
 22
289.5739048165097
 32
0.0
 13
2590.2177091542012
 23
289.5739048165097
 33
0.0
  0
SOLID
  5
D2FDA
  8
DIM
 10
873.08746954978028
 20
301.82390481650958
 30
0.0
 11
873.08746954978028
 21
281.82390481650953
 31
0.0
 12
809.08746954978039
 22
291.82390481650958
 32
0.0
 13
809.08746954978039
 23
291.82390481650958
 33
0.0
  0
TEXT
  5
D2FDB
  8
DIM
 10
1554.8467083304749
 20
259.57390481650953
 30
0.0
 40
60.0
  1
1781
  7
TITLE3
  0
LINE
  5
D2FDC
  8
DIM
 10
897.21391505520285
 20
503.74480847923297
 30
0.0
 11
897.21391505520285
 21
374.72375682478651
 31
0.0
  0
LINE
  5
D2FDD
  8
DIM
 10
2502.393982219226
 20
503.74480847923297
 30
0.0
 11
2502.393982219226
 21
374.72375682478651
 31
0.0
  0
LINE
  5
D2FDE
  8
DIM
 10
957.21391505520285
 20
414.72375682478639
 30
0.0
 11
1372.963563262248
 21
414.72375682478639
 31
0.0
  0
LINE
  5
D2FDF
  8
DIM
 10
2442.393982219226
 20
414.72375682478639
 30
0.0
 11
1918.3875232146199
 21
414.72375682478651
 31
0.0
  0
SOLID
  5
D2FE0
  8
DIM
 10
957.21391505520285
 20
424.72375682478628
 30
0.0
 11
957.21391505520285
 21
404.72375682478628
 31
0.0
 12
897.21391505520285
 22
414.72375682478651
 32
0.0
 13
897.21391505520285
 23
414.72375682478651
 33
0.0
  0
SOLID
  5
D2FE1
  8
DIM
 10
2442.393982219226
 20
424.72375682478628
 30
0.0
 11
2442.393982219226
 21
404.72375682478628
 31
0.0
 12
2502.393982219226
 22
414.72375682478651
 32
0.0
 13
2502.393982219226
 23
414.72375682478651
 33
0.0
  0
TEXT
  5
D2FE2
  8
DIM
 10
1408.920565527158
 20
384.72375682478651
 30
0.0
 40
60.0
  1
1605 CTRS
  7
TITLE3
  0
LINE
  5
D2FF0
  8
CLEAR
 10
5554.2540400798571
 20
3952.8948084797771
 30
0.0
 11
4047.6590905937178
 21
3952.894808479778
 31
0.0
  0
LINE
  5
D2FF1
  8
CLEAR
 10
4047.6590905937178
 20
3952.715883405222
 30
0.0
 11
4047.6590905937178
 21
2276.193437637161
 31
0.0
  0
LINE
  5
D2FF2
  8
CLEAR
 10
5554.2540400798571
 20
3952.8948084797771
 30
0.0
 11
5554.2674759023721
 21
2262.731455958909
 31
0.0
  0
TEXT
  5
D2FF3
  8
TEXT
 10
4229.4884979119734
 20
3838.4441336399282
 30
0.0
 40
60.0
  1
2000 min CLEARANCE
  7
TITLE3
  0
LINE
  5
D3065
  8
DIM
 10
2708.490893385288
 20
4214.9992494355747
 30
0.0
 11
2708.490893385288
 21
4252.9912289313397
 31
0.0
  0
LINE
  5
D3066
  8
DIM
 10
2780.6899832546451
 20
4233.9952391834559
 30
0.0
 11
2731.5396444888479
 21
4293.8326068892893
 31
0.0
  0
LINE
  5
D3067
  8
DIM
 10
2731.5396444888479
 20
4252.9912289313397
 30
0.0
 11
2708.490893385288
 21
4252.9912289313397
 31
0.0
  0
LINE
  5
D3068
  8
DIM
 10
2731.5396444888479
 20
4293.8326068892893
 30
0.0
 11
2731.5396444888479
 21
4252.9912289313397
 31
0.0
  0
LINE
  5
D3069
  8
DIM
 10
2780.6899832546451
 20
4233.9952391834559
 30
0.0
 11
2731.5396444888479
 21
4174.157871477626
 31
0.0
  0
LINE
  5
D306A
  8
DIM
 10
2731.5396444888479
 20
4214.9992494355747
 30
0.0
 11
2708.490893385288
 21
4214.9992494355747
 31
0.0
  0
LINE
  5
D306B
  8
DIM
 10
2731.5396444888479
 20
4174.157871477626
 30
0.0
 11
2731.5396444888479
 21
4214.9992494355747
 31
0.0
  0
LINE
  5
D306C
  8
DIM
 10
5535.9712700013806
 20
501.34310018713199
 30
0.0
 11
5535.9712700013806
 21
249.57390481649989
 31
0.0
  0
LINE
  5
D306D
  8
DIM
 10
4065.8278728592122
 20
501.34310018713199
 30
0.0
 11
4065.8278728592122
 21
249.57390481649989
 31
0.0
  0
LINE
  5
D306E
  8
DIM
 10
5487.8212700013792
 20
289.57390481649958
 30
0.0
 11
4896.7272439309609
 21
289.57390481649981
 31
0.0
  0
LINE
  5
D306F
  8
DIM
 10
4073.821270001381
 20
289.57390481649981
 30
0.0
 11
4628.1558153595288
 21
289.57390481649981
 31
0.0
  0
SOLID
  5
D3070
  8
DIM
 10
5471.9712700013824
 20
299.57390481649981
 30
0.0
 11
5471.9712700013824
 21
279.57390481649958
 31
0.0
 12
5535.9712700013806
 22
289.57390481649981
 32
0.0
 13
5535.9712700013806
 23
289.57390481649981
 33
0.0
  0
SOLID
  5
D3071
  8
DIM
 10
4129.8278728592122
 20
299.57390481649981
 30
0.0
 11
4129.8278728592122
 21
279.57390481649958
 31
0.0
 12
4065.8278728592122
 22
289.57390481649981
 32
0.0
 13
4065.8278728592122
 23
289.57390481649981
 33
0.0
  0
TEXT
  5
D3072
  8
DIM
 10
4642.1857469140632
 20
259.57390481649958
 30
0.0
 40
60.0
  1
1470
  7
TITLE3
  0
LINE
  5
D3073
  8
DIM
 10
4100.9674759023492
 20
503.74480847913202
 30
0.0
 11
4100.9674759023492
 21
374.72375682468538
 31
0.0
  0
LINE
  5
D3074
  8
DIM
 10
5501.0839926586777
 20
503.7448084792232
 30
0.0
 11
5501.0839926586777
 21
374.72375682477661
 31
0.0
  0
LINE
  5
D3075
  8
DIM
 10
4160.9674759023483
 20
414.7237568246851
 30
0.0
 11
4462.3423952135126
 21
414.7237568247765
 31
0.0
  0
LINE
  5
D3076
  8
DIM
 10
5457.4339926586772
 20
414.7237568247765
 30
0.0
 11
5025.1995380706539
 21
414.7237568247765
 31
0.0
  0
SOLID
  5
D3077
  8
DIM
 10
4160.9674759023483
 20
424.7237568246851
 30
0.0
 11
4160.9674759023483
 21
404.72375682468532
 31
0.0
 12
4100.9674759023492
 22
414.72375682468521
 32
0.0
 13
4100.9674759023492
 23
414.72375682468521
 33
0.0
  0
SOLID
  5
D3078
  8
DIM
 10
5441.0839926586777
 20
424.7237568247761
 30
0.0
 11
5441.0839926586777
 21
404.72375682477661
 31
0.0
 12
5501.0839926586777
 22
414.7237568247765
 32
0.0
 13
5501.0839926586777
 23
414.7237568247765
 33
0.0
  0
TEXT
  5
D3079
  8
DIM
 10
4502.342395213509
 20
384.72375682477661
 30
0.0
 40
60.0
  1
1400 CTRS
  7
TITLE3
  0
LINE
  5
D30A3
  8
CLEAR
 10
2556.0139150552118
 20
2981.0358539003369
 30
0.0
 11
863.56391505521333
 21
2981.0358539003319
 31
0.0
  0
LINE
  5
D30A4
  8
CLEAR
 10
2556.0139150552118
 20
2981.035853900335
 30
0.0
 11
2556.0139150552118
 21
3880.165991002872
 31
0.0
  0
TEXT
  5
D30A5
  8
TEXT
 10
1236.765952376584
 20
3017.0429741818621
 30
0.0
 40
60.0
  1
1000 min CLEARANCE
  7
TITLE3
  0
LINE
  5
D30A6
  8
CLEAR
 10
863.56391505521071
 20
3873.6639024305518
 30
0.0
 11
863.56391505521071
 21
2981.0358539003319
 31
0.0
  0
LINE
  5
D30A7
  8
CLEAR
 10
877.62740546626617
 20
6537.6748543595104
 30
0.0
 11
2555.6274054662699
 21
6537.6748543595122
 31
0.0
  0
LINE
  5
D30A8
  8
CLEAR
 10
877.62740546626617
 20
6537.6748543595104
 30
0.0
 11
877.62740546626617
 21
5535.217732833039
 31
0.0
  0
TEXT
  5
D30A9
  8
TEXT
 10
1259.564142886748
 20
6442.2364311949314
 30
0.0
 40
60.0
  1
1000 min CLEARANCE
  7
TITLE3
  0
LINE
  5
D30AA
  8
CLEAR
 10
2555.6274054662722
 20
5537.2748543595117
 30
0.0
 11
2555.6274054662722
 21
6537.6748543595122
 31
0.0
  0
LINE
  5
D317E
  8
DIM
 10
4044.1741632268449
 20
643.72143550641226
 30
0.0
 11
3929.717482405767
 21
643.72143550641226
 31
0.0
  0
LINE
  5
D317F
  8
DIM
 10
3968.8646846870251
 20
543.7214355064134
 30
0.0
 11
3968.8646846870251
 21
404.4106971809378
 31
0.0
  0
SOLID
  5
D3180
  8
DIM
 10
3958.8646846870288
 20
483.7214355064126
 30
0.0
 11
3978.8646846870251
 21
483.7214355064126
 31
0.0
 12
3968.8646846870251
 22
543.7214355064134
 32
0.0
 13
3968.8646846870251
 23
543.7214355064134
 33
0.0
  0
TEXT
  5
D3181
  8
DIM
 10
3887.7433433156111
 20
522.22442691975243
 30
0.0
 40
60.0
  1
100
 50
90.0
  7
TITLE3
 72
     4
 11
3857.7433433156111
 21
593.65299834832388
 31
0.0
  0
LINE
  5
D3182
  8
DIM
 10
4043.9853077290609
 20
543.7214355064134
 30
0.0
 11
3928.8646846870251
 21
543.7214355064134
 31
0.0
  0
LINE
  5
D3183
  8
DIM
 10
3968.8646846870251
 20
643.72143550641226
 30
0.0
 11
3968.8646846870251
 21
738.4248143737351
 31
0.0
  0
SOLID
  5
D3184
  8
DIM
 10
3958.8646846870288
 20
703.72143550641294
 30
0.0
 11
3978.8646846870251
 21
703.72143550641294
 31
0.0
 12
3968.8646846870251
 22
643.72143550641226
 32
0.0
 13
3968.8646846870251
 23
643.72143550641226
 33
0.0
  0
LINE
  5
D3185
  8
DIM
 10
4028.0217015226458
 20
1783.0416301187361
 30
0.0
 11
3882.6150038685259
 21
1783.0416301187361
 31
0.0
  0
LINE
  5
D3186
  8
DIM
 10
3968.8646846870251
 20
1783.0416301187361
 30
0.0
 11
3968.8646846870251
 21
1347.1673242935431
 31
0.0
  0
SOLID
  5
D3187
  8
DIM
 10
3958.8646846870288
 20
1723.0416301187349
 30
0.0
 11
3978.8646846870251
 21
1723.0416301187349
 31
0.0
 12
3968.8646846870251
 22
1783.0416301187361
 32
0.0
 13
3968.8646846870251
 23
1783.0416301187361
 33
0.0
  0
TEXT
  5
D3188
  8
DIM
 10
3992.188629556425
 20
1112.3698948174699
 30
0.0
 40
60.0
  1
1024
 50
90.0
  7
TITLE3
 72
     4
 11
3962.188629556425
 21
1213.7984662460419
 31
0.0
  0
LINE
  5
D319A
  8
DIM
 10
4044.1741632268549
 20
761.28524967941485
 30
0.0
 11
3929.717482405777
 21
761.28524967941485
 31
0.0
  0
SOLID
  5
D319B
  8
DIM
 10
3958.8646846870411
 20
821.28524967941587
 30
0.0
 11
3978.864684687037
 21
821.28524967941587
 31
0.0
 12
3968.8646846870361
 22
761.28524967941485
 32
0.0
 13
3968.8646846870361
 23
761.28524967941485
 33
0.0
  0
LINE
  5
D319C
  8
0
 10
3968.8646846870361
 20
761.28524967941485
 30
0.0
 11
3968.8646846870361
 21
1079.7264973695269
 31
0.0
  0
LINE
  5
D319E
  8
DIM
 10
5723.2313377617647
 20
643.59616783713852
 30
0.0
 11
5577.8246401076458
 21
643.59616783713852
 31
0.0
  0
LINE
  5
D319F
  8
DIM
 10
5664.0743209261473
 20
643.59616783713852
 30
0.0
 11
5664.0743209261473
 21
207.7218620119456
 31
0.0
  0
SOLID
  5
D31A0
  8
DIM
 10
5654.0743209261491
 20
583.59616783713795
 30
0.0
 11
5674.0743209261473
 21
583.59616783713795
 31
0.0
 12
5664.0743209261473
 22
643.59616783713852
 32
0.0
 13
5664.0743209261473
 23
643.59616783713852
 33
0.0
  0
LINE
  5
D31A1
  8
DIM
 10
5717.2337994659538
 20
761.13337647832668
 30
0.0
 11
5602.7771186448736
 21
761.13337647832668
 31
0.0
  0
TEXT
  5
D31A2
  8
DIM
 10
5820.5644062464271
 20
642.47616202762561
 30
0.0
 40
60.0
  1
117
 50
90.0
  7
TITLE3
 72
     4
 11
5790.5644062464271
 21
708.19044774191116
 31
0.0
  0
LINE
  5
D31A3
  8
DIM
 10
5663.8612620505064
 20
761.13337647832668
 30
0.0
 11
5663.8612620505064
 21
933.05625320428453
 31
0.0
  0
SOLID
  5
D31A4
  8
DIM
 10
5653.8612620505082
 20
821.13337647832714
 30
0.0
 11
5673.8612620505037
 21
821.13337647832714
 31
0.0
 12
5663.8612620505064
 22
761.13337647832668
 32
0.0
 13
5663.8612620505064
 23
761.13337647832668
 33
0.0
  0
LINE
  5
D321E
  8
DIM
 10
4047.6590905937178
 20
2276.193437637161
 30
0.0
 11
4047.6590905937178
 21
1969.885857004447
 31
0.0
  0
LINE
  5
D321F
  8
DIM
 10
3987.6590905937228
 20
2213.803129031161
 30
0.0
 11
3927.659090593716
 21
2213.803129031161
 31
0.0
  0
SOLID
  5
D3220
  8
DIM
 10
3987.6590905937228
 20
2223.803129031161
 30
0.0
 11
3987.6590905937228
 21
2203.803129031161
 31
0.0
 12
4047.6590905937178
 22
2213.803129031161
 32
0.0
 13
4047.6590905937178
 23
2213.803129031161
 33
0.0
  0
LINE
  5
D3221
  8
DIM
 10
4153.6716033870807
 20
2275.4622073992432
 30
0.0
 11
4153.6716033870807
 21
1822.678236851418
 31
0.0
  0
SOLID
  5
D3222
  8
DIM
 10
4213.6716033870816
 20
2224.5219251316812
 30
0.0
 11
4213.6716033870816
 21
2204.5219251316812
 31
0.0
 12
4153.6716033870807
 22
2214.5219251316812
 32
0.0
 13
4153.6716033870807
 23
2214.5219251316812
 33
0.0
  0
TEXT
  5
D3223
  8
DIM
 10
3751.0463291141259
 20
2181.436614971627
 30
0.0
 40
60.0
  1
106
  7
TITLE3
  0
LINE
  5
D3224
  8
DIM
 10
4554.3911773126456
 20
2276.193437637161
 30
0.0
 11
4554.3911773126456
 21
1823.985139639552
 31
0.0
  0
LINE
  5
D3225
  8
DIM
 10
4494.3911773126492
 20
2213.803129031161
 30
0.0
 11
4464.3911773126447
 21
2213.803129031161
 31
0.0
  0
SOLID
  5
D3226
  8
DIM
 10
4494.3911773126492
 20
2223.803129031161
 30
0.0
 11
4494.3911773126492
 21
2203.803129031161
 31
0.0
 12
4554.3911773126456
 22
2213.803129031161
 32
0.0
 13
4554.3911773126456
 23
2213.803129031161
 33
0.0
  0
TEXT
  5
D3227
  8
DIM
 10
4282.6538611202031
 20
2181.436614971627
 30
0.0
 40
60.0
  1
400
  7
TITLE3
  0
LINE
  5
D3228
  8
DIM
 10
4243.6716033870853
 20
2213.803129031161
 30
0.0
 11
4213.6716033870816
 21
2213.803129031161
 31
0.0
  0
LINE
  5
D3229
  8
DIM
 10
5506.6994536694556
 20
2274.61343866364
 30
0.0
 11
5506.6994536694556
 21
1797.3804349854111
 31
0.0
  0
LINE
  5
D322A
  8
DIM
 10
5446.6994536694592
 20
2214.2431391268401
 30
0.0
 11
5416.6994536694547
 21
2214.2431391268401
 31
0.0
  0
SOLID
  5
D322B
  8
DIM
 10
5446.6994536694592
 20
2224.2431391268401
 30
0.0
 11
5446.6994536694592
 21
2204.2431391268401
 31
0.0
 12
5506.6994536694556
 22
2214.2431391268401
 32
0.0
 13
5506.6994536694556
 23
2214.2431391268401
 33
0.0
  0
LINE
  5
D322C
  8
DIM
 10
5554.2674759023721
 20
2275.4622073992432
 30
0.0
 11
5554.2674759023721
 21
1978.0426788410259
 31
0.0
  0
SOLID
  5
D322D
  8
DIM
 10
5614.2674759023721
 20
2224.5219251316812
 30
0.0
 11
5614.2674759023721
 21
2204.5219251316812
 31
0.0
 12
5554.2674759023721
 22
2214.5219251316812
 32
0.0
 13
5554.2674759023721
 23
2214.5219251316812
 33
0.0
  0
LINE
  5
D322E
  8
DIM
 10
5644.2674759023757
 20
2213.803129031161
 30
0.0
 11
5614.2674759023721
 21
2213.803129031161
 31
0.0
  0
TEXT
  5
D322F
  8
DIM
 10
5683.8308603512751
 20
2181.436614971627
 30
0.0
 40
60.0
  1
48
  7
TITLE3
  0
LINE
  5
D3230
  8
DIM
 10
5142.2418898507322
 20
2275.4622073992432
 30
0.0
 11
5142.2418898507322
 21
1978.0426788410259
 31
0.0
  0
SOLID
  5
D3231
  8
DIM
 10
5202.2418898507312
 20
2224.5219251316812
 30
0.0
 11
5202.2418898507312
 21
2204.5219251316812
 31
0.0
 12
5142.2418898507322
 22
2214.5219251316812
 32
0.0
 13
5142.2418898507322
 23
2214.5219251316812
 33
0.0
  0
LINE
  5
D3232
  8
DIM
 10
5232.2418898507349
 20
2213.803129031161
 30
0.0
 11
5202.2418898507312
 21
2213.803129031161
 31
0.0
  0
TEXT
  5
D3233
  8
DIM
 10
5244.0624795916046
 20
2181.436614971627
 30
0.0
 40
60.0
  1
365
  7
TITLE3
  0
LINE
  5
D3234
  8
DIM
 10
2556.013915055205
 20
2109.0587320383929
 30
0.0
 11
2556.013915055205
 21
1992.760164837397
 31
0.0
  0
LINE
  5
D3235
  8
DIM
 10
2596.26391505523
 20
2105.8122073992422
 30
0.0
 11
2596.26391505523
 21
1808.3926788410249
 31
0.0
  0
SOLID
  5
D3236
  8
DIM
 10
2656.26391505523
 20
2089.8273629563769
 30
0.0
 11
2656.26391505523
 21
2069.8273629563769
 31
0.0
 12
2596.26391505523
 22
2079.8273629563769
 32
0.0
 13
2596.26391505523
 23
2079.8273629563769
 33
0.0
  0
LINE
  5
D3237
  8
DIM
 10
2709.462278294609
 20
2079.1085668558571
 30
0.0
 11
2656.26391505523
 21
2079.1085668558571
 31
0.0
  0
TEXT
  5
D3238
  8
DIM
 10
2516.678369786634
 20
2156.579191501723
 30
0.0
 40
60.0
  1
40
  7
TITLE3
  0
LINE
  5
D3243
  8
DIM
 10
2496.0139150552081
 20
2079.7431233901161
 30
0.0
 11
2436.0139150552018
 21
2079.7431233901161
 31
0.0
  0
SOLID
  5
D3244
  8
DIM
 10
2496.0139150552081
 20
2089.7431233901152
 30
0.0
 11
2496.0139150552081
 21
2069.7431233901152
 31
0.0
 12
2556.013915055205
 22
2079.7431233901161
 32
0.0
 13
2556.013915055205
 23
2079.7431233901161
 33
0.0
  0
SOLID
  5
D3380
  8
DIM
 10
2656.26391505523
 20
1032.7909912805419
 30
0.0
 11
2656.26391505523
 21
1012.790991280542
 31
0.0
 12
2596.26391505523
 22
1022.790991280542
 32
0.0
 13
2596.26391505523
 23
1022.790991280542
 33
0.0
  0
LINE
  5
D3381
  8
DIM
 10
2730.7275604441502
 20
1022.072195180022
 30
0.0
 11
2656.26391505523
 21
1022.072195180022
 31
0.0
  0
TEXT
  5
D3382
  8
DIM
 10
2754.1222214169252
 20
994.02005052280299
 30
0.0
 40
60.0
  1
60
  7
TITLE3
  0
LINE
  5
D3383
  8
DIM
 10
2473.8639150552231
 20
1022.70675171428
 30
0.0
 11
2388.5557748698079
 21
1022.70675171428
 31
0.0
  0
SOLID
  5
D3384
  8
DIM
 10
2473.8639150552231
 20
1032.70675171428
 30
0.0
 11
2473.8639150552231
 21
1012.70675171428
 31
0.0
 12
2533.863915055219
 22
1022.70675171428
 32
0.0
 13
2533.863915055219
 23
1022.70675171428
 33
0.0
  0
LINE
  5
D33F1
  8
CLEAR
 10
3619.5711997193762
 20
4923.7358539007437
 30
0.0
 11
3619.5711997193762
 21
4793.7358539007446
 31
0.0
  0
TEXT
  5
D33F3
  8
TEXT
 10
2652.7934183297589
 20
4974.9222619198699
 30
0.0
 40
60.0
  1
1000 min CLEARANCE
  7
TITLE3
  0
LINE
  5
D33F4
  8
CLEAR
 10
2619.1711997193738
 20
4793.7358539007437
 30
0.0
 11
3619.5711997193762
 21
4793.7358539007437
 31
0.0
  0
LINE
  5
D33F5
  8
CLEAR
 10
2619.1711997193738
 20
4923.7358539007437
 30
0.0
 11
3619.5711997193762
 21
4923.7358539007437
 31
0.0
  0
TEXT
  5
D37B1
  8
TEXT
 10
1722.126572947061
 20
4811.4074283730843
 30
0.0
 40
85.0
  1
OPA280-P
  7
TITLE5
 72
     1
 11
2056.0551443756322
 21
4811.4074283730843
 31
0.0
  0
TEXT
  5
D37B3
  8
TEXT
 10
1888.078953899442
 20
4677.8929127554402
 30
0.0
 40
85.0
  1
+UC7
  7
TITLE5
 72
     1
 11
2056.0551443756322
 21
4677.8929127554402
 31
0.0
  0
TEXT
  5
D37B4
  8
TEXT
 10
1714.634239711442
 20
1341.435257054869
 30
0.0
 40
85.0
  1
OPA280-P
  7
TITLE5
 72
     1
 11
2048.5628111400129
 21
1341.435257054869
 31
0.0
  0
TEXT
  5
D37B5
  8
TEXT
 10
1880.586620663822
 20
1207.9207414372249
 30
0.0
 40
85.0
  1
+UC7
  7
TITLE5
 72
     1
 11
2048.5628111400129
 21
1207.9207414372249
 31
0.0
  0
TEXT
  5
D37B6
  8
TEXT
 10
4244.9056232123812
 20
1122.8887366658089
 30
0.0
 40
85.0
  1
OPA
  7
TITLE5
 72
     1
 11
4364.3103851171418
 21
1122.8887366658089
 31
0.0
  0
TEXT
  5
D37BA
  8
TEXT
 10
4156.9534743693403
 20
997.07849309205244
 30
0.0
 40
85.0
  1
280-P
  7
TITLE5
 72
     1
 11
4359.3344267502926
 21
997.07849309205244
 31
0.0
  0
TEXT
  5
D37BB
  8
TEXT
 10
4191.3582362741017
 20
863.56397747440826
 30
0.0
 40
85.0
  1
+UC7
  7
TITLE5
 72
     1
 11
4359.3344267502926
 21
863.56397747440826
 31
0.0
  0
ENDSEC
  0
EOF
