  0
SECTION
  2
HEADER
  9
$ACADVER
  1
AC1009
  9
$INSBASE
 10
0.0
 20
0.0
 30
0.0
  9
$EXTMIN
 10
224.85687356048669
 20
-0.0678188501224213
 30
-0.0000000000112498
  9
$EXTMAX
 10
3890.0593766152761
 20
4665.1125570764179
 30
0.0000000000002956
  9
$LIMMIN
 10
0.0
 20
0.0
  9
$LIMMAX
 10
3890.0
 20
2660.0
  9
$ORTHOMODE
 70
     1
  9
$REGENMODE
 70
     1
  9
$FILLMODE
 70
     1
  9
$QTEXTMODE
 70
     0
  9
$MIRRTEXT
 70
     0
  9
$DRAGMODE
 70
     2
  9
$LTSCALE
 40
300.0
  9
$OSMODE
 70
     0
  9
$ATTMODE
 70
     1
  9
$TEXTSIZE
 40
30.0
  9
$TRACEWID
 40
0.05
  9
$TEXTSTYLE
  7
TITLE3
  9
$CLAYER
  8
0
  9
$CELTYPE
  6
BYLAYER
  9
$CECOLOR
 62
   256
  9
$DIMSCALE
 40
1.0
  9
$DIMASZ
 40
30.0
  9
$DIMEXO
 40
20.0
  9
$DIMDLI
 40
0.38
  9
$DIMRND
 40
0.0
  9
$DIMDLE
 40
0.0
  9
$DIMEXE
 40
20.0
  9
$DIMTP
 40
0.0
  9
$DIMTM
 40
0.0
  9
$DIMTXT
 40
30.0
  9
$DIMCEN
 40
0.09
  9
$DIMTSZ
 40
0.0
  9
$DIMTOL
 70
     0
  9
$DIMLIM
 70
     0
  9
$DIMTIH
 70
     0
  9
$DIMTOH
 70
     0
  9
$DIMSE1
 70
     0
  9
$DIMSE2
 70
     0
  9
$DIMTAD
 70
     0
  9
$DIMZIN
 70
     0
  9
$DIMBLK
  1

  9
$DIMASO
 70
     0
  9
$DIMSHO
 70
     0
  9
$DIMPOST
  1

  9
$DIMAPOST
  1

  9
$DIMALT
 70
     0
  9
$DIMALTD
 70
     2
  9
$DIMALTF
 40
25.399999999999999
  9
$DIMLFAC
 40
1.0
  9
$DIMTOFL
 70
     0
  9
$DIMTVP
 40
0.0
  9
$DIMTIX
 70
     0
  9
$DIMSOXD
 70
     0
  9
$DIMSAH
 70
     0
  9
$DIMBLK1
  1

  9
$DIMBLK2
  1

  9
$DIMSTYLE
  2
STANDARD
  9
$DIMCLRD
 70
    52
  9
$DIMCLRE
 70
    52
  9
$DIMCLRT
 70
    50
  9
$DIMTFAC
 40
1.0
  9
$DIMGAP
 40
20.0
  9
$LUNITS
 70
     2
  9
$LUPREC
 70
     2
  9
$SKETCHINC
 40
0.1
  9
$FILLETRAD
 40
0.0
  9
$AUNITS
 70
     0
  9
$AUPREC
 70
     2
  9
$MENU
  1
\acad12\support\cnc
  9
$ELEVATION
 40
0.0
  9
$PELEVATION
 40
0.0
  9
$THICKNESS
 40
0.0
  9
$LIMCHECK
 70
     0
  9
$BLIPMODE
 70
     0
  9
$CHAMFERA
 40
20.0
  9
$CHAMFERB
 40
20.0
  9
$SKPOLY
 70
     0
  9
$TDCREATE
 40
2450610.4026309028
  9
$TDUPDATE
 40
2454523.6306053591
  9
$TDINDWG
 40
0.3975758333
  9
$TDUSRTIMER
 40
0.3975747917
  9
$USRTIMER
 70
     1
  9
$ANGBASE
 50
0.0
  9
$ANGDIR
 70
     0
  9
$PDMODE
 70
     2
  9
$PDSIZE
 40
10.0
  9
$PLINEWID
 40
2.0
  9
$COORDS
 70
     1
  9
$SPLFRAME
 70
     0
  9
$SPLINETYPE
 70
     6
  9
$SPLINESEGS
 70
     8
  9
$ATTDIA
 70
     1
  9
$ATTREQ
 70
     1
  9
$HANDLING
 70
     1
  9
$HANDSEED
  5
8AF6
  9
$SURFTAB1
 70
     6
  9
$SURFTAB2
 70
     6
  9
$SURFTYPE
 70
     6
  9
$SURFU
 70
     6
  9
$SURFV
 70
     6
  9
$UCSNAME
  2

  9
$UCSORG
 10
0.0
 20
0.0
 30
0.0
  9
$UCSXDIR
 10
1.0
 20
0.0
 30
0.0
  9
$UCSYDIR
 10
0.0
 20
1.0
 30
0.0
  9
$PUCSNAME
  2

  9
$PUCSORG
 10
0.0
 20
0.0
 30
0.0
  9
$PUCSXDIR
 10
1.0
 20
0.0
 30
0.0
  9
$PUCSYDIR
 10
0.0
 20
1.0
 30
0.0
  9
$USERI1
 70
     0
  9
$USERI2
 70
     0
  9
$USERI3
 70
     0
  9
$USERI4
 70
     0
  9
$USERI5
 70
     0
  9
$USERR1
 40
0.0
  9
$USERR2
 40
0.0
  9
$USERR3
 40
0.0
  9
$USERR4
 40
0.0
  9
$USERR5
 40
0.0
  9
$WORLDVIEW
 70
     1
  9
$SHADEDGE
 70
     3
  9
$SHADEDIF
 70
    70
  9
$TILEMODE
 70
     1
  9
$MAXACTVP
 70
    16
  9
$PLIMCHECK
 70
     0
  9
$PEXTMIN
 10
1.0000000000000000E+020
 20
1.0000000000000000E+020
 30
1.0000000000000000E+020
  9
$PEXTMAX
 10
-1.0000000000000000E+020
 20
-1.0000000000000000E+020
 30
-1.0000000000000000E+020
  9
$PLIMMIN
 10
0.0
 20
0.0
  9
$PLIMMAX
 10
12.0
 20
9.0
  9
$UNITMODE
 70
     0
  9
$VISRETAIN
 70
     0
  9
$PLINEGEN
 70
     0
  9
$PSLTSCALE
 70
     0
  0
ENDSEC
  0
SECTION
  2
TABLES
  0
TABLE
  2
VPORT
 70
     1
  0
VPORT
  2
*ACTIVE
 70
     0
 10
0.0
 20
0.0
 11
1.0
 21
1.0
 12
-0.0228106138479234
 22
0.0000190088599084
 13
0.0
 23
0.0
 14
25.0
 24
25.0
 15
100.0
 25
100.0
 16
0.0
 26
0.0
 36
1.0
 17
2057.4809357017289
 27
2332.5223501042879
 37
0.0
 40
4693.9186533963129
 41
1.887975334018499
 42
50.0
 43
0.0
 44
0.0
 50
0.0
 51
0.0
 71
     0
 72
   100
 73
     1
 74
     0
 75
     0
 76
     0
 77
     0
 78
     0
  0
ENDTAB
  0
TABLE
  2
LTYPE
 70
    18
  0
LTYPE
  2
CONTINUOUS
 70
     0
  3
Solid line
 72
    65
 73
     0
 40
0.0
  0
LTYPE
  2
HIDDEN
 70
     0
  3
_ _ _ _ _ _ _ _ _ _ _ _ _ _ _ _ _ _ _ _ _ _ _
 72
    65
 73
     2
 40
0.375
 49
0.25
 49
-0.125
  0
LTYPE
  2
PHANTOM2
 70
     0
  3
Phantom (.5x) ___ _ _ ___ _ _ ___ _ _ ___ _ _
 72
    65
 73
     6
 40
1.25
 49
0.625
 49
-0.125
 49
0.125
 49
-0.125
 49
0.125
 49
-0.125
  0
LTYPE
  2
CENTER
 70
     0
  3
Center ____ _ ____ _ ____ _ ____ _ ____ _ ____
 72
    65
 73
     4
 40
2.0
 49
1.25
 49
-0.25
 49
0.25
 49
-0.25
  0
LTYPE
  2
AMCONSTR
 70
     0
  3
_______________________
 72
    65
 73
     2
 40
9999.0
 49
9999.0
 49
0.0
  0
LTYPE
  2
CENTER2
 70
     0
  3
Center (.5x) ___ _ ___ _ ___ _ ___ _ ___ _ ___
 72
    65
 73
     4
 40
1.125
 49
0.75
 49
-0.125
 49
0.125
 49
-0.125
  0
LTYPE
  2
HIDDEN2
 70
     0
  3
Hidden (.5x) _ _ _ _ _ _ _ _ _ _ _ _ _ _ _ _ _
 72
    65
 73
     2
 40
0.1875
 49
0.125
 49
-0.0625
  0
LTYPE
  2
AMZIGZAG2
 70
     0
  3
/\/-/\/-/\/-/\/-/\/-/\/
 72
    65
 73
     2
 40
0.4401
 49
0.0001
 49
-0.4400000000000003
  0
LTYPE
  2
ACANSTGB
 70
     0
  3
__ . . __ . .
 72
    65
 73
     6
 40
0.35433070866
 49
0.15748031496
 49
-0.03937007874
 49
0.03937007874
 49
-0.03937007874
 49
0.03937007874
 49
-0.03937007874
  0
LTYPE
  2
ACANSTGL
 70
     0
  3
_ _ _ _ _
 72
    65
 73
     2
 40
0.11811023622
 49
0.07874015748
 49
-0.03937007874
  0
LTYPE
  2
ASULTYPE
 70
     0
  3
Solid line
 72
    65
 73
     2
 40
3.0
 49
2.5
 49
0.5
  0
LTYPE
  2
ASVLTYPE
 70
     0
  3
__ __ __ __ __ __ __ __ __ __ __ __ __ __ __ __ __ __ __ __ __
 72
    65
 73
     2
 40
0.75
 49
0.5
 49
-0.25
  0
LTYPE
  2
AM_ISO02W050
 70
     0
  3
__ __ __ __ __ __ __ __ __ __ __ __ __ __ __
 72
    65
 73
     2
 40
7.5
 49
6.0
 49
-1.5
  0
LTYPE
  2
AM_ISO08W050
 70
     0
  3
____ . ____ . ____ . ____ . ____ . ____ . ____
 72
    65
 73
     4
 40
18.0
 49
12.0
 49
-1.5
 49
3.0
 49
-1.5
  0
LTYPE
  2
AM_ISO09W050
 70
     0
  3
_____ . . _____ . . _____ . . ____ .. ____
 72
    65
 73
     6
 40
22.5
 49
12.0
 49
-1.5
 49
3.0
 49
-1.5
 49
3.0
 49
-1.5
  0
LTYPE
  2
AM_ISO08W050X2
 70
     0
  3
__ . __ . __ . __ . __ . __
 72
    65
 73
     4
 40
9.0
 49
6.0
 49
-0.75
 49
1.5
 49
-0.75
  0
LTYPE
  2
AM_ISO02W050X2
 70
     0
  3
 _ _ _ _ _ _ _ _ _ _ _ _
 72
    65
 73
     2
 40
3.75
 49
3.0
 49
-0.75
  0
LTYPE
  2
AMZIGZAG
 70
     0
  3
/\/-/\/-/\/-/\/-/\/-/\/
 72
    65
 73
     2
 40
11.0001
 49
0.0001
 49
-11.0
  0
ENDTAB
  0
TABLE
  2
LAYER
 70
     1
  0
LAYER
  2
0
 70
     0
 62
     7
  6
CONTINUOUS
  0
ENDTAB
  0
TABLE
  2
STYLE
 70
     9
  0
STYLE
  2
STANDARD
 70
     0
 40
0.0
 41
1.0
 50
0.0
 71
     0
 42
0.2
  3
txt
  4

  0
STYLE
  2
ANNOTATIVE
 70
     0
 40
0.0
 41
1.0
 50
0.0
 71
     0
 42
0.2
  3
txt
  4

  0
STYLE
  2
TITLE3
 70
     0
 40
30.0
 41
1.0
 50
0.0
 71
     0
 42
30.0
  3
SIMPLEX
  4

  0
STYLE
  2
TITLE5
 70
     0
 40
50.0
 41
1.0
 50
0.0
 71
     0
 42
50.0
  3
SIMPLEX
  4

  0
STYLE
  2
SIMPLEX
 70
     0
 40
30.0
 41
1.0
 50
0.0
 71
     0
 42
25.0
  3
SIMPLEX.shx
  4

  0
STYLE
  2
TITLE
 70
     0
 40
60.0
 41
1.0
 50
0.0
 71
     0
 42
60.0
  3
simplex.shx
  4

  0
STYLE
  2
ACANSTS
 70
     0
 40
1.0
 41
1.0
 50
0.0
 71
     0
 42
30.0
  3
romans.shx
  4

  0
STYLE
  2
ACANSGDT
 70
     0
 40
0.0
 41
1.0
 50
0.0
 71
     0
 42
30.0
  3
amgdt.shx
  4

  0
STYLE
  2

 70
     1
 40
0.0
 41
1.0
 50
0.0
 71
     0
 42
30.0
  3
genltshp.shx
  4

  0
ENDTAB
  0
TABLE
  2
VIEW
 70
     0
  0
ENDTAB
  0
TABLE
  2
UCS
 70
     0
  0
ENDTAB
  0
TABLE
  2
APPID
 70
    19
  0
APPID
  2
ACAD
 70
     0
  0
APPID
  2
ACADANNOTATIVE
 70
     0
  0
APPID
  2
ACAD_MLEADERVER
 70
     0
  0
APPID
  2
GENIUS_GENDIM_13
 70
     0
  0
APPID
  2
GENIUS_GENDTOL_13
 70
     0
  0
APPID
  2
GENIUS_GE3DTOL_13
 70
     0
  0
APPID
  2
MCAD_NO_VIS
 70
     0
  0
APPID
  2
ACAD_TEMP_GRAPHIC
 70
     0
  0
APPID
  2
AD_DRAW
 70
     0
  0
APPID
  2
ACATTRIBSERVICES
 70
     0
  0
APPID
  2
ASURF_PCURVE_APPNAME
 70
     0
  0
APPID
  2
AMG_3D2D_5_0
 70
     0
  0
APPID
  2
DESIGNERASSEMBLIES
 70
     0
  0
APPID
  2
ACADM_DIM_EDIT
 70
     0
  0
APPID
  2
AMDT_DM_ADJ
 70
     0
  0
APPID
  2
ACAD_PSEXT
 70
     0
  0
APPID
  2
AMG_3D2D_5_00
 70
     0
  0
APPID
  2
ACAD_EXEMPT_FROM_CAD_STANDARDS
 70
     0
  0
APPID
  2
AMG_3D2D_5_01
 70
     0
  0
ENDTAB
  0
TABLE
  2
DIMSTYLE
 70
     8
  0
DIMSTYLE
  2
STANDARD
 70
     0
  3

  4

  5

  6

  7

 40
1.0
 41
0.18
 42
0.0625
 43
0.38
 44
0.18
 45
0.0
 46
0.0
 47
0.0
 48
0.0
140
0.18
141
0.09
142
0.0
143
25.399999999999999
144
1.0
145
0.0
146
1.0
147
0.09
 71
     0
 72
     0
 73
     1
 74
     1
 75
     0
 76
     0
 77
     0
 78
     0
170
     0
171
     2
172
     0
173
     0
174
     0
175
     0
176
     0
177
     0
178
     0
  0
DIMSTYLE
  2
ANNOTATIVE
 70
     0
  3

  4

  5

  6

  7

 40
1.0
 41
0.18
 42
0.0625
 43
0.38
 44
0.18
 45
0.0
 46
0.0
 47
0.0
 48
0.0
140
0.18
141
0.09
142
0.0
143
25.399999999999999
144
1.0
145
0.0
146
1.0
147
0.09
 71
     0
 72
     0
 73
     1
 74
     1
 75
     0
 76
     0
 77
     0
 78
     0
170
     0
171
     2
172
     0
173
     0
174
     0
175
     0
176
     0
177
     0
178
     0
  0
DIMSTYLE
  2
AM_ANSI
 70
     0
  3

  4
mm
  5

  6

  7

 40
1.0
 41
0.1
 42
0.05
 43
0.5
 44
0.1
 45
0.0
 46
0.0
 47
0.1
 48
0.1
140
0.12
141
0.0
142
0.0
143
25.399999999999999
144
1.0
145
0.0
146
0.71
147
0.06
 71
     0
 72
     0
 73
     1
 74
     1
 75
     0
 76
     0
 77
     0
 78
     7
170
     0
171
     2
172
     0
173
     0
174
     0
175
     0
176
   256
177
   256
178
     2
  0
DIMSTYLE
  2
AM_ANSI$3
 70
     0
  3

  4
mm
  5

  6

  7

 40
1.0
 41
0.1
 42
0.05
 43
0.5
 44
0.1
 45
0.0
 46
0.0
 47
0.1
 48
0.1
140
0.12
141
0.0
142
0.0
143
25.399999999999999
144
1.0
145
0.0
146
0.71
147
0.06
 71
     0
 72
     0
 73
     1
 74
     1
 75
     0
 76
     0
 77
     0
 78
     7
170
     0
171
     2
172
     0
173
     0
174
     0
175
     0
176
   256
177
   256
178
     2
  0
DIMSTYLE
  2
AM_ANSI$4
 70
     0
  3

  4
mm
  5

  6

  7

 40
1.0
 41
0.1
 42
0.05
 43
0.5
 44
0.1
 45
0.0
 46
0.0
 47
0.1
 48
0.1
140
0.12
141
0.0
142
0.0
143
25.399999999999999
144
1.0
145
0.0
146
0.71
147
0.06
 71
     0
 72
     0
 73
     1
 74
     1
 75
     0
 76
     0
 77
     0
 78
     7
170
     0
171
     2
172
     0
173
     0
174
     0
175
     0
176
   256
177
   256
178
     2
  0
DIMSTYLE
  2
AM_ANSI$7
 70
     0
  3

  4
mm
  5

  6

  7

 40
1.0
 41
0.1
 42
0.05
 43
0.5
 44
0.1
 45
0.0
 46
0.0
 47
0.1
 48
0.1
140
0.24
141
0.0
142
0.0
143
25.399999999999999
144
1.0
145
0.0
146
0.71
147
0.06
 71
     0
 72
     0
 73
     1
 74
     1
 75
     0
 76
     0
 77
     0
 78
     7
170
     0
171
     2
172
     0
173
     0
174
     0
175
     0
176
   256
177
   256
178
     2
  0
DIMSTYLE
  2
AM_ANSI$SF
 70
     0
  3

  4
mm
  5

  6

  7

 40
1.0
 41
0.1
 42
0.05
 43
0.5
 44
0.1
 45
0.0
 46
0.0
 47
0.1
 48
0.1
140
0.12
141
0.0
142
0.0
143
25.399999999999999
144
1.0
145
0.0
146
0.71
147
0.06
 71
     0
 72
     0
 73
     1
 74
     1
 75
     1
 76
     1
 77
     0
 78
     7
170
     0
171
     2
172
     0
173
     0
174
     0
175
     0
176
   256
177
   256
178
     2
  0
DIMSTYLE
  2
AM_ANSI$SH
 70
     0
  3

  4
mm
  5

  6

  7

 40
1.0
 41
0.1
 42
0.05
 43
0.5
 44
0.1
 45
0.0
 46
0.0
 47
0.1
 48
0.1
140
0.12
141
0.0
142
0.0
143
25.399999999999999
144
1.0
145
0.0
146
0.71
147
0.06
 71
     0
 72
     0
 73
     1
 74
     1
 75
     1
 76
     1
 77
     0
 78
     7
170
     0
171
     2
172
     0
173
     1
174
     0
175
     0
176
   256
177
   256
178
     2
  0
ENDTAB
  0
ENDSEC
  0
SECTION
  2
BLOCKS
  0
BLOCK
  8
0
  2
$MODEL_SPACE
 70
     0
 10
0.0
 20
0.0
 30
0.0
  3
$MODEL_SPACE
  1

  0
ENDBLK
  5
8A13
  8
0
  0
BLOCK
 67
     1
  8
0
  2
$PAPER_SPACE
 70
     0
 10
0.0
 20
0.0
 30
0.0
  3
$PAPER_SPACE
  1

  0
ENDBLK
  5
8A0F
 67
     1
  8
0
  0
BLOCK
  8
0
  2
*U2
 70
     1
 10
0.0
 20
0.0
 30
0.0
  3
*U2
  1

  0
TEXT
  5
87B1
  8
0
 10
-0.000000000001819
 20
0.0000018156206067
 30
0.0
 40
50.0
  1
ISD223K
  7
TITLE3
  0
ENDBLK
  5
87B3
  8
0
  0
BLOCK
  8
0
  2
*U3
 70
     1
 10
0.0
 20
0.0
 30
0.0
  3
*U3
  1

  0
TEXT
  5
87B8
  8
0
 62
    50
 10
3036.4807775940471
 20
198.6582562623997
 30
0.0
 40
30.0
  1
1201
  0
ENDBLK
  5
87BA
  8
0
  0
BLOCK
  8
0
  2
*U4
 70
     1
 10
0.0
 20
0.0
 30
0.0
  3
*U4
  1

  0
TEXT
  5
87BC
  8
0
 62
    50
 10
2968.9807775940458
 20
260.64573711250068
 30
0.0
 40
30.0
  1
819 CTRS
  0
ENDBLK
  5
87BE
  8
0
  0
BLOCK
  8
0
  2
*U5
 70
     1
 10
0.0
 20
0.0
 30
0.0
  3
*U5
  1

  0
TEXT
  5
87C0
  8
0
 62
    50
 10
2371.0884901159711
 20
716.77273904154072
 30
0.0
 40
30.0
  1
977 O/A
 50
90.0
  0
ENDBLK
  5
87C2
  8
0
  0
BLOCK
  8
0
  2
*U6
 70
     1
 10
0.0
 20
0.0
 30
0.0
  3
*U6
  1

  0
TEXT
  5
87C4
  8
0
 62
    50
 10
1776.7424223046839
 20
4128.2910373855357
 30
0.0
 40
30.0
  1
622
 50
90.0
  0
ENDBLK
  5
87C6
  8
0
  0
BLOCK
  8
0
  2
*U7
 70
     1
 10
0.0
 20
0.0
 30
0.0
  3
*U7
  1

  0
TEXT
  5
87C8
  8
0
 62
    50
 10
560.12063053514862
 20
4121.2910373855393
 30
0.0
 40
30.0
  1
636
 50
90.0
  0
ENDBLK
  5
87CA
  8
0
  0
BLOCK
  8
0
  2
*U8
 70
     1
 10
0.0
 20
0.0
 30
0.0
  3
*U8
  1

  0
TEXT
  5
87CC
  8
0
 62
    50
 10
636.80567532429325
 20
4041.7910373855389
 30
0.0
 40
30.0
  1
590 CTRS
 50
90.0
  0
ENDBLK
  5
87CE
  8
0
  0
BLOCK
  8
0
  2
*U9
 70
     1
 10
0.0
 20
0.0
 30
0.0
  3
*U9
  1

  0
TEXT
  5
87D0
  8
0
 62
    50
 10
636.97622113226362
 20
4559.2910373855393
 30
0.0
 40
30.0
  1
30
 50
90.0
  0
ENDBLK
  5
87D2
  8
0
  0
BLOCK
  8
0
  2
*U10
 70
     1
 10
0.0
 20
0.0
 30
0.0
  3
*U10
  1

  0
TEXT
  5
87D4
  8
0
 62
    50
 10
2368.480777594048
 20
260.71180723272568
 30
0.0
 40
30.0
  1
191
  0
ENDBLK
  5
87D6
  8
0
  0
ENDSEC
  0
SECTION
  2
ENTITIES
  0
LINE
  5
8200
  8
0
 62
     7
 10
225.1131307015074
 20
0.0
 30
0.0
 11
3890.0
 21
0.0
 31
0.0
  0
LINE
  5
8201
  8
0
 62
     7
 10
3890.0
 20
0.0
 30
0.0
 11
3890.0
 21
4664.9021261018597
 31
0.0
  0
LINE
  5
8203
  8
0
 62
     7
 10
225.11313070150749
 20
4664.9021261018606
 30
0.0
 11
225.1131307015074
 21
0.0
 31
0.0
  0
TEXT
  5
8205
  8
0
 62
     7
 10
2764.412735369026
 20
3169.4749306309459
 30
0.0
 40
30.0
  1
2000 min CLEARANCE
  7
TITLE3
  0
LINE
  5
8212
  8
0
 62
     7
 10
2627.4807775940499
 20
259.02272732124999
 30
0.0
 11
2711.480777594048
 21
259.02272732124999
 31
0.0
  0
SOLID
  5
8232
  8
0
 62
     7
 10
3254.110409634995
 20
3610.5765053484452
 30
0.0
 11
3229.1104096349959
 21
3760.5765053484479
 31
0.0
 12
3204.110409634995
 22
3610.5765053484452
 32
0.0
 13
3204.110409634995
 23
3610.5765053484452
 33
0.0
1001
ACAD
1000
DSTYLE
1002
{
1070
    41
1040
60.0
1070
    42
1040
40.0
1070
    44
1040
40.0
1070
    73
1070
     0
1070
    74
1070
     0
1070
   140
1040
60.0
1070
   147
1040
40.0
1070
   176
1070
    52
1070
   177
1070
    52
1070
   178
1070
    50
1070
   179
1070
     2
1070
   271
1070
     2
1070
   272
1070
     2
1070
   279
1070
     2
1070
   340
1005
FC6
1002
}
  0
LINE
  5
8233
  8
0
 62
     7
 10
2709.4307775940488
 20
3843.2910373855379
 30
0.0
 11
2709.4307775940488
 21
3857.2910373855402
 31
0.0
  0
LINE
  5
8234
  8
0
 62
     7
 10
2629.5307775940491
 20
3843.2910373855379
 30
0.0
 11
2629.5307775940491
 21
3857.2910373855389
 31
0.0
  0
LINE
  5
8235
  8
0
 62
     7
 10
2629.5307775940491
 20
3843.2910373855379
 30
0.0
 11
2709.4307775940488
 21
3843.2910373855379
 31
0.0
  0
LINE
  5
8237
  8
0
 62
     7
 10
617.80499841488336
 20
3843.2910373855389
 30
0.0
 11
617.80499841488336
 21
4473.9910373855373
 31
0.0
  0
LINE
  5
8238
  8
0
 62
     7
 10
637.75499841488431
 20
4465.0910373855359
 30
0.0
 11
650.80499841488586
 21
4465.0910373855359
 31
0.0
  0
LINE
  5
823C
  8
0
 62
     7
 10
637.75499841488431
 20
4465.0910373855359
 30
0.0
 11
637.75499841488431
 21
4473.9910373855373
 31
0.0
  0
LINE
  5
823D
  8
0
 62
     7
 10
617.80499841488336
 20
4473.9910373855373
 30
0.0
 11
637.75499841488431
 21
4473.9910373855373
 31
0.0
  0
LINE
  5
823E
  8
0
 62
     7
 10
637.75499841488431
 20
3870.4910373855391
 30
0.0
 11
650.80499841488586
 21
3870.4910373855391
 31
0.0
  0
LINE
  5
8242
  8
0
 62
     7
 10
637.75499841488431
 20
3870.4910373855391
 30
0.0
 11
637.75499841488431
 21
3862.0410373855389
 31
0.0
  0
LINE
  5
8243
  8
0
 62
     7
 10
617.80499841488336
 20
3843.2910373855389
 30
0.0
 11
619.00499841488227
 21
3843.2910373855389
 31
0.0
  0
LINE
  5
8244
  8
0
 62
     7
 10
619.00499841488227
 20
3843.2910373855389
 30
0.0
 11
637.75499841488431
 21
3862.0410373855389
 31
0.0
  0
LINE
  5
824E
  8
0
 62
     7
 10
2478.480777594048
 20
1224.022727321249
 30
0.0
 11
2478.480777594048
 21
292.02272732124999
 31
0.0
  0
LINE
  5
824F
  8
0
 62
     7
 10
3679.4807775940458
 20
292.02272732124999
 30
0.0
 11
2478.480777594048
 21
292.02272732124999
 31
0.0
  0
LINE
  5
8250
  8
0
 62
     7
 10
3679.4807775940508
 20
1224.022727321249
 30
0.0
 11
3679.4807775940458
 21
292.02272732124999
 31
0.0
  0
LINE
  5
8254
  8
0
 62
     7
 10
1593.8049984148799
 20
4425.7910373855366
 30
0.0
 11
1593.8049984148799
 21
3940.7910373855389
 31
0.0
  0
LINE
  5
8255
  8
0
 62
     7
 10
1582.804998414884
 20
4479.2910373855348
 30
0.0
 11
650.80499841488586
 21
4479.2910373855393
 31
0.0
  0
LINE
  5
8256
  8
0
 62
     7
 10
1582.804998414884
 20
3857.2910373855389
 30
0.0
 11
650.80499841488586
 21
3857.2910373855389
 31
0.0
  0
LINE
  5
8257
  8
0
 62
     7
 10
650.80499841488586
 20
4479.2910373855393
 30
0.0
 11
650.80499841488586
 21
3857.2910373855389
 31
0.0
  0
LINE
  5
8258
  8
0
 62
     7
 10
3679.4807775940449
 20
4479.2910373855393
 30
0.0
 11
3679.4807775940449
 21
3857.2910373855389
 31
0.0
  0
LINE
  5
8259
  8
0
 62
     7
 10
2478.4807775940471
 20
4479.2910373855393
 30
0.0
 11
2478.4807775940471
 21
3857.2910373855389
 31
0.0
  0
LINE
  5
825A
  8
0
 62
     7
 10
2478.4807775940471
 20
3857.2910373855389
 30
0.0
 11
3679.4807775940449
 21
3857.2910373855389
 31
0.0
  0
LINE
  5
825B
  8
0
 62
     7
 10
3679.4807775940449
 20
4479.2910373855393
 30
0.0
 11
2478.4807775940471
 21
4479.2910373855393
 31
0.0
  0
LINE
  5
825E
  8
0
 62
     7
 10
2478.480777594048
 20
1224.022727321249
 30
0.0
 11
3679.4807775940508
 21
1224.022727321249
 31
0.0
  0
LINE
  5
825F
  8
0
 62
     7
 10
3095.9811909191558
 20
1235.0227273212461
 30
0.0
 11
2610.9803642689421
 21
1235.022727321249
 31
0.0
  0
LINE
  5
8260
  8
0
 62
     7
 10
1582.804998414884
 20
4479.2910373855348
 30
0.0
 11
1582.804998414884
 21
3857.2910373855389
 31
0.0
  0
LINE
  5
8261
  8
0
 62
     7
 10
2610.9803642689421
 20
1235.022727321249
 30
0.0
 11
2610.9803642689421
 21
1224.022727321249
 31
0.0
  0
LINE
  5
8262
  8
0
 62
     7
 10
3095.9811909191558
 20
1235.0227273212461
 30
0.0
 11
3095.9811909191558
 21
1224.022727321247
 31
0.0
  0
LINE
  5
8267
  8
0
  6
PHANTOM2
 62
     7
 10
3679.4807775940449
 20
3847.2910373855379
 30
0.0
 11
3679.4807775940449
 21
3357.2910373855389
 31
0.0
  0
LINE
  5
8268
  8
0
  6
PHANTOM2
 62
     7
 10
2478.4807775940471
 20
3847.2910373855379
 30
0.0
 11
2478.4807775940471
 21
3357.2910373855389
 31
0.0
  0
LINE
  5
8269
  8
0
  6
PHANTOM2
 62
     7
 10
2478.4807775940471
 20
3357.2910373855389
 30
0.0
 11
3679.4807775940449
 21
3357.2910373855389
 31
0.0
  0
LINE
  5
826A
  8
0
  6
PHANTOM2
 62
     7
 10
1978.480777594046
 20
4479.2910373855393
 30
0.0
 11
1978.480777594046
 21
3857.2910373855389
 31
0.0
  0
LINE
  5
826B
  8
0
  6
PHANTOM2
 62
     7
 10
2468.4807775940471
 20
3857.2910373855389
 30
0.0
 11
1978.480777594046
 21
3857.2910373855389
 31
0.0
  0
LINE
  5
826C
  8
0
  6
PHANTOM2
 62
     7
 10
2468.4807775940471
 20
4479.2910373855393
 30
0.0
 11
1978.480777594046
 21
4479.2910373855393
 31
0.0
  0
LINE
  5
826D
  8
0
  6
PHANTOM2
 62
     7
 10
3829.4807775940449
 20
4479.2910373855393
 30
0.0
 11
3829.4807775940449
 21
3857.2910373855389
 31
0.0
  0
LINE
  5
826E
  8
0
  6
PHANTOM2
 62
     7
 10
3679.4807775940449
 20
4504.2910373855366
 30
0.0
 11
2478.4807775940471
 21
4504.2910373855366
 31
0.0
  0
LINE
  5
826F
  8
0
  6
PHANTOM2
 62
     7
 10
2478.4807775940471
 20
4489.2910373855366
 30
0.0
 11
2478.4807775940471
 21
4504.2910373855366
 31
0.0
  0
LINE
  5
8270
  8
0
  6
PHANTOM2
 62
     7
 10
3679.4807775940449
 20
4489.2910373855366
 30
0.0
 11
3679.4807775940449
 21
4504.2910373855366
 31
0.0
  0
LINE
  5
8271
  8
0
  6
PHANTOM2
 62
     7
 10
3829.4807775940449
 20
3857.2910373855389
 30
0.0
 11
3689.4807775940449
 21
3857.2910373855389
 31
0.0
  0
LINE
  5
8272
  8
0
  6
PHANTOM2
 62
     7
 10
3689.4807775940449
 20
4479.2910373855384
 30
0.0
 11
3829.4807775940449
 21
4479.2910373855393
 31
0.0
  0
LINE
  5
8273
  8
0
  6
PHANTOM2
 62
     7
 10
2478.4807775940471
 20
3215.022727321249
 30
0.0
 11
3679.4807775940508
 21
3215.022727321249
 31
0.0
  0
LINE
  5
8274
  8
0
  6
PHANTOM2
 62
     7
 10
2478.480777594048
 20
1234.022727321249
 30
0.0
 11
2478.4807775940471
 21
3215.022727321249
 31
0.0
  0
LINE
  5
8275
  8
0
  6
PHANTOM2
 62
     7
 10
3679.4807775940508
 20
1234.022727321249
 30
0.0
 11
3679.4807775940508
 21
3215.022727321249
 31
0.0
  0
TEXT
  5
8276
  8
0
 62
     7
 10
2804.9671759606731
 20
771.51216046484694
 30
0.0
 40
56.25
  1
OSA155RKTV
  7
TITLE5
 72
     1
 11
3067.4671759606722
 21
771.51216046484694
 31
0.0
  0
SOLID
  5
827E
  8
0
 62
     7
 10
3273.6050958414498
 20
1446.3605390526891
 30
0.0
 11
3248.6050958414498
 21
1596.3605390526891
 31
0.0
 12
3223.6050958414489
 22
1446.3605390526891
 32
0.0
 13
3223.6050958414489
 23
1446.3605390526891
 33
0.0
1001
ACAD
1000
DSTYLE
1002
{
1070
    41
1040
60.0
1070
    42
1040
40.0
1070
    44
1040
40.0
1070
    73
1070
     0
1070
    74
1070
     0
1070
   140
1040
60.0
1070
   147
1040
40.0
1070
   176
1070
    52
1070
   177
1070
    52
1070
   178
1070
    50
1070
   179
1070
     2
1070
   271
1070
     2
1070
   272
1070
     2
1070
   279
1070
     2
1070
   340
1005
FC6
1002
}
  0
TEXT
  5
8283
  8
0
 62
     7
 10
2087.599887761301
 20
3984.9758240344081
 30
0.0
 40
30.0
  1
CLEARANCE
 50
90.0
  7
TITLE3
  0
TEXT
  5
8284
  8
0
 62
     7
 10
2036.1713163327281
 20
4020.3353473437519
 30
0.0
 40
30.0
  1
500 min
 50
90.0
  7
TITLE3
  0
TEXT
  5
8285
  8
0
 62
     7
 10
2892.9654621495401
 20
3372.8388340758388
 30
0.0
 40
30.0
  1
500 min CLEARANCE
  7
TITLE3
  0
TEXT
  5
8286
  8
0
 62
     7
 10
3770.788061647992
 20
3984.9758240344081
 30
0.0
 40
30.0
  1
CLEARANCE
 50
90.0
  7
TITLE3
  0
TEXT
  5
8287
  8
0
 62
     7
 10
892.56836999882603
 20
4141.3763245820601
 30
0.0
 40
56.25
  1
OSA155RKTV
  7
TITLE5
 72
     1
 11
1155.068369998826
 21
4141.3763245820601
 31
0.0
  0
TEXT
  5
8288
  8
0
 62
     7
 10
2779.8698036256169
 20
4220.2339118491454
 30
0.0
 40
56.25
  1
OSA
  7
TITLE5
 72
     1
 11
2857.5483750541889
 21
4220.2339118491454
 31
0.0
  0
TEXT
  5
828A
  8
0
 62
     7
 10
2895.0739473592589
 20
4519.7212172143763
 30
0.0
 40
30.0
  1
25 min CLEARANCE
  7
TITLE3
  0
LINE
  5
828B
  8
0
  6
HIDDEN2
 62
     7
 10
3405.280777594046
 20
3931.2910373855339
 30
0.0
 11
2880.2807775940501
 21
3931.2910373855339
 31
0.0
  0
LINE
  5
828C
  8
0
  6
HIDDEN2
 62
     7
 10
3405.280777594046
 20
3876.2910373855329
 30
0.0
 11
2880.280777594046
 21
3876.2910373855329
 31
0.0
  0
ARC
  5
828D
  8
0
  6
HIDDEN2
 62
     7
 10
3405.280777594045
 20
4131.2910373855311
 30
0.0
 40
255.0
 50
270.0
 51
0.0
  0
ARC
  5
828E
  8
0
  6
HIDDEN2
 62
     7
 10
3405.280777594045
 20
4131.2910373855311
 30
0.0
 40
200.0
 50
270.0
 51
0.0
  0
LINE
  5
828F
  8
0
  6
HIDDEN2
 62
     7
 10
3605.280777594046
 20
4441.2910373855311
 30
0.0
 11
3605.280777594046
 21
4131.291037385532
 31
0.0
  0
LINE
  5
8290
  8
0
  6
HIDDEN2
 62
     7
 10
3660.2807775940478
 20
4131.291037385532
 30
0.0
 11
3660.2807775940478
 21
4442.4910373855337
 31
0.0
  0
LINE
  5
8291
  8
0
  6
HIDDEN2
 62
     7
 10
3605.280777594046
 20
4442.4910373855319
 30
0.0
 11
3660.2807775940478
 21
4442.4910373855337
 31
0.0
  0
LINE
  5
8292
  8
0
  6
HIDDEN
 62
     7
 10
3605.280777594046
 20
4442.4910373855319
 30
0.0
 11
3605.280777594046
 21
4441.2910373855311
 31
0.0
  0
LINE
  5
8293
  8
0
  6
HIDDEN
 62
     7
 10
2880.280777594046
 20
3903.7910373855361
 30
0.0
 11
2880.280777594046
 21
3876.2910373855329
 31
0.0
  0
LINE
  5
8294
  8
0
  6
HIDDEN2
 62
     7
 10
2880.280777594046
 20
3932.491037385535
 30
0.0
 11
2880.280777594046
 21
3900.2910373855339
 31
0.0
  0
TEXT
  5
8295
  8
0
 62
     7
 10
3822.216633076564
 20
4026.0496330580372
 30
0.0
 40
30.0
  1
150 min
 50
90.0
  7
TITLE3
  0
TEXT
  5
8430
  8
0
 62
     7
 10
289.10122593960318
 20
350.99638005652997
 30
0.0
 40
62.5
  1
temperzone OSA 155RKTV
  7
TITLE5
 72
     1
 11
912.61313070150788
 21
350.99638005652997
 31
0.0
  0
TEXT
  5
8431
  8
0
 62
     7
 10
437.6131307015072
 20
87.5
 30
0.0
 40
37.5
  1
OSA155RKTV
 41
1.035714285714286
  7
TITLE3
 72
     5
 11
800.11313070150754
 21
87.5
 31
0.0
  0
TEXT
  5
8432
  8
0
 62
     7
 10
1166.1551233490791
 20
137.5
 30
0.0
 40
37.5
  1
10-05-07
 41
0.6913580246913583
  7
TITLE3
 72
     5
 11
1366.1551233490791
 21
137.5
 31
0.0
  0
TEXT
  5
8433
  8
0
 62
     7
 10
1436.886187454603
 20
138.53901732512611
 30
0.0
 40
30.0
  1
Date
  7
SIMPLEX
  0
TEXT
  5
8434
  8
0
 62
     7
 10
273.28453820017648
 20
161.879127529264
 30
0.0
 40
30.0
  1
Revision
 41
0.7812095035934835
  7
SIMPLEX
 72
     5
 11
404.97414023450648
 21
161.879127529264
 31
0.0
  0
LINE
  5
8435
  8
0
 62
     7
 10
419.49894321381032
 20
26.053116060396409
 30
0.0
 11
419.49894321381032
 21
210.3358196356829
 31
0.0
  0
LINE
  5
8436
  8
0
 62
     7
 10
1563.423718880073
 20
433.29949611692632
 30
0.0
 11
1563.423718880073
 21
26.053116060396409
 31
0.0
  0
LINE
  5
8437
  8
0
 62
     7
 10
816.47103318514064
 20
26.053116060396409
 30
0.0
 11
816.47103318514064
 21
210.3358196356829
 31
0.0
  0
LINE
  5
8438
  8
0
 62
     7
 10
816.47103318514064
 20
116.6407490868297
 30
0.0
 11
1563.423718880073
 21
116.6407490868297
 31
0.0
  0
LINE
  5
8439
  8
0
 62
     7
 10
260.64379915420659
 20
210.3358196356829
 30
0.0
 11
1563.423718880073
 21
210.3358196356829
 31
0.0
  0
LINE
  5
843A
  8
0
 62
     7
 10
1563.423718880073
 20
26.053116060396409
 30
0.0
 11
261.01568312714329
 21
26.053116060396409
 31
0.0
  0
LINE
  5
843B
  8
0
 62
     7
 10
261.01568312714329
 20
26.053116060396409
 30
0.0
 11
261.01568312714329
 21
433.29949611692632
 31
0.0
  0
LINE
  5
843C
  8
0
 62
     7
 10
261.01568312714329
 20
433.29949611692632
 30
0.0
 11
1563.423718880073
 21
433.29949611692632
 31
0.0
  0
TEXT
  5
843D
  8
0
 62
     7
 10
1406.4097504707399
 20
59.903110081697093
 30
0.0
 40
25.0
  1
Scale
 41
1.370174796565961
  7
SIMPLEX
 72
     5
 11
1532.00910682262
 21
59.903110081697093
 31
0.0
  0
TEXT
  5
843E
  8
0
 62
     7
 10
526.18208334336828
 20
161.1167893833869
 30
0.0
 40
25.0
  1
Drawing No.
  7
SIMPLEX
 72
     2
 11
744.03922620051105
 21
161.1167893833869
 31
0.0
  0
TEXT
  5
843F
  8
0
 62
     7
 10
1239.224579031106
 20
58.608558680249381
 30
0.0
 40
37.5
  1
1:10
  7
TITLE3
  0
LINE
  5
85ED
  8
0
 62
     7
 10
3248.6050958414498
 20
1445.576669775887
 30
0.0
 11
3248.6050958414498
 21
1324.1273755214399
 31
0.0
1001
ACAD
1000
DSTYLE
1002
{
1070
    41
1040
60.0
1070
    42
1040
40.0
1070
    44
1040
40.0
1070
    73
1070
     0
1070
    74
1070
     0
1070
   140
1040
60.0
1070
   147
1040
40.0
1070
   176
1070
    52
1070
   177
1070
    52
1070
   178
1070
    50
1070
   179
1070
     2
1070
   271
1070
     2
1070
   272
1070
     2
1070
   279
1070
     2
1070
   340
1005
FC6
1002
}
  0
TEXT
  5
85EF
  8
0
 62
     7
 10
2884.8418264865231
 20
1461.453768728609
 30
0.0
 40
60.0
  1
AIR
  7
TITLE
  0
TEXT
  5
85F0
  8
0
 62
     7
 10
2837.6989693436658
 20
1361.453768728609
 30
0.0
 40
60.0
  1
FLOW
  7
TITLE
  0
LINE
  5
85F1
  8
0
 62
     7
 10
3229.1104096349959
 20
3609.7926360716419
 30
0.0
 11
3229.1104096349959
 21
3488.3433418171958
 31
0.0
1001
ACAD
1000
DSTYLE
1002
{
1070
    41
1040
60.0
1070
    42
1040
40.0
1070
    44
1040
40.0
1070
    73
1070
     0
1070
    74
1070
     0
1070
   140
1040
60.0
1070
   147
1040
40.0
1070
   176
1070
    52
1070
   177
1070
    52
1070
   178
1070
    50
1070
   179
1070
     2
1070
   271
1070
     2
1070
   272
1070
     2
1070
   279
1070
     2
1070
   340
1005
FC6
1002
}
  0
TEXT
  5
85F2
  8
0
 62
     7
 10
2977.94714028007
 20
3672.0462857264629
 30
0.0
 40
60.0
  1
AIR
  7
TITLE
  0
TEXT
  5
85F3
  8
0
 62
     7
 10
2930.8042831372131
 20
3572.0462857264679
 30
0.0
 40
60.0
  1
FLOW
  7
TITLE
  0
TEXT
  5
85F4
  8
0
 62
     7
 10
329.63370256611762
 20
525.9479428556499
 30
0.0
 40
31.25
  1
available on request
  7
TITLE3
  0
TEXT
  5
85F5
  8
0
 62
     7
 10
329.63370256611762
 20
579.51937142707845
 30
0.0
 40
31.25
  1
Certified dimensions
  7
TITLE3
  0
TEXT
  5
85F6
  8
0
 62
     7
 10
329.63370256611762
 20
633.09079999850701
 30
0.0
 40
31.25
  1
without notice or obligation.
  7
TITLE3
  0
TEXT
  5
85F7
  8
0
 62
     7
 10
329.63370256611762
 20
686.66222856993556
 30
0.0
 40
31.25
  1
specifications at any time
  7
TITLE3
  0
TEXT
  5
85F8
  8
0
 62
     7
 10
329.63370256611762
 20
740.23365714136412
 30
0.0
 40
31.25
  1
the right to change 
  7
TITLE3
  0
TEXT
  5
85F9
  8
0
 62
     7
 10
329.63370256611762
 20
847.37651428422043
 30
0.0
 40
31.25
  1
NOTE
  7
TITLE3
  0
TEXT
  5
85FA
  8
0
 62
     7
 10
329.63370256611762
 20
793.80508571279233
 30
0.0
 40
31.25
  1
The manufacturer reserves
  7
TITLE3
  0
TEXT
  5
862B
  8
0
 62
     7
 10
2680.7626607684751
 20
4142.1492250747478
 30
0.0
 40
56.25
  1
155RKTV
  7
TITLE5
 72
     1
 11
2857.5483750541889
 21
4142.1492250747478
 31
0.0
  0
LINE
  5
8666
  8
0
 62
     7
 10
2627.4807775940499
 20
259.02272732124999
 30
0.0
 11
2601.980777594049
 21
292.02272732124999
 31
0.0
  0
LINE
  5
8667
  8
0
 62
     7
 10
2711.480777594048
 20
259.02272732124999
 30
0.0
 11
2736.980777594049
 21
292.02272732124999
 31
0.0
  0
LINE
  5
866B
  8
0
 62
     7
 10
3530.480777594043
 20
259.02272732124999
 30
0.0
 11
3446.4807775940449
 21
259.02272732124999
 31
0.0
  0
LINE
  5
866C
  8
0
 62
     7
 10
3448.5307775940441
 20
3843.2910373855379
 30
0.0
 11
3448.5307775940441
 21
3857.2910373855402
 31
0.0
  0
LINE
  5
866D
  8
0
 62
     7
 10
3528.4307775940438
 20
3843.2910373855379
 30
0.0
 11
3528.4307775940438
 21
3857.2910373855389
 31
0.0
  0
LINE
  5
866E
  8
0
 62
     7
 10
3528.4307775940438
 20
3843.2910373855379
 30
0.0
 11
3448.5307775940441
 21
3843.2910373855379
 31
0.0
  0
LINE
  5
866F
  8
0
 62
     7
 10
3530.480777594043
 20
259.02272732124999
 30
0.0
 11
3555.980777594044
 21
292.02272732124999
 31
0.0
  0
LINE
  5
8670
  8
0
 62
     7
 10
3446.4807775940449
 20
259.02272732124999
 30
0.0
 11
3420.9807775940449
 21
292.02272732124999
 31
0.0
  0
LINE
  5
86A1
  8
0
 62
     7
 10
3602.981190919159
 20
1235.0227273212481
 30
0.0
 11
3117.980364268944
 21
1235.0227273212499
 31
0.0
  0
LINE
  5
86A2
  8
0
 62
     7
 10
3117.980364268944
 20
1235.0227273212499
 30
0.0
 11
3117.980364268944
 21
1224.0227273212511
 31
0.0
  0
LINE
  5
86A3
  8
0
 62
     7
 10
3602.981190919159
 20
1235.0227273212481
 30
0.0
 11
3602.981190919159
 21
1224.0227273212481
 31
0.0
  0
LINE
  5
86BB
  8
0
 62
     7
 10
2478.480777594048
 20
272.02272732124987
 30
0.0
 11
2478.480777594048
 21
124.4082445421089
 31
0.0
  0
LINE
  5
86BC
  8
0
 62
     7
 10
3679.4807775940458
 20
272.02272732124987
 30
0.0
 11
3679.4807775940458
 21
124.4082445421089
 31
0.0
  0
LINE
  5
86BD
  8
0
 62
     7
 10
2508.480777594048
 20
144.40824454210909
 30
0.0
 11
3016.4807775940471
 21
144.40824454210909
 31
0.0
  0
LINE
  5
86BE
  8
0
 62
     7
 10
3649.4807775940449
 20
144.40824454210909
 30
0.0
 11
3141.4807775940471
 21
144.40824454210909
 31
0.0
  0
SOLID
  5
86BF
  8
0
 62
     7
 10
2508.480777594048
 20
149.40824454210889
 30
0.0
 11
2508.480777594048
 21
139.408244542109
 31
0.0
 12
2478.480777594048
 22
144.40824454210909
 32
0.0
 13
2478.480777594048
 23
144.40824454210909
 33
0.0
  0
SOLID
  5
86C0
  8
0
 62
     7
 10
3649.4807775940449
 20
149.40824454210889
 30
0.0
 11
3649.4807775940449
 21
139.408244542109
 31
0.0
 12
3679.4807775940458
 22
144.40824454210909
 32
0.0
 13
3679.4807775940458
 23
144.40824454210909
 33
0.0
  0
LINE
  5
86C2
  8
0
 62
     7
 10
2669.480777594049
 20
229.0227273212501
 30
0.0
 11
2669.480777594049
 21
186.3957253922099
 31
0.0
  0
LINE
  5
86C3
  8
0
 62
     7
 10
3488.4807775940449
 20
229.0227273212501
 30
0.0
 11
3488.4807775940449
 21
186.3957253922099
 31
0.0
  0
LINE
  5
86C4
  8
0
 62
     7
 10
2699.480777594049
 20
206.3957253922099
 30
0.0
 11
2948.9807775940449
 21
206.3957253922099
 31
0.0
  0
LINE
  5
86C5
  8
0
 62
     7
 10
3458.4807775940449
 20
206.3957253922099
 30
0.0
 11
3208.9807775940458
 21
206.3957253922099
 31
0.0
  0
SOLID
  5
86C6
  8
0
 62
     7
 10
2699.480777594049
 20
211.3957253922099
 30
0.0
 11
2699.480777594049
 21
201.3957253922099
 31
0.0
 12
2669.480777594049
 22
206.3957253922099
 32
0.0
 13
2669.480777594049
 23
206.3957253922099
 33
0.0
  0
SOLID
  5
86C7
  8
0
 62
     7
 10
3458.4807775940449
 20
211.3957253922099
 30
0.0
 11
3458.4807775940449
 21
201.3957253922099
 31
0.0
 12
3488.4807775940449
 22
206.3957253922099
 32
0.0
 13
3488.4807775940449
 23
206.3957253922099
 33
0.0
  0
LINE
  5
86C9
  8
0
 62
     7
 10
2590.9803642689408
 20
1235.022727321249
 30
0.0
 11
2336.088490115972
 21
1235.022727321249
 31
0.0
  0
LINE
  5
86CA
  8
0
 62
     7
 10
2607.4807775940499
 20
259.02272732124999
 30
0.0
 11
2336.0884901159711
 21
259.0227273212501
 31
0.0
  0
LINE
  5
86CB
  8
0
 62
     7
 10
2356.088490115972
 20
1205.022727321249
 30
0.0
 11
2356.0884901159711
 21
867.52272732124925
 31
0.0
  0
LINE
  5
86CC
  8
0
 62
     7
 10
2356.0884901159711
 20
289.0227273212501
 30
0.0
 11
2356.0884901159711
 21
627.52272732124959
 31
0.0
  0
SOLID
  5
86CD
  8
0
 62
     7
 10
2351.088490115972
 20
1205.022727321249
 30
0.0
 11
2361.088490115972
 21
1205.022727321249
 31
0.0
 12
2356.088490115972
 22
1235.022727321249
 32
0.0
 13
2356.088490115972
 23
1235.022727321249
 33
0.0
  0
SOLID
  5
86CE
  8
0
 62
     7
 10
2351.0884901159711
 20
289.0227273212501
 30
0.0
 11
2361.0884901159711
 21
289.0227273212501
 31
0.0
 12
2356.0884901159711
 22
259.0227273212501
 32
0.0
 13
2356.0884901159711
 23
259.0227273212501
 33
0.0
  0
CIRCLE
  5
86F4
  8
0
 10
2853.480777594048
 20
4183.2910373855366
 30
0.0
 40
242.5
  0
CIRCLE
  5
86F5
  8
0
 10
3360.480777594048
 20
4183.2910373855366
 30
0.0
 40
242.5
  0
LINE
  5
86F6
  8
0
 62
     7
 10
1593.8049984148799
 20
4425.7910373855366
 30
0.0
 11
1582.804998414884
 21
4425.7910373855393
 31
0.0
  0
LINE
  5
86F7
  8
0
 62
     7
 10
1593.8049984148799
 20
3940.7910373855389
 30
0.0
 11
1582.804998414884
 21
3940.7910373855389
 31
0.0
  0
LINE
  5
871B
  8
0
 62
     7
 10
1602.804998414884
 20
4479.2910373855348
 30
0.0
 11
1719.1572527110161
 21
4479.2910373855348
 31
0.0
  0
LINE
  5
871C
  8
0
 62
     7
 10
1602.804998414884
 20
3857.2910373855389
 30
0.0
 11
1719.1572527110161
 21
3857.2910373855389
 31
0.0
  0
LINE
  5
871D
  8
0
 62
     7
 10
1699.1572527110161
 20
4449.2910373855339
 30
0.0
 11
1699.1572527110161
 21
4228.2910373855357
 31
0.0
  0
LINE
  5
871E
  8
0
 62
     7
 10
1699.1572527110161
 20
3887.2910373855389
 30
0.0
 11
1699.1572527110161
 21
4108.2910373855348
 31
0.0
  0
SOLID
  5
871F
  8
0
 62
     7
 10
1694.1572527110161
 20
4449.2910373855339
 30
0.0
 11
1704.1572527110161
 21
4449.2910373855339
 31
0.0
 12
1699.1572527110161
 22
4479.2910373855348
 32
0.0
 13
1699.1572527110161
 23
4479.2910373855348
 33
0.0
  0
SOLID
  5
8720
  8
0
 62
     7
 10
1694.1572527110161
 20
3887.2910373855389
 30
0.0
 11
1704.1572527110161
 21
3887.2910373855389
 31
0.0
 12
1699.1572527110161
 22
3857.2910373855389
 32
0.0
 13
1699.1572527110161
 23
3857.2910373855389
 33
0.0
  0
LINE
  5
8722
  8
0
 62
     7
 10
630.80499841488574
 20
4479.2910373855393
 30
0.0
 11
463.53546094148032
 21
4479.2910373855393
 31
0.0
  0
LINE
  5
8723
  8
0
 62
     7
 10
597.80499841488324
 20
3843.2910373855389
 30
0.0
 11
463.53546094148032
 21
3843.2910373855389
 31
0.0
  0
LINE
  5
8724
  8
0
 62
     7
 10
483.53546094148032
 20
4449.2910373855393
 30
0.0
 11
483.53546094148032
 21
4221.2910373855393
 31
0.0
  0
LINE
  5
8725
  8
0
 62
     7
 10
483.53546094148032
 20
3873.2910373855402
 30
0.0
 11
483.53546094148032
 21
4101.2910373855384
 31
0.0
  0
SOLID
  5
8726
  8
0
 62
     7
 10
478.53546094148032
 20
4449.2910373855393
 30
0.0
 11
488.53546094148032
 21
4449.2910373855393
 31
0.0
 12
483.53546094148032
 22
4479.2910373855393
 32
0.0
 13
483.53546094148032
 23
4479.2910373855393
 33
0.0
  0
SOLID
  5
8727
  8
0
 62
     7
 10
478.53546094148021
 20
3873.2910373855402
 30
0.0
 11
488.53546094148032
 21
3873.2910373855402
 31
0.0
 12
483.53546094148032
 22
3843.2910373855389
 32
0.0
 13
483.53546094148032
 23
3843.2910373855389
 33
0.0
  0
LINE
  5
8754
  8
0
 62
     7
 10
607.80499841488324
 20
3859.2910373855411
 30
0.0
 11
627.8049984148837
 21
3859.2910373855379
 31
0.0
  0
LINE
  5
8757
  8
0
 62
     7
 10
607.8049984149103
 20
4449.2910373855393
 30
0.0
 11
627.80499841491007
 21
4449.2910373855393
 31
0.0
  0
LINE
  5
8758
  8
0
 62
     7
 10
587.8049984149103
 20
4449.2910373855393
 30
0.0
 11
540.22050573062495
 21
4449.2910373855393
 31
0.0
  0
LINE
  5
8759
  8
0
 62
     7
 10
587.80499841488347
 20
3859.2910373855411
 30
0.0
 11
540.22050573062495
 21
3859.2910373855411
 31
0.0
  0
LINE
  5
875A
  8
0
 62
     7
 10
560.22050573062495
 20
4419.2910373855393
 30
0.0
 11
560.22050573062495
 21
4286.7910373855402
 31
0.0
  0
LINE
  5
875B
  8
0
 62
     7
 10
560.22050573062495
 20
3889.2910373855402
 30
0.0
 11
560.22050573062495
 21
4021.791037385537
 31
0.0
  0
SOLID
  5
875C
  8
0
 62
     7
 10
555.22050573062518
 20
4419.2910373855393
 30
0.0
 11
565.22050573062495
 21
4419.2910373855393
 31
0.0
 12
560.22050573062495
 22
4449.2910373855393
 32
0.0
 13
560.22050573062495
 23
4449.2910373855393
 33
0.0
  0
SOLID
  5
875D
  8
0
 62
     7
 10
555.22050573062518
 20
3889.2910373855402
 30
0.0
 11
565.22050573062495
 21
3889.2910373855402
 31
0.0
 12
560.22050573062495
 22
3859.2910373855411
 32
0.0
 13
560.22050573062495
 23
3859.2910373855411
 33
0.0
  0
LINE
  5
875F
  8
0
 62
     7
 10
2669.480777594048
 20
249.02272732124999
 30
0.0
 11
2669.480777594049
 21
269.02272732124999
 31
0.0
  0
LINE
  5
8762
  8
0
 62
     7
 10
3488.4807775940449
 20
249.02272732124999
 30
0.0
 11
3488.4807775940449
 21
269.02272732124999
 31
0.0
  0
LINE
  5
8792
  8
0
 62
     7
 10
587.8049984149103
 20
4449.2910373855393
 30
0.0
 11
540.39105153859555
 21
4449.2910373855393
 31
0.0
  0
LINE
  5
8793
  8
0
 62
     7
 10
630.80499841488574
 20
4479.2910373855393
 30
0.0
 11
540.39105153859555
 21
4479.2910373855393
 31
0.0
  0
LINE
  5
8794
  8
0
 62
     7
 10
560.39105153859555
 20
4419.2910373855393
 30
0.0
 11
560.39105153859555
 21
4389.2910373855393
 31
0.0
  0
LINE
  5
8795
  8
0
 62
     7
 10
560.39105153859555
 20
4509.2910373855402
 30
0.0
 11
560.39105153859555
 21
4539.2910373855393
 31
0.0
  0
SOLID
  5
8796
  8
0
 62
     7
 10
555.39105153859566
 20
4419.2910373855393
 30
0.0
 11
565.39105153859555
 21
4419.2910373855393
 31
0.0
 12
560.39105153859555
 22
4449.2910373855393
 32
0.0
 13
560.39105153859555
 23
4449.2910373855393
 33
0.0
  0
SOLID
  5
8797
  8
0
 62
     7
 10
555.39105153859566
 20
4509.2910373855402
 30
0.0
 11
565.39105153859555
 21
4509.2910373855402
 31
0.0
 12
560.39105153859555
 22
4479.2910373855393
 32
0.0
 13
560.39105153859555
 23
4479.2910373855393
 33
0.0
  0
LINE
  5
8799
  8
0
 62
     7
 10
2669.480777594048
 20
229.0227273212501
 30
0.0
 11
2669.480777594048
 21
186.46179551243489
 31
0.0
  0
LINE
  5
879A
  8
0
 62
     7
 10
2478.480777594048
 20
272.02272732124987
 30
0.0
 11
2478.480777594048
 21
186.46179551243489
 31
0.0
  0
LINE
  5
879B
  8
0
 62
     7
 10
2639.480777594048
 20
206.46179551243489
 30
0.0
 11
2508.480777594048
 21
206.46179551243489
 31
0.0
  0
LINE
  5
879C
  8
0
 62
     7
 10
2478.480777594048
 20
206.46179551243489
 30
0.0
 11
2448.480777594048
 21
206.46179551243489
 31
0.0
  0
SOLID
  5
879D
  8
0
 62
     7
 10
2639.480777594048
 20
211.46179551243489
 30
0.0
 11
2639.480777594048
 21
201.46179551243489
 31
0.0
 12
2669.480777594048
 22
206.46179551243489
 32
0.0
 13
2669.480777594048
 23
206.46179551243489
 33
0.0
  0
SOLID
  5
879E
  8
0
 62
     7
 10
2508.480777594048
 20
211.46179551243489
 30
0.0
 11
2508.480777594048
 21
201.46179551243489
 31
0.0
 12
2478.480777594048
 22
206.46179551243489
 32
0.0
 13
2478.480777594048
 23
206.46179551243489
 33
0.0
  0
LINE
  5
8942
  8
0
 10
3890.0
 20
4664.9021261018597
 30
0.0
 11
225.11313070150749
 21
4664.9021261018606
 31
0.0
  0
TEXT
  5
8943
  8
0
 62
     7
 10
575.39105153859452
 20
4559.2910373855393
 30
0.0
 40
30.0
  1
30
 50
90.0
  0
TEXT
  5
8946
  8
0
 62
     7
 10
575.22050573062415
 20
4041.7910373855389
 30
0.0
 40
30.0
  1
590 CTRS
 50
90.0
  0
TEXT
  5
8947
  8
0
 62
     7
 10
498.53546094147958
 20
4121.2910373855393
 30
0.0
 40
30.0
  1
636
 50
90.0
  0
TEXT
  5
8948
  8
0
 62
     7
 10
1714.157252711015
 20
4128.2910373855357
 30
0.0
 40
30.0
  1
622
 50
90.0
  0
TEXT
  5
8949
  8
0
 62
     7
 10
2368.480777594048
 20
191.46179551243489
 30
0.0
 40
30.0
  1
191
  0
TEXT
  5
894A
  8
0
 62
     7
 10
2371.0884901159711
 20
647.52272732124982
 30
0.0
 40
30.0
  1
976 O/A
 50
90.0
  0
TEXT
  5
894B
  8
0
 62
     7
 10
2968.9807775940458
 20
191.3957253922099
 30
0.0
 40
30.0
  1
819 CTRS
  0
TEXT
  5
894C
  8
0
 62
     7
 10
3036.4807775940471
 20
129.40824454210889
 30
0.0
 40
30.0
  1
1201
  0
ENDSEC
  0
EOF
