  0
SECTION
  2
HEADER
  9
$ACADVER
  1
AC1021
  9
$ACADMAINTVER
 70
     1
  9
$DWGCODEPAGE
  3
ANSI_1252
  9
$LASTSAVEDBY
  1
dhamzab
  9
$INSBASE
 10
0.0
 20
0.0
 30
0.0
  9
$EXTMIN
 10
1671.499909257496
 20
0.0
 30
0.0
  9
$EXTMAX
 10
5835.0
 20
4098.32452769575
 30
0.0
  9
$LIMMIN
 10
0.0
 20
0.0
  9
$LIMMAX
 10
7780.0
 20
5320.0
  9
$ORTHOMODE
 70
     1
  9
$REGENMODE
 70
     1
  9
$FILLMODE
 70
     1
  9
$QTEXTMODE
 70
     0
  9
$MIRRTEXT
 70
     0
  9
$LTSCALE
 40
100.0
  9
$ATTMODE
 70
     1
  9
$TEXTSIZE
 40
45.0
  9
$TRACEWID
 40
0.05
  9
$TEXTSTYLE
  7
TITLE3
  9
$CLAYER
  8
TEXT
  9
$CELTYPE
  6
ByLayer
  9
$CECOLOR
 62
   256
  9
$CELTSCALE
 40
1.0
  9
$DISPSILH
 70
     0
  9
$DIMSCALE
 40
1.0
  9
$DIMASZ
 40
45.0
  9
$DIMEXO
 40
30.0
  9
$DIMDLI
 40
0.38
  9
$DIMRND
 40
0.0
  9
$DIMDLE
 40
0.0
  9
$DIMEXE
 40
30.0
  9
$DIMTP
 40
0.0
  9
$DIMTM
 40
0.0
  9
$DIMTXT
 40
45.0
  9
$DIMCEN
 40
0.09
  9
$DIMTSZ
 40
0.0
  9
$DIMTOL
 70
     0
  9
$DIMLIM
 70
     0
  9
$DIMTIH
 70
     0
  9
$DIMTOH
 70
     0
  9
$DIMSE1
 70
     0
  9
$DIMSE2
 70
     0
  9
$DIMTAD
 70
     0
  9
$DIMZIN
 70
     0
  9
$DIMBLK
  1

  9
$DIMASO
 70
     0
  9
$DIMSHO
 70
     0
  9
$DIMPOST
  1

  9
$DIMAPOST
  1

  9
$DIMALT
 70
     0
  9
$DIMALTD
 70
     2
  9
$DIMALTF
 40
25.4
  9
$DIMLFAC
 40
1.0
  9
$DIMTOFL
 70
     0
  9
$DIMTVP
 40
0.0
  9
$DIMTIX
 70
     0
  9
$DIMSOXD
 70
     0
  9
$DIMSAH
 70
     0
  9
$DIMBLK1
  1

  9
$DIMBLK2
  1

  9
$DIMSTYLE
  2
STANDARD
  9
$DIMCLRD
 70
    52
  9
$DIMCLRE
 70
    52
  9
$DIMCLRT
 70
    50
  9
$DIMTFAC
 40
1.0
  9
$DIMGAP
 40
30.0
  9
$DIMJUST
 70
     0
  9
$DIMSD1
 70
     0
  9
$DIMSD2
 70
     0
  9
$DIMTOLJ
 70
     1
  9
$DIMTZIN
 70
     0
  9
$DIMALTZ
 70
     0
  9
$DIMALTTZ
 70
     0
  9
$DIMUPT
 70
     0
  9
$DIMDEC
 70
     4
  9
$DIMTDEC
 70
     4
  9
$DIMALTU
 70
     2
  9
$DIMALTTD
 70
     2
  9
$DIMTXSTY
  7
STANDARD
  9
$DIMAUNIT
 70
     0
  9
$DIMADEC
 70
     0
  9
$DIMALTRND
 40
0.0
  9
$DIMAZIN
 70
     0
  9
$DIMDSEP
 70
    46
  9
$DIMATFIT
 70
     3
  9
$DIMFRAC
 70
     0
  9
$DIMLDRBLK
  1

  9
$DIMLUNIT
 70
     2
  9
$DIMLWD
 70
    -2
  9
$DIMLWE
 70
    -2
  9
$DIMTMOVE
 70
     0
  9
$DIMFXL
 40
1.0
  9
$DIMFXLON
 70
     0
  9
$DIMJOGANG
 40
0.7853981633974483
  9
$DIMTFILL
 70
     0
  9
$DIMTFILLCLR
 70
     0
  9
$DIMARCSYM
 70
     0
  9
$DIMLTYPE
  6

  9
$DIMLTEX1
  6

  9
$DIMLTEX2
  6

  9
$LUNITS
 70
     2
  9
$LUPREC
 70
     2
  9
$SKETCHINC
 40
0.1
  9
$FILLETRAD
 40
0.0
  9
$AUNITS
 70
     0
  9
$AUPREC
 70
     2
  9
$MENU
  1
\acad12\support\cnc
  9
$ELEVATION
 40
0.0
  9
$PELEVATION
 40
0.0
  9
$THICKNESS
 40
0.0
  9
$LIMCHECK
 70
     0
  9
$CHAMFERA
 40
0.0
  9
$CHAMFERB
 40
0.0
  9
$CHAMFERC
 40
0.0
  9
$CHAMFERD
 40
0.0
  9
$SKPOLY
 70
     0
  9
$TDCREATE
 40
2451402.555821528
  9
$TDUCREATE
 40
2451402.055821528
  9
$TDUPDATE
 40
2454285.373260000
  9
$TDUUPDATE
 40
2454284.873260000
  9
$TDINDWG
 40
0.3445625116
  9
$TDUSRTIMER
 40
0.3445610764
  9
$USRTIMER
 70
     1
  9
$ANGBASE
 50
0.0
  9
$ANGDIR
 70
     0
  9
$PDMODE
 70
     2
  9
$PDSIZE
 40
15.0
  9
$PLINEWID
 40
0.0
  9
$SPLFRAME
 70
     0
  9
$SPLINETYPE
 70
     6
  9
$SPLINESEGS
 70
     8
  9
$HANDSEED
  5
111C
  9
$SURFTAB1
 70
     6
  9
$SURFTAB2
 70
     6
  9
$SURFTYPE
 70
     6
  9
$SURFU
 70
     6
  9
$SURFV
 70
     6
  9
$UCSBASE
  2

  9
$UCSNAME
  2

  9
$UCSORG
 10
0.0
 20
0.0
 30
0.0
  9
$UCSXDIR
 10
1.0
 20
0.0
 30
0.0
  9
$UCSYDIR
 10
0.0
 20
1.0
 30
0.0
  9
$UCSORTHOREF
  2

  9
$UCSORTHOVIEW
 70
     0
  9
$UCSORGTOP
 10
0.0
 20
0.0
 30
0.0
  9
$UCSORGBOTTOM
 10
0.0
 20
0.0
 30
0.0
  9
$UCSORGLEFT
 10
0.0
 20
0.0
 30
0.0
  9
$UCSORGRIGHT
 10
0.0
 20
0.0
 30
0.0
  9
$UCSORGFRONT
 10
0.0
 20
0.0
 30
0.0
  9
$UCSORGBACK
 10
0.0
 20
0.0
 30
0.0
  9
$PUCSBASE
  2

  9
$PUCSNAME
  2

  9
$PUCSORG
 10
0.0
 20
0.0
 30
0.0
  9
$PUCSXDIR
 10
1.0
 20
0.0
 30
0.0
  9
$PUCSYDIR
 10
0.0
 20
1.0
 30
0.0
  9
$PUCSORTHOREF
  2

  9
$PUCSORTHOVIEW
 70
     0
  9
$PUCSORGTOP
 10
0.0
 20
0.0
 30
0.0
  9
$PUCSORGBOTTOM
 10
0.0
 20
0.0
 30
0.0
  9
$PUCSORGLEFT
 10
0.0
 20
0.0
 30
0.0
  9
$PUCSORGRIGHT
 10
0.0
 20
0.0
 30
0.0
  9
$PUCSORGFRONT
 10
0.0
 20
0.0
 30
0.0
  9
$PUCSORGBACK
 10
0.0
 20
0.0
 30
0.0
  9
$USERI1
 70
     0
  9
$USERI2
 70
     0
  9
$USERI3
 70
     0
  9
$USERI4
 70
     0
  9
$USERI5
 70
     0
  9
$USERR1
 40
0.0
  9
$USERR2
 40
0.0
  9
$USERR3
 40
0.0
  9
$USERR4
 40
0.0
  9
$USERR5
 40
0.0
  9
$WORLDVIEW
 70
     1
  9
$SHADEDGE
 70
     3
  9
$SHADEDIF
 70
    70
  9
$TILEMODE
 70
     1
  9
$MAXACTVP
 70
    16
  9
$PINSBASE
 10
0.0
 20
0.0
 30
0.0
  9
$PLIMCHECK
 70
     0
  9
$PEXTMIN
 10
1.000000000000000E+20
 20
1.000000000000000E+20
 30
1.000000000000000E+20
  9
$PEXTMAX
 10
-1.000000000000000E+20
 20
-1.000000000000000E+20
 30
-1.000000000000000E+20
  9
$PLIMMIN
 10
0.0
 20
0.0
  9
$PLIMMAX
 10
12.0
 20
9.0
  9
$UNITMODE
 70
     0
  9
$VISRETAIN
 70
     0
  9
$PLINEGEN
 70
     0
  9
$PSLTSCALE
 70
     0
  9
$TREEDEPTH
 70
  3020
  9
$CMLSTYLE
  2
Standard
  9
$CMLJUST
 70
     0
  9
$CMLSCALE
 40
1.0
  9
$PROXYGRAPHICS
 70
     1
  9
$MEASUREMENT
 70
     0
  9
$CELWEIGHT
370
    -1
  9
$ENDCAPS
280
     0
  9
$JOINSTYLE
280
     0
  9
$LWDISPLAY
290
     0
  9
$INSUNITS
 70
     0
  9
$HYPERLINKBASE
  1

  9
$STYLESHEET
  1

  9
$XEDIT
290
     1
  9
$CEPSNTYPE
380
     0
  9
$PSTYLEMODE
290
     1
  9
$FINGERPRINTGUID
  2
{BA79F632-6E6D-4006-838A-916A49803F07}
  9
$VERSIONGUID
  2
{C9E3BB7B-D8FA-42C2-A5CA-1F96B6BA626D}
  9
$EXTNAMES
290
     1
  9
$PSVPSCALE
 40
0.0
  9
$OLESTARTUP
290
     0
  9
$SORTENTS
280
   127
  9
$INDEXCTL
280
     0
  9
$HIDETEXT
280
     0
  9
$XCLIPFRAME
290
     0
  9
$HALOGAP
280
     0
  9
$OBSCOLOR
 70
   257
  9
$OBSLTYPE
280
     0
  9
$INTERSECTIONDISPLAY
280
     0
  9
$INTERSECTIONCOLOR
 70
   257
  9
$DIMASSOC
280
     0
  9
$PROJECTNAME
  1

  9
$CAMERADISPLAY
290
     0
  9
$LENSLENGTH
 40
50.0
  9
$CAMERAHEIGHT
 40
0.0
  9
$STEPSPERSEC
 40
2.0
  9
$STEPSIZE
 40
6.0
  9
$3DDWFPREC
 40
2.0
  9
$PSOLWIDTH
 40
0.25
  9
$PSOLHEIGHT
 40
4.0
  9
$LOFTANG1
 40
1.570796326794896
  9
$LOFTANG2
 40
1.570796326794896
  9
$LOFTMAG1
 40
0.0
  9
$LOFTMAG2
 40
0.0
  9
$LOFTPARAM
 70
     7
  9
$LOFTNORMALS
280
     1
  9
$LATITUDE
 40
37.795
  9
$LONGITUDE
 40
-122.394
  9
$NORTHDIRECTION
 40
0.0
  9
$TIMEZONE
 70
 -8000
  9
$LIGHTGLYPHDISPLAY
280
     1
  9
$TILEMODELIGHTSYNCH
280
     1
  9
$CMATERIAL
347
1028
  9
$SOLIDHIST
280
     1
  9
$SHOWHIST
280
     1
  9
$DWFFRAME
280
     2
  9
$DGNFRAME
280
     0
  9
$REALWORLDSCALE
290
     1
  9
$INTERFERECOLOR
 62
     1
  9
$INTERFEREOBJVS
345
1035
  9
$INTERFEREVPVS
346
1032
  9
$CSHADOW
280
     0
  9
$SHADOWPLANELOCATION
 40
0.0
  0
ENDSEC
  0
SECTION
  2
CLASSES
  0
CLASS
  1
ACDBDICTIONARYWDFLT
  2
AcDbDictionaryWithDefault
  3
ObjectDBX Classes
 90
        0
 91
        1
280
     0
281
     0
  0
CLASS
  1
MATERIAL
  2
AcDbMaterial
  3
ObjectDBX Classes
 90
     1024
 91
        3
280
     0
281
     0
  0
CLASS
  1
VISUALSTYLE
  2
AcDbVisualStyle
  3
ObjectDBX Classes
 90
     4095
 91
       16
280
     0
281
     0
  0
CLASS
  1
TABLESTYLE
  2
AcDbTableStyle
  3
ObjectDBX Classes
 90
     4095
 91
        1
280
     0
281
     0
  0
CLASS
  1
DICTIONARYVAR
  2
AcDbDictionaryVar
  3
ObjectDBX Classes
 90
        0
 91
        1
280
     0
281
     0
  0
CLASS
  1
SORTENTSTABLE
  2
AcDbSortentsTable
  3
ObjectDBX Classes
 90
        0
 91
        1
280
     0
281
     0
  0
ENDSEC
  0
SECTION
  2
TABLES
  0
TABLE
  2
VPORT
  5
101F
330
0
100
AcDbSymbolTable
 70
     1
  0
VPORT
  5
1053
330
101F
100
AcDbSymbolTableRecord
100
AcDbViewportTableRecord
  2
*ACTIVE
 70
     0
 10
0.0
 20
0.0
 11
1.0
 21
1.0
 12
3774.184525073353
 22
2049.098358152878
 13
0.0
 23
0.0
 14
50.0
 24
50.0
 15
100.0
 25
100.0
 16
0.0
 26
0.0
 36
1.0
 17
0.0
 27
0.0
 37
0.0
 40
4138.702818293368
 41
1.550247116968698
 42
50.0
 43
0.0
 44
0.0
 50
0.0
 51
0.0
 71
     0
 72
   100
 73
     1
 74
     0
 75
     0
 76
     0
 77
     0
 78
     0
281
     0
 65
     1
110
0.0
120
0.0
130
0.0
111
1.0
121
0.0
131
0.0
112
0.0
122
1.0
132
0.0
 79
     0
146
0.0
348
1031
 60
     3
 61
     5
292
     1
282
     0
141
0.0
142
0.0
 63
   250
421
  3355443
  0
ENDTAB
  0
TABLE
  2
LTYPE
  5
101C
330
0
100
AcDbSymbolTable
 70
     2
  0
LTYPE
  5
103F
330
101C
100
AcDbSymbolTableRecord
100
AcDbLinetypeTableRecord
  2
ByBlock
 70
     0
  3

 72
    65
 73
     0
 40
0.0
  0
LTYPE
  5
1040
330
101C
100
AcDbSymbolTableRecord
100
AcDbLinetypeTableRecord
  2
ByLayer
 70
     0
  3

 72
    65
 73
     0
 40
0.0
  0
LTYPE
  5
1041
330
101C
100
AcDbSymbolTableRecord
100
AcDbLinetypeTableRecord
  2
CONTINUOUS
 70
     0
  3
Solid line
 72
    65
 73
     0
 40
0.0
  0
LTYPE
  5
1054
330
101C
100
AcDbSymbolTableRecord
100
AcDbLinetypeTableRecord
  2
PHANTOM
 70
     0
  3
______  __  __  ______  __  __  ______  __  __ 
 72
    65
 73
     6
 40
2.5
 49
1.25
 74
     0
 49
-0.25
 74
     0
 49
0.25
 74
     0
 49
-0.25
 74
     0
 49
0.25
 74
     0
 49
-0.25
 74
     0
  0
ENDTAB
  0
TABLE
  2
LAYER
  5
1019
102
{ACAD_XDICTIONARY
360
1096
102
}
330
0
100
AcDbSymbolTable
 70
     7
  0
LAYER
  5
103C
330
1019
100
AcDbSymbolTableRecord
100
AcDbLayerTableRecord
  2
0
 70
     0
 62
     7
  6
CONTINUOUS
370
    -3
390
1026
347
102A
  0
LAYER
  5
1051
330
1019
100
AcDbSymbolTableRecord
100
AcDbLayerTableRecord
  2
OUTLINE
 70
     0
 62
     7
  6
CONTINUOUS
370
    -3
390
1026
347
102A
  0
LAYER
  5
1055
330
1019
100
AcDbSymbolTableRecord
100
AcDbLayerTableRecord
  2
TEXT
 70
     0
 62
   100
  6
CONTINUOUS
370
    -3
390
1026
347
102A
  0
LAYER
  5
1056
330
1019
100
AcDbSymbolTableRecord
100
AcDbLayerTableRecord
  2
DIM
 70
     0
 62
     2
  6
CONTINUOUS
370
    -3
390
1026
347
102A
  0
LAYER
  5
1057
330
1019
100
AcDbSymbolTableRecord
100
AcDbLayerTableRecord
  2
MTG-FEET
 70
     0
 62
    30
  6
CONTINUOUS
370
    -3
390
1026
347
102A
  0
LAYER
  5
1058
330
1019
100
AcDbSymbolTableRecord
100
AcDbLayerTableRecord
  2
OVERLAY-A3
 70
     0
 62
     7
  6
CONTINUOUS
370
    -3
390
1026
347
102A
  0
LAYER
  5
1059
330
1019
100
AcDbSymbolTableRecord
100
AcDbLayerTableRecord
  2
CLEAR
 70
     0
 62
     1
  6
PHANTOM
370
    -3
390
1026
347
102A
  0
ENDTAB
  0
TABLE
  2
STYLE
  5
101A
330
0
100
AcDbSymbolTable
 70
     4
  0
STYLE
  5
103D
330
101A
100
AcDbSymbolTableRecord
100
AcDbTextStyleTableRecord
  2
STANDARD
 70
     0
 40
0.0
 41
1.0
 50
0.0
 71
     0
 42
0.2
  3
txt
  4

  0
STYLE
  5
1052
330
101A
100
AcDbSymbolTableRecord
100
AcDbTextStyleTableRecord
  2
TITLE3
 70
     0
 40
45.0
 41
1.0
 50
0.0
 71
     0
 42
45.0
  3
SIMPLEX
  4

  0
STYLE
  5
105A
330
101A
100
AcDbSymbolTableRecord
100
AcDbTextStyleTableRecord
  2
TITLE5
 70
     0
 40
75.0
 41
1.0
 50
0.0
 71
     0
 42
100.0
  3
SIMPLEX
  4

  0
STYLE
  5
105B
330
101A
100
AcDbSymbolTableRecord
100
AcDbTextStyleTableRecord
  2
SIMPLEX
 70
     0
 40
60.0
 41
1.0
 50
0.0
 71
     0
 42
60.0
  3
simplex
  4

  0
ENDTAB
  0
TABLE
  2
VIEW
  5
101D
330
0
100
AcDbSymbolTable
 70
     0
  0
ENDTAB
  0
TABLE
  2
UCS
  5
101E
330
0
100
AcDbSymbolTable
 70
     0
  0
ENDTAB
  0
TABLE
  2
APPID
  5
1020
330
0
100
AcDbSymbolTable
 70
     2
  0
APPID
  5
103E
330
1020
100
AcDbSymbolTableRecord
100
AcDbRegAppTableRecord
  2
ACAD
 70
     0
  0
APPID
  5
108D
330
1020
100
AcDbSymbolTableRecord
100
AcDbRegAppTableRecord
  2
ACAD_PSEXT
 70
     0
  0
ENDTAB
  0
TABLE
  2
DIMSTYLE
  5
1021
330
0
100
AcDbSymbolTable
 70
     1
100
AcDbDimStyleTable
 71
     1
340
105C
  0
DIMSTYLE
105
105C
330
1021
100
AcDbSymbolTableRecord
100
AcDbDimStyleTableRecord
  2
STANDARD
 70
     0
271
     2
272
     2
279
     2
340
1052
  0
ENDTAB
  0
TABLE
  2
BLOCK_RECORD
  5
1018
330
0
100
AcDbSymbolTable
 70
     4
  0
BLOCK_RECORD
  5
104D
102
{ACAD_XDICTIONARY
360
106A
102
}
330
1018
100
AcDbSymbolTableRecord
100
AcDbBlockTableRecord
  2
*Model_Space
340
1050
 70
     0
280
     1
281
     0
  0
BLOCK_RECORD
  5
1049
330
1018
100
AcDbSymbolTableRecord
100
AcDbBlockTableRecord
  2
*Paper_Space
340
104C
 70
     0
280
     1
281
     0
  0
BLOCK_RECORD
  5
105F
330
1018
100
AcDbSymbolTableRecord
100
AcDbBlockTableRecord
  2
$MODEL_SPACE
340
0
 70
     0
280
     1
281
     0
  0
BLOCK_RECORD
  5
1061
330
1018
100
AcDbSymbolTableRecord
100
AcDbBlockTableRecord
  2
$PAPER_SPACE
340
0
 70
     0
280
     1
281
     0
  0
BLOCK_RECORD
  5
1063
330
1018
100
AcDbSymbolTableRecord
100
AcDbBlockTableRecord
  2
LINES
340
0
102
{BLKREFS
331
FCE
102
}
 70
     0
280
     1
281
     0
  0
BLOCK_RECORD
  5
1065
330
1018
100
AcDbSymbolTableRecord
100
AcDbBlockTableRecord
  2
NEW_BLOCK
340
0
 70
     0
280
     1
281
     0
  0
ENDTAB
  0
ENDSEC
  0
SECTION
  2
BLOCKS
  0
BLOCK
  5
104E
330
104D
100
AcDbEntity
  8
0
100
AcDbBlockBegin
  2
*Model_Space
 70
     0
 10
0.0
 20
0.0
 30
0.0
  3
*Model_Space
  1

  0
ENDBLK
  5
104F
330
104D
100
AcDbEntity
  8
0
100
AcDbBlockEnd
  0
BLOCK
  5
104A
330
1049
100
AcDbEntity
 67
     1
  8
0
100
AcDbBlockBegin
  2
*Paper_Space
 70
     0
 10
0.0
 20
0.0
 30
0.0
  3
*Paper_Space
  1

  0
ENDBLK
  5
104B
330
1049
100
AcDbEntity
 67
     1
  8
0
100
AcDbBlockEnd
  0
BLOCK
  5
1060
330
105F
100
AcDbEntity
  8
0
100
AcDbBlockBegin
  2
$MODEL_SPACE
 70
     0
 10
0.0
 20
0.0
 30
0.0
  3
$MODEL_SPACE
  1

  0
ENDBLK
  5
F4F
330
105F
100
AcDbEntity
  8
0
100
AcDbBlockEnd
  0
BLOCK
  5
1062
330
1061
100
AcDbEntity
  8
0
100
AcDbBlockBegin
  2
$PAPER_SPACE
 70
     0
 10
0.0
 20
0.0
 30
0.0
  3
$PAPER_SPACE
  1

  0
ENDBLK
  5
F4B
330
1061
100
AcDbEntity
  8
0
100
AcDbBlockEnd
  0
BLOCK
  5
1064
330
1063
100
AcDbEntity
  8
0
100
AcDbBlockBegin
  2
LINES
 70
     0
 10
0.0
 20
0.0
 30
0.0
  3
LINES
  1

  0
ENDBLK
  5
F67
330
1063
100
AcDbEntity
  8
0
100
AcDbBlockEnd
  0
BLOCK
  5
1066
330
1065
100
AcDbEntity
  8
0
100
AcDbBlockBegin
  2
NEW_BLOCK
 70
     0
 10
0.0
 20
0.0
 30
0.0
  3
NEW_BLOCK
  1

  0
TEXT
  5
F6A
330
1065
100
AcDbEntity
  8
TEXT
100
AcDbText
 10
27.285946821803
 20
25.27142175952417
 30
0.0
 40
40.0
  1
available on request
  7
TITLE3
100
AcDbText
  0
TEXT
  5
F6B
330
1065
100
AcDbEntity
  8
TEXT
100
AcDbText
 10
27.285946821803
 20
93.84285033095272
 30
0.0
 40
40.0
  1
Certified dimensions
  7
TITLE3
100
AcDbText
  0
TEXT
  5
F6C
330
1065
100
AcDbEntity
  8
TEXT
100
AcDbText
 10
27.285946821803
 20
162.4142789023812
 30
0.0
 40
40.0
  1
without notice or obligation.
  7
TITLE3
100
AcDbText
  0
TEXT
  5
F6D
330
1065
100
AcDbEntity
  8
TEXT
100
AcDbText
 10
27.285946821803
 20
230.9857074738097
 30
0.0
 40
40.0
  1
specifications at any time
  7
TITLE3
100
AcDbText
  0
TEXT
  5
F6E
330
1065
100
AcDbEntity
  8
TEXT
100
AcDbText
 10
27.285946821803
 20
299.5571360452384
 30
0.0
 40
40.0
  1
the right to change 
  7
TITLE3
100
AcDbText
  0
TEXT
  5
F6F
330
1065
100
AcDbEntity
  8
TEXT
100
AcDbText
 10
27.285946821803
 20
436.6999931880953
 30
0.0
 40
40.0
  1
NOTE
  7
TITLE3
100
AcDbText
  0
TEXT
  5
F70
330
1065
100
AcDbEntity
  8
TEXT
100
AcDbText
 10
27.285946821803
 20
368.1285646166668
 30
0.0
 40
40.0
  1
The manufacturer reserves
  7
TITLE3
100
AcDbText
  0
ENDBLK
  5
F71
330
1065
100
AcDbEntity
  8
0
100
AcDbBlockEnd
  0
ENDSEC
  0
SECTION
  2
ENTITIES
  0
LINE
  5
F72
330
104D
100
AcDbEntity
  8
OUTLINE
100
AcDbLine
 10
2099.046399703087
 20
3323.783084007104
 30
0.0
 11
2099.046399703087
 21
3699.783084007104
 31
0.0
  0
LINE
  5
F73
330
104D
100
AcDbEntity
  8
OUTLINE
100
AcDbLine
 10
2099.046399703087
 20
403.2081936035568
 30
0.0
 11
3222.046399703086
 21
403.2081936035568
 31
0.0
  0
LINE
  5
F74
330
104D
100
AcDbEntity
  8
OUTLINE
100
AcDbLine
 10
2099.046399703087
 20
1338.208193603557
 30
0.0
 11
3222.046399703086
 21
1338.208193603557
 31
0.0
  0
LINE
  5
F75
330
104D
100
AcDbEntity
  8
OUTLINE
100
AcDbLine
 10
2099.046399703087
 20
3323.783084007104
 30
0.0
 11
3222.046399703086
 21
3323.783084007104
 31
0.0
  0
LINE
  5
F76
330
104D
100
AcDbEntity
  8
OUTLINE
100
AcDbLine
 10
2099.046399703087
 20
1338.208193603557
 30
0.0
 11
2099.046399703087
 21
403.2081936035568
 31
0.0
  0
LINE
  5
F77
330
104D
100
AcDbEntity
  8
OUTLINE
100
AcDbLine
 10
2099.046399703087
 20
3699.783084007104
 30
0.0
 11
3222.046399703086
 21
3699.783084007104
 31
0.0
  0
TEXT
  5
F78
330
104D
100
AcDbEntity
  8
TEXT
100
AcDbText
 10
4408.214285714286
 20
407.0628889743566
 30
0.0
 40
75.0
  1
temperzone OSA 160
  7
TITLE5
 72
     1
 11
5010.0
 21
407.0628889743566
 31
0.0
100
AcDbText
  0
TEXT
  5
F79
330
104D
100
AcDbEntity
  8
TEXT
100
AcDbText
 10
5167.207040051012
 20
106.9986799601034
 30
0.0
 40
40.49999999999999
  1
OSA160
 41
1.780701754385964
  7
TITLE3
 72
     5
 11
5558.707040051012
 21
106.9986799601034
 31
0.0
100
AcDbText
  0
LINE
  5
F7B
330
104D
100
AcDbEntity
  8
OUTLINE
100
AcDbLine
 10
5388.229283568917
 20
3323.783084007104
 30
0.0
 11
5388.229283568917
 21
3699.783084007102
 31
0.0
  0
LINE
  5
F7C
330
104D
100
AcDbEntity
  8
OUTLINE
100
AcDbLine
 10
4445.229283568915
 20
3323.783084007104
 30
0.0
 11
4445.229283568917
 21
3699.783084007104
 31
0.0
  0
LINE
  5
F7D
330
104D
100
AcDbEntity
  8
OUTLINE
100
AcDbLine
 10
3222.046399703085
 20
3323.783084007104
 30
0.0
 11
3222.046399703085
 21
3699.783084007104
 31
0.0
  0
LINE
  5
F7F
330
104D
100
AcDbEntity
  8
OUTLINE
100
AcDbLine
 10
3222.046399703086
 20
1338.208193603557
 30
0.0
 11
3222.046399703086
 21
403.2081936035568
 31
0.0
  0
TEXT
  5
F80
330
104D
100
AcDbEntity
  8
DIM
100
AcDbText
 10
2676.630342582567
 20
3093.05639797258
 30
0.0
 40
45.0
  1
FLOW
 50
90.0
  7
SIMPLEX
100
AcDbText
  0
TEXT
  5
F81
330
104D
100
AcDbEntity
  8
DIM
100
AcDbText
 10
2557.998061159651
 20
3087.380428787573
 30
0.0
 40
45.0
  1
AIR
 50
90.0
  7
SIMPLEX
100
AcDbText
  0
LINE
  5
F82
330
104D
100
AcDbEntity
  8
DIM
100
AcDbLine
 10
2604.866581200213
 20
3061.039119522063
 30
0.0
 11
2604.866581200213
 21
3122.758410860649
 31
0.0
  0
LINE
  5
F83
330
104D
100
AcDbEntity
  8
DIM
100
AcDbLine
 10
2632.087359609184
 20
3061.039119522063
 30
0.0
 11
2604.866581200213
 21
3061.039119522063
 31
0.0
  0
LINE
  5
F84
330
104D
100
AcDbEntity
  8
DIM
100
AcDbLine
 10
2592.205754033246
 20
3028.28041873466
 30
0.0
 11
2632.087359609184
 21
3061.039119522063
 31
0.0
  0
LINE
  5
F85
330
104D
100
AcDbEntity
  8
DIM
100
AcDbLine
 10
2579.544926866284
 20
3122.758410860649
 30
0.0
 11
2604.866581200213
 21
3122.758410860649
 31
0.0
  0
LINE
  5
F86
330
104D
100
AcDbEntity
  8
DIM
100
AcDbLine
 10
2579.544926866284
 20
3061.039119522063
 30
0.0
 11
2579.544926866284
 21
3122.758410860649
 31
0.0
  0
LINE
  5
F87
330
104D
100
AcDbEntity
  8
DIM
100
AcDbLine
 10
2552.324148457312
 20
3061.039119522063
 30
0.0
 11
2579.544926866284
 21
3061.039119522063
 31
0.0
  0
LINE
  5
F88
330
104D
100
AcDbEntity
  8
DIM
100
AcDbLine
 10
2592.205754033246
 20
3028.28041873466
 30
0.0
 11
2552.324148457312
 21
3061.039119522063
 31
0.0
  0
LINE
  5
F89
330
104D
100
AcDbEntity
  8
DIM
100
AcDbLine
 10
3223.246399703089
 20
1368.208193603557
 30
0.0
 11
3223.246399703089
 21
1550.340334220633
 31
0.0
  0
LINE
  5
F8A
330
104D
100
AcDbEntity
  8
DIM
100
AcDbLine
 10
2097.846399703087
 20
1368.208193603557
 30
0.0
 11
2097.846399703087
 21
1550.340334220633
 31
0.0
  0
LINE
  5
F8B
330
104D
100
AcDbEntity
  8
DIM
100
AcDbLine
 10
3178.246399703086
 20
1520.340334220633
 30
0.0
 11
2728.289898323739
 21
1520.340334220633
 31
0.0
  0
LINE
  5
F8C
330
104D
100
AcDbEntity
  8
DIM
100
AcDbLine
 10
2142.846399703088
 20
1520.340334220633
 30
0.0
 11
2526.861326895165
 21
1520.340334220633
 31
0.0
  0
SOLID
  5
F8D
330
104D
100
AcDbEntity
  8
DIM
100
AcDbTrace
 10
3178.246399703086
 20
1527.840334220633
 30
0.0
 11
3178.246399703086
 21
1512.840334220634
 31
0.0
 12
3223.246399703089
 22
1520.340334220633
 32
0.0
 13
3223.246399703089
 23
1520.340334220633
 33
0.0
  0
SOLID
  5
F8E
330
104D
100
AcDbEntity
  8
DIM
100
AcDbTrace
 10
2142.846399703088
 20
1527.840334220633
 30
0.0
 11
2142.846399703088
 21
1512.840334220634
 31
0.0
 12
2097.846399703087
 22
1520.340334220633
 32
0.0
 13
2097.846399703087
 23
1520.340334220633
 33
0.0
  0
TEXT
  5
F8F
330
104D
100
AcDbEntity
  8
DIM
100
AcDbText
 10
2556.861326895161
 20
1497.840334220633
 30
0.0
 40
45.0
  1
1123
  7
TITLE3
 72
     1
 11
2627.575612609447
 21
1520.340334220633
 31
0.0
100
AcDbText
 73
     2
  0
LINE
  5
F90
330
104D
100
AcDbEntity
  8
DIM
100
AcDbLine
 10
3253.246399703086
 20
1338.208193603557
 30
0.0
 11
3474.906092086058
 21
1338.208193603557
 31
0.0
  0
LINE
  5
F91
330
104D
100
AcDbEntity
  8
DIM
100
AcDbLine
 10
3124.683720837192
 20
370.2081936035572
 30
0.0
 11
3474.906092086058
 21
370.2081936035572
 31
0.0
  0
LINE
  5
F92
330
104D
100
AcDbEntity
  8
DIM
100
AcDbLine
 10
3444.906092086057
 20
1293.208193603558
 30
0.0
 11
3444.906092086057
 21
991.9911718704359
 31
0.0
  0
LINE
  5
F93
330
104D
100
AcDbEntity
  8
DIM
100
AcDbLine
 10
3444.906092086057
 20
415.208193603557
 30
0.0
 11
3444.906092086057
 21
794.1719255888742
 31
0.0
  0
SOLID
  5
F94
330
104D
100
AcDbEntity
  8
DIM
100
AcDbTrace
 10
3437.406092086058
 20
1293.208193603558
 30
0.0
 11
3452.406092086058
 21
1293.208193603558
 31
0.0
 12
3444.906092086057
 22
1338.208193603557
 32
0.0
 13
3444.906092086057
 23
1338.208193603557
 33
0.0
  0
SOLID
  5
F95
330
104D
100
AcDbEntity
  8
DIM
100
AcDbTrace
 10
3437.406092086058
 20
415.208193603557
 30
0.0
 11
3452.406092086058
 21
415.208193603557
 31
0.0
 12
3444.906092086057
 22
370.2081936035572
 32
0.0
 13
3444.906092086057
 23
370.2081936035572
 33
0.0
  0
TEXT
  5
F96
330
104D
100
AcDbEntity
  8
DIM
100
AcDbText
 10
3467.406092086057
 20
836.9945519758783
 30
0.0
 40
45.0
  1
968
 50
90.0
  7
TITLE3
 72
     4
 11
3444.906092086057
 21
894.8516948330212
 31
0.0
100
AcDbText
  0
LINE
  5
F97
330
104D
100
AcDbEntity
  8
DIM
100
AcDbLine
 10
2324.045569117084
 20
355.404597036304
 30
0.0
 11
2324.045569117084
 21
126.3442674348252
 31
0.0
  0
LINE
  5
F99
330
104D
100
AcDbEntity
  8
DIM
100
AcDbLine
 10
2369.045569117084
 20
156.3442674348251
 30
0.0
 11
2591.104594158991
 21
156.3442674348251
 31
0.0
  0
LINE
  5
F9A
330
104D
100
AcDbEntity
  8
DIM
100
AcDbLine
 10
2979.04723028909
 20
156.3442674348251
 30
0.0
 11
2977.810685417372
 21
156.3442674348251
 31
0.0
  0
SOLID
  5
F9B
330
104D
100
AcDbEntity
  8
DIM
100
AcDbTrace
 10
2369.045569117084
 20
163.8442674348251
 30
0.0
 11
2369.045569117084
 21
148.8442674348252
 31
0.0
 12
2324.045569117084
 22
156.3442674348251
 32
0.0
 13
2324.045569117084
 23
156.3442674348251
 33
0.0
  0
SOLID
  5
F9C
330
104D
100
AcDbEntity
  8
DIM
100
AcDbTrace
 10
2979.04723028909
 20
163.8442674348251
 30
0.0
 11
2979.04723028909
 21
148.8442674348252
 31
0.0
 12
3024.04723028909
 22
156.3442674348251
 32
0.0
 13
3024.04723028909
 23
156.3442674348251
 33
0.0
  0
TEXT
  5
F9D
330
104D
100
AcDbEntity
  8
DIM
100
AcDbText
 10
2617.927878331766
 20
133.8442674348251
 30
0.0
 40
45.0
  1
700
  7
TITLE3
 72
     1
 11
2675.785021188908
 21
156.3442674348251
 31
0.0
100
AcDbText
 73
     2
  0
LINE
  5
F9E
330
104D
100
AcDbEntity
  8
DIM
100
AcDbLine
 10
3024.04723028909
 20
355.404597036304
 30
0.0
 11
3024.04723028909
 21
126.3442674348252
 31
0.0
  0
LINE
  5
F9F
330
104D
100
AcDbEntity
  8
DIM
100
AcDbLine
 10
3222.046399703086
 20
389.8081936035572
 30
0.0
 11
3222.046399703086
 21
126.3442674348252
 31
0.0
  0
LINE
  5
FA0
330
104D
100
AcDbEntity
  8
DIM
100
AcDbLine
 10
2756.798288255799
 20
156.3442674348251
 30
0.0
 11
3024.04723028909
 21
156.3442674348251
 31
0.0
  0
LINE
  5
FA1
330
104D
100
AcDbEntity
  8
DIM
100
AcDbLine
 10
3267.046399703087
 20
156.3442674348251
 30
0.0
 11
3312.046399703086
 21
156.3442674348251
 31
0.0
  0
SOLID
  5
FA2
330
104D
100
AcDbEntity
  8
DIM
100
AcDbTrace
 10
2979.04723028909
 20
163.8442674348251
 30
0.0
 11
2979.04723028909
 21
148.8442674348252
 31
0.0
 12
3024.04723028909
 22
156.3442674348251
 32
0.0
 13
3024.04723028909
 23
156.3442674348251
 33
0.0
  0
SOLID
  5
FA3
330
104D
100
AcDbEntity
  8
DIM
100
AcDbTrace
 10
3267.046399703087
 20
163.8442674348251
 30
0.0
 11
3267.046399703087
 21
148.8442674348252
 31
0.0
 12
3222.046399703086
 22
156.3442674348251
 32
0.0
 13
3222.046399703086
 23
156.3442674348251
 33
0.0
  0
TEXT
  5
FA4
330
104D
100
AcDbEntity
  8
DIM
100
AcDbText
 10
3076.186998117592
 20
140.5782124531895
 30
0.0
 40
45.0
  1
198
  7
TITLE3
 72
     1
 11
3129.758426689021
 21
163.0782124531895
 31
0.0
100
AcDbText
 73
     2
  0
SOLID
  5
FA5
330
104D
100
AcDbEntity
  8
DIM
100
AcDbTrace
 10
2054.046399703087
 20
163.8442674348251
 30
0.0
 11
2054.046399703087
 21
148.8442674348252
 31
0.0
 12
2099.046399703087
 22
156.3442674348251
 32
0.0
 13
2099.046399703087
 23
156.3442674348251
 33
0.0
  0
LINE
  5
FA6
330
104D
100
AcDbEntity
  8
DIM
100
AcDbLine
 10
2099.046399703087
 20
389.8081936035572
 30
0.0
 11
2099.046399703087
 21
126.3442674348252
 31
0.0
  0
LINE
  5
FA7
330
104D
100
AcDbEntity
  8
DIM
100
AcDbLine
 10
2054.046399703087
 20
156.3442674348251
 30
0.0
 11
2009.046399703088
 21
156.3442674348251
 31
0.0
  0
TEXT
  5
FA8
330
104D
100
AcDbEntity
  8
DIM
100
AcDbText
 10
2157.099035683106
 20
138.53604151132
 30
0.0
 40
45.0
  1
225
  7
TITLE3
 72
     1
 11
2214.956178540249
 21
161.03604151132
 31
0.0
100
AcDbText
 73
     2
  0
LINE
  5
FA9
330
104D
100
AcDbEntity
  8
DIM
100
AcDbLine
 10
4415.229283568915
 20
3323.783084007104
 30
0.0
 11
4330.732660237464
 21
3323.783084007104
 31
0.0
  0
LINE
  5
FAA
330
104D
100
AcDbEntity
  8
DIM
100
AcDbLine
 10
4415.229283568915
 20
3699.783084007104
 30
0.0
 11
4330.732660237464
 21
3699.783084007104
 31
0.0
  0
LINE
  5
FAB
330
104D
100
AcDbEntity
  8
DIM
100
AcDbLine
 10
4360.732660237465
 20
3368.783084007104
 30
0.0
 11
4360.732660237465
 21
3443.861133115558
 31
0.0
  0
LINE
  5
FAC
330
104D
100
AcDbEntity
  8
DIM
100
AcDbLine
 10
4360.732660237465
 20
3654.783084007104
 30
0.0
 11
4360.732660237465
 21
3597.827914383497
 31
0.0
  0
SOLID
  5
FAD
330
104D
100
AcDbEntity
  8
DIM
100
AcDbTrace
 10
4353.232660237462
 20
3368.783084007104
 30
0.0
 11
4368.232660237462
 21
3368.783084007104
 31
0.0
 12
4360.732660237465
 22
3323.783084007104
 32
0.0
 13
4360.732660237465
 23
3323.783084007104
 33
0.0
  0
SOLID
  5
FAE
330
104D
100
AcDbEntity
  8
DIM
100
AcDbTrace
 10
4353.232660237462
 20
3654.783084007104
 30
0.0
 11
4368.232660237462
 21
3654.783084007104
 31
0.0
 12
4360.732660237465
 22
3699.783084007104
 32
0.0
 13
4360.732660237465
 23
3699.783084007104
 33
0.0
  0
TEXT
  5
FAF
330
104D
100
AcDbEntity
  8
DIM
100
AcDbText
 10
4383.232660237465
 20
3464.058809463813
 30
0.0
 40
45.0
  1
376
 50
90.0
  7
TITLE3
 72
     1
 11
4360.732660237465
 21
3520.844523749527
 31
0.0
100
AcDbText
 73
     2
  0
LINE
  5
FB0
330
104D
100
AcDbEntity
  8
OUTLINE
100
AcDbLine
 10
2269.345569117085
 20
3310.083084007104
 30
0.0
 11
2380.745569117084
 21
3310.083084007104
 31
0.0
  0
LINE
  5
FB1
330
104D
100
AcDbEntity
  8
OUTLINE
100
AcDbLine
 10
2259.745569117084
 20
3323.783084007104
 30
0.0
 11
2259.745569117084
 21
3319.683084007105
 31
0.0
  0
LINE
  5
FB2
330
104D
100
AcDbEntity
  8
OUTLINE
100
AcDbLine
 10
2259.745569117084
 20
3319.683084007105
 30
0.0
 11
2269.345569117085
 21
3310.083084007104
 31
0.0
  0
LINE
  5
FB3
330
104D
100
AcDbEntity
  8
OUTLINE
100
AcDbLine
 10
2390.345569117085
 20
3319.683084007105
 30
0.0
 11
2380.745569117084
 21
3310.083084007104
 31
0.0
  0
LINE
  5
FB4
330
104D
100
AcDbEntity
  8
OUTLINE
100
AcDbLine
 10
2390.345569117085
 20
3319.683084007106
 30
0.0
 11
2390.345569117085
 21
3323.783084007104
 31
0.0
  0
LINE
  5
FB5
330
104D
100
AcDbEntity
  8
OUTLINE
100
AcDbLine
 10
2311.045569117084
 20
3713.483084007104
 30
0.0
 11
2269.345569117085
 21
3713.483084007104
 31
0.0
  0
LINE
  5
FB6
330
104D
100
AcDbEntity
  8
OUTLINE
100
AcDbLine
 10
2259.745569117084
 20
3703.883084007104
 30
0.0
 11
2259.745569117084
 21
3699.783084007104
 31
0.0
  0
LINE
  5
FB7
330
104D
100
AcDbEntity
  8
OUTLINE
100
AcDbLine
 10
2259.745569117084
 20
3703.883084007104
 30
0.0
 11
2269.345569117085
 21
3713.483084007104
 31
0.0
  0
LINE
  5
FB8
330
104D
100
AcDbEntity
  8
OUTLINE
100
AcDbLine
 10
2390.345569117085
 20
3703.883084007104
 30
0.0
 11
2380.745569117084
 21
3713.483084007104
 31
0.0
  0
LINE
  5
FB9
330
104D
100
AcDbEntity
  8
OUTLINE
100
AcDbLine
 10
2380.745569117084
 20
3713.483084007104
 30
0.0
 11
2339.045569117082
 21
3713.483084007104
 31
0.0
  0
LINE
  5
FBA
330
104D
100
AcDbEntity
  8
OUTLINE
100
AcDbLine
 10
2311.045569117084
 20
3713.483084007104
 30
0.0
 11
2319.045569117085
 21
3705.483084007104
 31
0.0
  0
LINE
  5
FBB
330
104D
100
AcDbEntity
  8
OUTLINE
100
AcDbLine
 10
2339.045569117082
 20
3713.483084007104
 30
0.0
 11
2331.045569117082
 21
3705.483084007104
 31
0.0
  0
LINE
  5
FBC
330
104D
100
AcDbEntity
  8
OUTLINE
100
AcDbLine
 10
2319.045569117085
 20
3699.783084007104
 30
0.0
 11
2319.045569117085
 21
3705.483084007104
 31
0.0
  0
LINE
  5
FBD
330
104D
100
AcDbEntity
  8
OUTLINE
100
AcDbLine
 10
2331.045569117082
 20
3699.783084007104
 30
0.0
 11
2331.045569117082
 21
3705.483084007104
 31
0.0
  0
LINE
  5
FBE
330
104D
100
AcDbEntity
  8
OUTLINE
100
AcDbLine
 10
2390.345569117085
 20
3699.783084007104
 30
0.0
 11
2390.345569117085
 21
3703.883084007104
 31
0.0
  0
INSERT
  5
FCE
330
104D
100
AcDbEntity
  8
MTG-FEET
100
AcDbBlockReference
  2
LINES
 10
637.4231943994607
 20
2246.72940050912
 30
0.0
  0
LINE
  5
FCF
330
104D
100
AcDbEntity
  8
OUTLINE
100
AcDbLine
 10
5413.229283568915
 20
3303.283084007104
 30
0.0
 11
5413.229283568915
 21
3724.283084007105
 31
0.0
  0
LINE
  5
FD2
330
104D
100
AcDbEntity
  8
OUTLINE
100
AcDbLine
 10
5413.229283568915
 20
3303.283084007104
 30
0.0
 11
5411.229283568917
 21
3303.283084007104
 31
0.0
  0
LINE
  5
FD3
330
104D
100
AcDbEntity
  8
OUTLINE
100
AcDbLine
 10
5400.329283568916
 20
3329.50847755195
 30
0.0
 11
5388.229283568917
 21
3329.50847755195
 31
0.0
  0
LINE
  5
FD5
330
104D
100
AcDbEntity
  8
OUTLINE
100
AcDbLine
 10
5411.229283568917
 20
3724.283084007105
 30
0.0
 11
5413.229283568915
 21
3724.283084007105
 31
0.0
  0
LINE
  5
FD6
330
104D
100
AcDbEntity
  8
OUTLINE
100
AcDbLine
 10
5400.329283568916
 20
3692.983084007104
 30
0.0
 11
5388.229283568917
 21
3692.983084007104
 31
0.0
  0
LINE
  5
FD8
330
104D
100
AcDbEntity
  8
DIM
100
AcDbLine
 10
5443.229283568917
 20
3303.283084007104
 30
0.0
 11
5791.747031683215
 21
3303.283084007104
 31
0.0
  0
LINE
  5
FD9
330
104D
100
AcDbEntity
  8
DIM
100
AcDbLine
 10
5443.229283568917
 20
3724.283084007105
 30
0.0
 11
5791.747031683215
 21
3724.283084007105
 31
0.0
  0
LINE
  5
FDA
330
104D
100
AcDbEntity
  8
DIM
100
AcDbLine
 10
5761.747031683215
 20
3348.283084007104
 30
0.0
 11
5761.747031683215
 21
3443.77660500931
 31
0.0
  0
LINE
  5
FDB
330
104D
100
AcDbEntity
  8
DIM
100
AcDbLine
 10
5761.747031683215
 20
3587.956075024839
 30
0.0
 11
5761.747031683215
 21
3679.994749586197
 31
0.0
  0
SOLID
  5
FDC
330
104D
100
AcDbEntity
  8
DIM
100
AcDbTrace
 10
5754.247031683215
 20
3348.283084007104
 30
0.0
 11
5769.247031683214
 21
3348.283084007104
 31
0.0
 12
5761.747031683215
 22
3303.283084007104
 32
0.0
 13
5761.747031683215
 23
3303.283084007104
 33
0.0
  0
SOLID
  5
FDD
330
104D
100
AcDbEntity
  8
DIM
100
AcDbTrace
 10
5754.247031683215
 20
3679.283084007104
 30
0.0
 11
5769.247031683214
 21
3679.283084007104
 31
0.0
 12
5761.747031683215
 22
3724.283084007105
 32
0.0
 13
5761.747031683215
 23
3724.283084007105
 33
0.0
  0
TEXT
  5
FDE
330
104D
100
AcDbEntity
  8
DIM
100
AcDbText
 10
5779.319001435601
 20
3467.974816090396
 30
0.0
 40
36.0
  1
422
 50
90.0
  7
TITLE3
 72
     1
 11
5761.319001435601
 21
3514.260530376111
 31
0.0
100
AcDbText
 73
     2
  0
TEXT
  5
FDF
330
104D
100
AcDbEntity
  8
TEXT
100
AcDbText
 10
4445.57376917185
 20
165.0
 30
0.0
 40
45.0
  1
17.04.07
 41
0.8615384615384552
  7
TITLE3
 72
     5
 11
4685.573769171848
 21
165.0
 31
0.0
100
AcDbText
  0
TEXT
  5
FE0
330
104D
100
AcDbEntity
  8
OVERLAY-A3
100
AcDbText
 10
4272.345334441874
 20
166.2468207901514
 30
0.0
 40
36.0
  1
Date
  7
SIMPLEX
100
AcDbText
  0
TEXT
  5
FE1
330
104D
100
AcDbEntity
  8
OVERLAY-A3
100
AcDbText
 10
5619.166788560402
 20
194.2549530351168
 30
0.0
 40
36.0
  1
Revision
 41
0.7812095035934885
  7
SIMPLEX
 72
     5
 11
5777.194311001599
 21
194.2549530351168
 31
0.0
100
AcDbText
  0
LINE
  5
FE2
330
104D
100
AcDbEntity
  8
OVERLAY-A3
100
AcDbLine
 10
5601.737024985239
 20
31.2637392724757
 30
0.0
 11
5601.737024985239
 21
252.40298356282
 31
0.0
  0
LINE
  5
FE3
330
104D
100
AcDbEntity
  8
OVERLAY-A3
100
AcDbLine
 10
4229.027294185723
 20
505.8266282468323
 30
0.0
 11
4229.027294185723
 21
31.2637392724757
 31
0.0
  0
LINE
  5
FE4
330
104D
100
AcDbEntity
  8
OVERLAY-A3
100
AcDbLine
 10
5125.370517019641
 20
31.2637392724757
 30
0.0
 11
5125.370517019641
 21
252.40298356282
 31
0.0
  0
LINE
  5
FE5
330
104D
100
AcDbEntity
  8
OVERLAY-A3
100
AcDbLine
 10
5125.370517019639
 20
139.9688989041955
 30
0.0
 11
4229.027294185723
 21
139.9688989041955
 31
0.0
  0
LINE
  5
FE6
330
104D
100
AcDbEntity
  8
OVERLAY-A3
100
AcDbLine
 10
5792.363197856764
 20
252.40298356282
 30
0.0
 11
4229.027294185723
 21
252.40298356282
 31
0.0
  0
LINE
  5
FE7
330
104D
100
AcDbEntity
  8
OVERLAY-A3
100
AcDbLine
 10
4229.027294185723
 20
31.2637392724757
 30
0.0
 11
5791.916937089236
 21
31.2637392724757
 31
0.0
  0
LINE
  5
FE8
330
104D
100
AcDbEntity
  8
OVERLAY-A3
100
AcDbLine
 10
5791.916937089236
 20
31.2637392724757
 30
0.0
 11
5791.916937089236
 21
505.8266282468323
 31
0.0
  0
LINE
  5
FE9
330
104D
100
AcDbEntity
  8
OVERLAY-A3
100
AcDbLine
 10
5791.916937089236
 20
505.8266282468323
 30
0.0
 11
4229.027294185723
 21
505.8266282468323
 31
0.0
  0
TEXT
  5
FEA
330
104D
100
AcDbEntity
  8
OVERLAY-A3
100
AcDbText
 10
4266.724828654663
 20
71.88373209803654
 30
0.0
 40
30.0
  1
Scale
 41
1.370174796566003
  7
SIMPLEX
 72
     5
 11
4417.444056276923
 21
71.88373209803654
 31
0.0
100
AcDbText
  0
TEXT
  5
FEB
330
104D
100
AcDbEntity
  8
OVERLAY-A3
100
AcDbText
 10
5212.288685401195
 20
193.3401472600643
 30
0.0
 40
30.0
  1
Drawing No.
  7
SIMPLEX
 72
     2
 11
5473.717256829766
 21
193.3401472600643
 31
0.0
100
AcDbText
  0
LINE
  5
FEC
330
104D
100
AcDbEntity
  8
OVERLAY-A3
100
AcDbLine
 10
1671.499909257496
 20
0.0
 30
0.0
 11
5835.0
 21
0.0
 31
0.0
  0
LINE
  5
FED
330
104D
100
AcDbEntity
  8
OVERLAY-A3
100
AcDbLine
 10
5835.0
 20
0.0
 30
0.0
 11
5835.0
 21
4098.324527695749
 31
0.0
  0
LINE
  5
FEE
330
104D
100
AcDbEntity
  8
OVERLAY-A3
100
AcDbLine
 10
5835.0
 20
4098.324527695749
 30
0.0
 11
1671.499909257496
 21
4098.32452769575
 31
0.0
  0
LINE
  5
FEF
330
104D
100
AcDbEntity
  8
OVERLAY-A3
100
AcDbLine
 10
1671.499909257496
 20
4098.32452769575
 30
0.0
 11
1671.499909257496
 21
0.0
 31
0.0
  0
TEXT
  5
FF0
330
104D
100
AcDbEntity
  8
TEXT
100
AcDbText
 10
4499.14330545496
 20
74.21005702335694
 30
0.0
 40
45.0
  1
1:20
  7
TITLE3
100
AcDbText
  0
LINE
  5
FF2
330
104D
100
AcDbEntity
  8
OUTLINE
100
AcDbLine
 10
2955.04723028909
 20
370.2081936035572
 30
0.0
 11
3093.04723028909
 21
370.2081936035572
 31
0.0
  0
LINE
  5
FF3
330
104D
100
AcDbEntity
  8
OUTLINE
100
AcDbLine
 10
2955.04723028909
 20
403.2081936035568
 30
0.0
 11
2955.04723028909
 21
370.2081936035571
 31
0.0
  0
LINE
  5
FF4
330
104D
100
AcDbEntity
  8
OUTLINE
100
AcDbLine
 10
3093.04723028909
 20
402.8081936035571
 30
0.0
 11
3093.04723028909
 21
370.2081936035571
 31
0.0
  0
LINE
  5
FF5
330
104D
100
AcDbEntity
  8
OUTLINE
100
AcDbLine
 10
2255.045569117084
 20
370.2081936035572
 30
0.0
 11
2393.045569117085
 21
370.2081936035572
 31
0.0
  0
LINE
  5
FF6
330
104D
100
AcDbEntity
  8
OUTLINE
100
AcDbLine
 10
2255.045569117084
 20
403.2081936035568
 30
0.0
 11
2255.045569117084
 21
370.2081936035572
 31
0.0
  0
LINE
  5
FF7
330
104D
100
AcDbEntity
  8
OUTLINE
100
AcDbLine
 10
2393.045569117085
 20
403.2081936035568
 30
0.0
 11
2393.045569117085
 21
370.2081936035572
 31
0.0
  0
LINE
  5
FF8
330
104D
100
AcDbEntity
  8
DIM
100
AcDbLine
 10
5446.525060209129
 20
3323.783084007104
 30
0.0
 11
5630.373838998899
 21
3323.783084007104
 31
0.0
  0
LINE
  5
FF9
330
104D
100
AcDbEntity
  8
DIM
100
AcDbLine
 10
5446.525060209129
 20
3698.783084007104
 30
0.0
 11
5630.373838998899
 21
3698.783084007104
 31
0.0
  0
TEXT
  5
FFE
330
104D
100
AcDbEntity
  8
DIM
100
AcDbText
 10
5582.151802420856
 20
3371.015580291288
 30
0.0
 40
36.0
  1
375 CTRS
 50
90.0
  7
TITLE3
100
AcDbText
  0
LINE
  5
FFF
330
104D
100
AcDbEntity
  8
CLEAR
100
AcDbLine
 10
1949.046399703085
 20
3849.783084007104
 30
0.0
 11
3750.267072639839
 21
3849.783084007103
 31
0.0
  0
LINE
  5
1000
330
104D
100
AcDbEntity
  8
CLEAR
100
AcDbLine
 10
2099.046399703087
 20
1783.4191162527
 30
0.0
 11
3222.046399703086
 21
1783.4191162527
 31
0.0
  0
LINE
  5
1001
330
104D
100
AcDbEntity
  8
CLEAR
100
AcDbLine
 10
4092.577422659473
 20
3323.783084007104
 30
0.0
 11
4092.577422659473
 21
3849.783084007104
 31
0.0
  0
LINE
  5
1002
330
104D
100
AcDbEntity
  8
CLEAR
100
AcDbLine
 10
1949.046399703085
 20
3323.783084007104
 30
0.0
 11
1949.046399703085
 21
3849.783084007104
 31
0.0
  0
LINE
  5
1003
330
104D
100
AcDbEntity
  8
CLEAR
100
AcDbLine
 10
1949.046399703085
 20
3323.783084007104
 30
0.0
 11
2058.637052185291
 21
3323.783084007104
 31
0.0
  0
LINE
  5
1004
330
104D
100
AcDbEntity
  8
CLEAR
100
AcDbLine
 10
2099.046399703087
 20
1783.4191162527
 30
0.0
 11
2099.046399703087
 21
2066.844993810651
 31
0.0
  0
LINE
  5
1006
330
104D
100
AcDbEntity
  8
CLEAR
100
AcDbLine
 10
4092.577422659473
 20
3323.783084007104
 30
0.0
 11
3785.838993898063
 21
3323.783084007104
 31
0.0
  0
TEXT
  5
1007
330
104D
100
AcDbEntity
  8
TEXT
100
AcDbText
 10
2767.052278182238
 20
1196.928340763224
 30
0.0
 40
60.0
  1
OSA160
  7
TITLE5
 72
     1
 11
2929.90942103938
 21
1196.928340763224
 31
0.0
100
AcDbText
  0
TEXT
  5
1008
330
104D
100
AcDbEntity
  8
TEXT
100
AcDbText
 10
2184.471524247712
 20
3890.031520227987
 30
0.0
 40
45.0
  1
150 min CLEARANCE
  7
TITLE3
100
AcDbText
  0
TEXT
  5
1009
330
104D
100
AcDbEntity
  8
TEXT
100
AcDbText
 10
2242.879332362326
 20
1827.865026668051
 30
0.0
 40
45.0
  1
2000 min CLEARANCE
  7
TITLE3
100
AcDbText
  0
TEXT
  5
100A
330
104D
100
AcDbEntity
  8
TEXT
100
AcDbText
 10
1845.557924788751
 20
3494.151655048219
 30
0.0
 40
45.0
  1
150 min
 50
90.0
  7
TITLE3
100
AcDbText
  0
TEXT
  5
100B
330
104D
100
AcDbEntity
  8
TEXT
100
AcDbText
 10
1922.700781931609
 20
3425.68263550185
 30
0.0
 40
45.0
  1
CLEARANCE
 50
90.0
  7
TITLE3
100
AcDbText
  0
TEXT
  5
100C
330
104D
100
AcDbEntity
  8
TEXT
100
AcDbText
 10
3976.950001648902
 20
3446.501362235177
 30
0.0
 40
45.0
  1
1000 min
 50
90.0
  7
TITLE3
100
AcDbText
  0
TEXT
  5
100D
330
104D
100
AcDbEntity
  8
TEXT
100
AcDbText
 10
4054.092858791759
 20
3395.846126562599
 30
0.0
 40
45.0
  1
CLEARANCE
 50
90.0
  7
TITLE3
100
AcDbText
  0
TEXT
  5
100E
330
104D
100
AcDbEntity
  8
TEXT
100
AcDbText
 10
4746.454113862482
 20
3472.51798686557
 30
0.0
 40
75.0
  1
OSA160
  7
TITLE5
 72
     1
 11
4950.02554243391
 21
3472.51798686557
 31
0.0
100
AcDbText
  0
TEXT
  5
100F
330
104D
100
AcDbEntity
  8
TEXT
100
AcDbText
 10
2383.693847452681
 20
3475.426713330881
 30
0.0
 40
75.0
  1
OSA160
  7
TITLE5
 72
     1
 11
2587.265276024109
 21
3475.426713330881
 31
0.0
100
AcDbText
  0
LINE
  5
106C
330
104D
100
AcDbEntity
  8
CLEAR
100
AcDbLine
 10
3222.046399703086
 20
1783.4191162527
 30
0.0
 11
3222.046399703085
 21
2083.197185760473
 31
0.0
  0
LINE
  5
1083
330
104D
100
AcDbEntity
  8
OUTLINE
100
AcDbLine
 10
4445.229283568915
 20
3323.783084007104
 30
0.0
 11
5388.229283568917
 21
3323.783084007104
 31
0.0
  0
LINE
  5
1084
330
104D
100
AcDbEntity
  8
OUTLINE
100
AcDbLine
 10
4445.229283568917
 20
3699.783084007104
 30
0.0
 11
5388.229283568917
 21
3699.783084007102
 31
0.0
  0
LINE
  5
1085
330
104D
100
AcDbEntity
  8
OUTLINE
100
AcDbLine
 10
5400.329283568916
 20
3692.983084007104
 30
0.0
 11
5411.229283568917
 21
3724.283084007105
 31
0.0
  0
LINE
  5
1086
330
104D
100
AcDbEntity
  8
OUTLINE
100
AcDbLine
 10
5400.329283568916
 20
3329.50847755195
 30
0.0
 11
5411.229283568917
 21
3303.283084007104
 31
0.0
  0
TEXT
  5
10A0
330
104D
100
AcDbEntity
  8
TEXT
100
AcDbText
 10
5115.858173478809
 20
556.5689858903548
 30
0.0
 40
28.0
  1
available on request
  7
TITLE3
100
AcDbText
  0
TEXT
  5
10A1
330
104D
100
AcDbEntity
  8
TEXT
100
AcDbText
 10
5115.858173478809
 20
604.5689858903547
 30
0.0
 40
28.0
  1
Certified dimensions
  7
TITLE3
100
AcDbText
  0
TEXT
  5
10A2
330
104D
100
AcDbEntity
  8
TEXT
100
AcDbText
 10
5115.858173478809
 20
652.5689858903547
 30
0.0
 40
28.0
  1
without notice or obligation.
  7
TITLE3
100
AcDbText
  0
TEXT
  5
10A3
330
104D
100
AcDbEntity
  8
TEXT
100
AcDbText
 10
5115.858173478809
 20
700.5689858903547
 30
0.0
 40
28.0
  1
specifications at any time
  7
TITLE3
100
AcDbText
  0
TEXT
  5
10A4
330
104D
100
AcDbEntity
  8
TEXT
100
AcDbText
 10
5115.858173478809
 20
748.5689858903547
 30
0.0
 40
28.0
  1
the right to change 
  7
TITLE3
100
AcDbText
  0
TEXT
  5
10A5
330
104D
100
AcDbEntity
  8
TEXT
100
AcDbText
 10
5115.858173478809
 20
844.5689858903547
 30
0.0
 40
28.0
  1
NOTE
  7
TITLE3
100
AcDbText
  0
TEXT
  5
10A6
330
104D
100
AcDbEntity
  8
TEXT
100
AcDbText
 10
5115.858173478809
 20
796.5689858903547
 30
0.0
 40
28.0
  1
The manufacturer reserves
  7
TITLE3
100
AcDbText
  0
LINE
  5
10C2
330
104D
100
AcDbEntity
  8
DIM
100
AcDbLine
 10
5409.809807179836
 20
3323.783084007104
 30
0.0
 11
5419.334532046221
 21
3323.783084007104
 31
0.0
  0
LINE
  5
10C3
330
104D
100
AcDbEntity
  8
DIM
100
AcDbLine
 10
5409.809807179836
 20
3698.783084007104
 30
0.0
 11
5419.334532046221
 21
3698.783084007104
 31
0.0
  0
LINE
  5
10C5
330
104D
100
AcDbEntity
  8
DIM
100
AcDbLine
 10
5600.373838998899
 20
3653.783084007104
 30
0.0
 11
5600.373838998899
 21
3368.783084007104
 31
0.0
  0
SOLID
  5
10C6
330
104D
100
AcDbEntity
  8
DIM
100
AcDbTrace
 10
5592.873838998901
 20
3653.783084007104
 30
0.0
 11
5607.873838998898
 21
3653.783084007104
 31
0.0
 12
5600.373838998899
 22
3698.783084007104
 32
0.0
 13
5600.373838998899
 23
3698.783084007104
 33
0.0
  0
SOLID
  5
10C8
330
104D
100
AcDbEntity
  8
DIM
100
AcDbTrace
 10
5592.873838998901
 20
3368.783084007104
 30
0.0
 11
5607.873838998898
 21
3368.783084007104
 31
0.0
 12
5600.373838998899
 22
3323.783084007104
 32
0.0
 13
5600.373838998899
 23
3323.783084007104
 33
0.0
  0
LINE
  5
10C9
330
104D
100
AcDbEntity
  8
DIM
100
AcDbLine
 10
5600.373838998899
 20
3769.283084007105
 30
0.0
 11
5600.373838998899
 21
3814.283084007105
 31
0.0
  0
SOLID
  5
10CA
330
104D
100
AcDbEntity
  8
DIM
100
AcDbTrace
 10
5592.873838998901
 20
3769.283084007105
 30
0.0
 11
5607.873838998898
 21
3769.283084007105
 31
0.0
 12
5600.373838998899
 22
3724.283084007105
 32
0.0
 13
5600.373838998899
 23
3724.283084007105
 33
0.0
  0
TEXT
  5
10CB
330
104D
100
AcDbEntity
  8
DIM
100
AcDbText
 10
5580.283701909988
 20
3803.926204694697
 30
0.0
 40
36.0
  1
25.5
 50
90.0
  7
TITLE3
 72
     1
 11
5562.283701909988
 21
3858.78334755184
 31
0.0
100
AcDbText
 73
     2
  0
LINE
  5
10DA
330
104D
100
AcDbEntity
  8
OUTLINE
100
AcDbLine
 10
2967.345569117085
 20
3310.083084007104
 30
0.0
 11
3078.745569117084
 21
3310.083084007104
 31
0.0
  0
LINE
  5
10DB
330
104D
100
AcDbEntity
  8
OUTLINE
100
AcDbLine
 10
2957.745569117084
 20
3323.783084007104
 30
0.0
 11
2957.745569117084
 21
3319.683084007105
 31
0.0
  0
LINE
  5
10DC
330
104D
100
AcDbEntity
  8
OUTLINE
100
AcDbLine
 10
2957.745569117084
 20
3319.683084007105
 30
0.0
 11
2967.345569117085
 21
3310.083084007104
 31
0.0
  0
LINE
  5
10DD
330
104D
100
AcDbEntity
  8
OUTLINE
100
AcDbLine
 10
3088.345569117085
 20
3319.683084007105
 30
0.0
 11
3078.745569117084
 21
3310.083084007104
 31
0.0
  0
LINE
  5
10DE
330
104D
100
AcDbEntity
  8
OUTLINE
100
AcDbLine
 10
3088.345569117085
 20
3319.683084007106
 30
0.0
 11
3088.345569117085
 21
3323.783084007104
 31
0.0
  0
LINE
  5
10DF
330
104D
100
AcDbEntity
  8
OUTLINE
100
AcDbLine
 10
3009.045569117083
 20
3713.483084007104
 30
0.0
 11
2967.345569117085
 21
3713.483084007104
 31
0.0
  0
LINE
  5
10E0
330
104D
100
AcDbEntity
  8
OUTLINE
100
AcDbLine
 10
2957.745569117084
 20
3703.883084007104
 30
0.0
 11
2957.745569117084
 21
3699.783084007104
 31
0.0
  0
LINE
  5
10E1
330
104D
100
AcDbEntity
  8
OUTLINE
100
AcDbLine
 10
2957.745569117084
 20
3703.883084007104
 30
0.0
 11
2967.345569117085
 21
3713.483084007104
 31
0.0
  0
LINE
  5
10E2
330
104D
100
AcDbEntity
  8
OUTLINE
100
AcDbLine
 10
3088.345569117085
 20
3703.883084007104
 30
0.0
 11
3078.745569117084
 21
3713.483084007104
 31
0.0
  0
LINE
  5
10E3
330
104D
100
AcDbEntity
  8
OUTLINE
100
AcDbLine
 10
3078.745569117084
 20
3713.483084007104
 30
0.0
 11
3037.045569117082
 21
3713.483084007104
 31
0.0
  0
LINE
  5
10E4
330
104D
100
AcDbEntity
  8
OUTLINE
100
AcDbLine
 10
3009.045569117083
 20
3713.483084007104
 30
0.0
 11
3017.045569117084
 21
3705.483084007104
 31
0.0
  0
LINE
  5
10E5
330
104D
100
AcDbEntity
  8
OUTLINE
100
AcDbLine
 10
3037.045569117082
 20
3713.483084007104
 30
0.0
 11
3029.045569117082
 21
3705.483084007104
 31
0.0
  0
LINE
  5
10E6
330
104D
100
AcDbEntity
  8
OUTLINE
100
AcDbLine
 10
3017.045569117084
 20
3699.783084007104
 30
0.0
 11
3017.045569117084
 21
3705.483084007104
 31
0.0
  0
LINE
  5
10E7
330
104D
100
AcDbEntity
  8
OUTLINE
100
AcDbLine
 10
3029.045569117082
 20
3699.783084007104
 30
0.0
 11
3029.045569117082
 21
3705.483084007104
 31
0.0
  0
LINE
  5
10E8
330
104D
100
AcDbEntity
  8
OUTLINE
100
AcDbLine
 10
3088.345569117085
 20
3699.783084007104
 30
0.0
 11
3088.345569117085
 21
3703.883084007104
 31
0.0
  0
LINE
  5
10EC
330
104D
100
AcDbEntity
  8
OUTLINE
100
AcDbLine
 10
3203.611618386942
 20
2077.669922114681
 30
0.0
 11
3248.171617504961
 21
2091.030257610817
 31
0.0
  0
LINE
  5
10EE
330
104D
100
AcDbEntity
  8
OUTLINE
100
AcDbLine
 10
3203.450779289938
 20
2098.027183100137
 30
0.0
 11
3248.010778407957
 21
2111.387518596274
 31
0.0
  0
LINE
  5
10EF
330
104D
100
AcDbEntity
  8
OUTLINE
100
AcDbLine
 10
2078.921945953645
 20
2060.811119055472
 30
0.0
 11
2123.481945071664
 21
2074.171454551608
 31
0.0
  0
LINE
  5
10F0
330
104D
100
AcDbEntity
  8
OUTLINE
100
AcDbLine
 10
2074.46595939934
 20
2078.624912566091
 30
0.0
 11
2119.025958517359
 21
2091.985248062227
 31
0.0
  0
LINE
  5
10F1
330
104D
100
AcDbEntity
  8
CLEAR
100
AcDbLine
 10
2099.046399703087
 20
2085.994816865932
 30
0.0
 11
2099.046399703087
 21
3272.567701147958
 31
0.0
  0
LINE
  5
10F2
330
104D
100
AcDbEntity
  8
CLEAR
100
AcDbLine
 10
3222.046399703085
 20
2103.602670810997
 30
0.0
 11
3222.046399703086
 21
3272.567701147958
 31
0.0
  0
LINE
  5
10FF
330
104D
100
AcDbEntity
  8
OUTLINE
100
AcDbLine
 10
3788.433643558196
 20
3301.808375887205
 30
0.0
 11
3782.978740738694
 21
3348.007251644055
 31
0.0
  0
LINE
  5
1100
330
104D
100
AcDbEntity
  8
OUTLINE
100
AcDbLine
 10
3768.355151392999
 20
3305.169639997212
 30
0.0
 11
3762.900248573496
 21
3351.368515754063
 31
0.0
  0
LINE
  5
1101
330
104D
100
AcDbEntity
  8
OUTLINE
100
AcDbLine
 10
3773.090580112394
 20
3823.173629171889
 30
0.0
 11
3767.63567729289
 21
3869.372504928739
 31
0.0
  0
LINE
  5
1102
330
104D
100
AcDbEntity
  8
OUTLINE
100
AcDbLine
 10
3753.012087947197
 20
3826.534893281897
 30
0.0
 11
3747.557185127694
 21
3872.733769038748
 31
0.0
  0
LINE
  5
1103
330
104D
100
AcDbEntity
  8
CLEAR
100
AcDbLine
 10
3766.157380851036
 20
3323.783084007104
 30
0.0
 11
3261.153662162657
 21
3323.783084007104
 31
0.0
  0
LINE
  5
1104
330
104D
100
AcDbEntity
  8
CLEAR
100
AcDbLine
 10
3769.948685686869
 20
3849.783084007103
 30
0.0
 11
4092.577422659473
 21
3849.783084007104
 31
0.0
  0
CIRCLE
  5
1105
330
104D
100
AcDbEntity
  8
OUTLINE
100
AcDbCircle
 10
2521.539871343056
 20
852.8786293561477
 30
0.0
 40
316.0
  0
ENDSEC
  0
SECTION
  2
OBJECTS
  0
DICTIONARY
  5
1023
330
0
100
AcDbDictionary
281
     1
  3
ACAD_COLOR
350
1046
  3
ACAD_GROUP
350
1024
  3
ACAD_LAYOUT
350
1045
  3
ACAD_MATERIAL
350
1027
  3
ACAD_MLINESTYLE
350
1042
  3
ACAD_PLOTSETTINGS
350
1044
  3
ACAD_PLOTSTYLENAME
350
1025
  3
ACAD_TABLESTYLE
350
1047
  3
ACAD_VISUALSTYLE
350
102B
  3
AcDbVariableDictionary
350
1067
  0
DICTIONARY
  5
1096
330
1019
100
AcDbDictionary
280
     1
281
     1
  3
ACAD_LAYERFILTERS
360
111A
  3
ACLYDICTIONARY
360
1119
  0
DICTIONARY
  5
106A
330
104D
100
AcDbDictionary
280
     1
281
     1
  3
ACAD_SORTENTS
360
106B
  0
DICTIONARY
  5
1046
102
{ACAD_REACTORS
330
1023
102
}
330
1023
100
AcDbDictionary
281
     1
  0
DICTIONARY
  5
1024
102
{ACAD_REACTORS
330
1023
102
}
330
1023
100
AcDbDictionary
281
     1
  0
DICTIONARY
  5
1045
102
{ACAD_REACTORS
330
1023
102
}
330
1023
100
AcDbDictionary
281
     1
  3
Layout1
350
104C
  3
Model
350
1050
  0
DICTIONARY
  5
1027
102
{ACAD_REACTORS
330
1023
102
}
330
1023
100
AcDbDictionary
281
     1
  3
ByBlock
350
1029
  3
ByLayer
350
1028
  3
Global
350
102A
  0
DICTIONARY
  5
1042
102
{ACAD_REACTORS
330
1023
102
}
330
1023
100
AcDbDictionary
281
     1
  3
Standard
350
1043
  0
DICTIONARY
  5
1044
102
{ACAD_REACTORS
330
1023
102
}
330
1023
100
AcDbDictionary
281
     1
  0
ACDBDICTIONARYWDFLT
  5
1025
102
{ACAD_REACTORS
330
1023
102
}
330
1023
100
AcDbDictionary
281
     1
  3
Normal
350
1026
100
AcDbDictionaryWithDefault
340
1026
  0
DICTIONARY
  5
1047
102
{ACAD_REACTORS
330
1023
102
}
330
1023
100
AcDbDictionary
281
     1
  3
Standard
350
1048
  0
DICTIONARY
  5
102B
102
{ACAD_REACTORS
330
1023
102
}
330
1023
100
AcDbDictionary
281
     1
  3
2dWireframe
350
1031
  3
3D Hidden
350
1033
  3
3dWireframe
350
1032
  3
Basic
350
1030
  3
Brighten
350
1037
  3
ColorChange
350
103B
  3
Conceptual
350
1034
  3
Dim
350
1036
  3
Facepattern
350
103A
  3
Flat
350
102C
  3
FlatWithEdges
350
102D
  3
Gouraud
350
102E
  3
GouraudWithEdges
350
102F
  3
Linepattern
350
1039
  3
Realistic
350
1035
  3
Thicken
350
1038
  0
DICTIONARY
  5
1067
102
{ACAD_REACTORS
330
1023
102
}
330
1023
100
AcDbDictionary
281
     1
  3
CTABLESTYLE
350
1068
  0
DICTIONARY
  5
111A
102
{ACAD_REACTORS
330
1096
102
}
330
1096
100
AcDbDictionary
281
     1
  0
DICTIONARY
  5
1119
102
{ACAD_REACTORS
330
1096
102
}
330
1096
100
AcDbDictionary
281
     1
1001
ACAD
1000
<All
  0
SORTENTSTABLE
  5
106B
102
{ACAD_REACTORS
330
106A
102
}
330
106A
100
AcDbSortentsTable
330
104D
331
10DD
  5
10E1
331
F74
  5
F75
331
10FF
  5
1102
331
FF6
  5
FF9
331
FB3
  5
FB6
331
FBB
  5
FBE
331
FFE
  5
1001
331
10E5
  5
10EC
331
F7C
  5
F80
331
F84
  5
F87
331
1006
  5
100B
331
FD3
  5
FD7
331
F8C
  5
F8F
331
100E
  5
1070
331
F94
  5
F97
331
FCF
  5
FD4
331
1086
  5
10C6
331
10A6
  5
10A4
331
FDF
  5
FE2
331
F9C
  5
F9F
331
FA4
  5
FA7
331
10C6
  5
10CB
331
10F0
  5
10FF
331
FE7
  5
FEA
331
FEF
  5
FF3
331
FAC
  5
FAF
331
F75
  5
F77
331
FB4
  5
FB7
331
1100
  5
1103
331
FF7
  5
FFA
331
10DE
  5
10E2
331
10E6
  5
10EE
331
F7D
  5
F81
331
FFF
  5
1002
331
FBC
  5
FBF
331
10EE
  5
10F2
331
F85
  5
F88
331
1007
  5
100D
331
100F
  5
1071
331
F8D
  5
F90
331
FD8
  5
FDB
331
F95
  5
F98
331
FE0
  5
FE3
331
F9D
  5
FA0
331
10F1
  5
100A
331
FE8
  5
FEB
331
FA5
  5
FA8
331
FAD
  5
FB0
331
FF0
  5
FF4
331
FB5
  5
FB8
331
10DF
  5
10E3
331
F76
  5
F79
331
1101
  5
1104
331
FF8
  5
FFB
331
FBD
  5
FCF
331
1000
  5
1004
331
10E7
  5
10EF
331
F86
  5
F89
331
FD5
  5
FD9
331
1008
  5
100E
331
10EF
  5
10F3
331
F8E
  5
F91
331
F96
  5
F9A
331
FD9
  5
FDC
331
10A0
  5
1072
331
FE1
  5
FE4
331
F9E
  5
FA1
331
FA6
  5
FA9
331
FE9
  5
FEC
331
10C8
  5
10DA
331
10F2
  5
10B2
331
FAE
  5
FB1
331
F77
  5
F7A
331
FB6
  5
FB9
331
1102
  5
1105
331
FF9
  5
FFC
331
10E0
  5
10E4
331
10E8
  5
10F0
331
F7F
  5
F82
331
1001
  5
1005
331
FBE
  5
FD0
331
FD6
  5
FDA
331
F87
  5
F8A
331
1009
  5
100F
331
F8F
  5
F92
331
F97
  5
F9B
331
FDA
  5
FDD
331
10A1
  5
1073
331
FE2
  5
FE5
331
F9F
  5
FA2
331
FA7
  5
FAA
331
FEA
  5
FED
331
10C9
  5
10DB
331
FAF
  5
FB2
331
FF2
  5
FF5
331
FB7
  5
FBA
331
10E1
  5
10E5
331
1103
  5
100C
331
F78
  5
F7C
331
1002
  5
1007
331
F80
  5
F83
331
F88
  5
F8B
331
100A
  5
1010
331
106C
  5
10B1
331
F90
  5
F93
331
FDB
  5
FDE
331
10A2
  5
1074
331
10C2
  5
10C8
331
FE3
  5
FE6
331
FA0
  5
FA3
331
FA8
  5
FAB
331
FEB
  5
FEE
331
10CA
  5
10DC
331
FB0
  5
FB3
331
FF3
  5
FF6
331
10DA
  5
10DE
331
F79
  5
F7D
331
FB8
  5
FBB
331
1104
  5
1003
331
10E2
  5
10E6
331
F81
  5
F84
331
1003
  5
1008
331
100B
  5
106C
331
F89
  5
F8C
331
1083
  5
10C0
331
F91
  5
F94
331
F99
  5
F9C
331
FDC
  5
FDF
331
10A3
  5
1075
331
FA1
  5
FA4
331
FE4
  5
FE7
331
10C3
  5
10C9
331
FA9
  5
FAC
331
FEC
  5
FEF
331
10CB
  5
10DD
331
10DB
  5
10DF
331
F72
  5
F72
331
FF4
  5
FF7
331
FB1
  5
FB4
331
FB9
  5
FBC
331
10E3
  5
10E7
331
1105
  5
1101
331
F82
  5
F85
331
1004
  5
1009
331
F8A
  5
F8D
331
100C
  5
106E
331
F92
  5
F95
331
1084
  5
10C2
331
10A4
  5
1076
331
FDD
  5
FE0
331
F9A
  5
F9D
331
FE5
  5
FE8
331
FA2
  5
FA5
331
FED
  5
FF0
331
FAA
  5
FAD
331
F73
  5
F74
331
FB2
  5
FB5
331
FF5
  5
FF8
331
10DC
  5
10E0
331
F7B
  5
F7E
331
FBA
  5
FBD
331
10E4
  5
10E8
331
10EC
  5
10F1
331
F83
  5
F86
331
FD2
  5
FD6
331
100D
  5
106F
331
F8B
  5
F8E
331
F93
  5
F96
331
1085
  5
10C5
331
FCE
  5
FD3
331
F9B
  5
F9E
331
FDE
  5
FE1
331
10A5
  5
10A3
331
FA3
  5
FA6
331
FE6
  5
FE9
331
10C5
  5
10CA
331
FEE
  5
FF1
331
FAB
  5
FAE
  0
LAYOUT
  5
104C
102
{ACAD_REACTORS
330
1045
102
}
330
1045
100
AcDbPlotSettings
  1

  2
C:\Documents and Settings\DHAMZAB.TEMPERZONE\Application Data\Autodesk\AutoCAD 2007\R17.0\enu\plotters\Default Windows System Printer.pc3
  4

  6

 40
0.0
 41
0.0
 42
0.0
 43
0.0
 44
0.0
 45
0.0
 46
0.0
 47
0.0
 48
0.0
 49
0.0
140
0.0
141
0.0
142
1.0
143
1.0
 70
   688
 72
     0
 73
     0
 74
     5
  7

 75
    16
147
1.0
 76
     0
 77
     2
 78
   300
148
0.0
149
0.0
100
AcDbLayout
  1
Layout1
 70
     0
 71
     1
 10
0.0
 20
0.0
 11
12.0
 21
9.0
 12
0.0
 22
0.0
 32
0.0
 14
1.000000000000000E+20
 24
1.000000000000000E+20
 34
1.000000000000000E+20
 15
-1.000000000000000E+20
 25
-1.000000000000000E+20
 35
-1.000000000000000E+20
146
0.0
 13
0.0
 23
0.0
 33
0.0
 16
1.0
 26
0.0
 36
0.0
 17
0.0
 27
1.0
 37
0.0
 76
     0
330
1049
  0
LAYOUT
  5
1050
102
{ACAD_REACTORS
330
1045
102
}
330
1045
100
AcDbPlotSettings
  1

  2
Default Windows System Printer.pc3
  4
A4
  6

 40
4.233333110809326
 41
4.233341693878172
 42
4.233322143554686
 43
4.23333740234375
 44
209.9733276367186
 45
296.9259948730469
 46
6.5
 47
95.0
 48
0.0
 49
0.0
140
0.0
141
0.0
142
1.0
143
22.0
 70
 11936
 72
     1
 73
     0
 74
     1
  7

 75
     0
147
0.0452562469948835
 76
     0
 77
     2
 78
   300
148
-1671.246968301999
149
0.1622606137407274
100
AcDbLayout
  1
Model
 70
     1
 71
     0
 10
0.0
 20
0.0
 11
12.0
 21
9.0
 12
0.0
 22
0.0
 32
0.0
 14
0.0
 24
0.0
 34
0.0
 15
0.0
 25
0.0
 35
0.0
146
0.0
 13
0.0
 23
0.0
 33
0.0
 16
1.0
 26
0.0
 36
0.0
 17
0.0
 27
1.0
 37
0.0
 76
     0
330
104D
331
1053
1001
ACAD_PSEXT
1000
Default Windows System Printer.pc3
1000
HP LaserJet 5100 PCL 6
1000
\\FILESERVER
1000

1070
     0
  0
MATERIAL
  5
1029
102
{ACAD_REACTORS
330
1027
102
}
330
1027
100
AcDbMaterial
  1
ByBlock
  0
MATERIAL
  5
1028
102
{ACAD_REACTORS
330
1027
102
}
330
1027
100
AcDbMaterial
  1
ByLayer
  0
MATERIAL
  5
102A
102
{ACAD_REACTORS
330
1027
102
}
330
1027
100
AcDbMaterial
  1
Global
  0
MLINESTYLE
  5
1043
102
{ACAD_REACTORS
330
1042
102
}
330
1042
100
AcDbMlineStyle
  2
STANDARD
 70
     0
  3

 62
   256
 51
90.0
 52
90.0
 71
     2
 49
0.5
 62
   256
  6
BYLAYER
 49
-0.5
 62
   256
  6
BYLAYER
  0
ACDBPLACEHOLDER
  5
1026
102
{ACAD_REACTORS
330
1025
102
}
330
1025
  0
TABLESTYLE
  5
1048
102
{ACAD_REACTORS
330
1047
102
}
330
1047
100
AcDbTableStyle
  3
Standard
 70
     0
 71
     0
 40
0.06
 41
0.06
280
     0
281
     0
  7
STANDARD
140
0.18
170
     2
 62
     0
 63
     7
283
     0
 90
      512
 91
        0
  1

274
    -2
284
     1
 64
     0
275
    -2
285
     1
 65
     0
276
    -2
286
     1
 66
     0
277
    -2
287
     1
 67
     0
278
    -2
288
     1
 68
     0
279
    -2
289
     1
 69
     0
  7
STANDARD
140
0.25
170
     5
 62
     0
 63
     7
283
     0
 90
      512
 91
        0
  1

274
    -2
284
     1
 64
     0
275
    -2
285
     1
 65
     0
276
    -2
286
     1
 66
     0
277
    -2
287
     1
 67
     0
278
    -2
288
     1
 68
     0
279
    -2
289
     1
 69
     0
  7
STANDARD
140
0.18
170
     5
 62
     0
 63
     7
283
     0
 90
      512
 91
        0
  1

274
    -2
284
     1
 64
     0
275
    -2
285
     1
 65
     0
276
    -2
286
     1
 66
     0
277
    -2
287
     1
 67
     0
278
    -2
288
     1
 68
     0
279
    -2
289
     1
 69
     0
  0
VISUALSTYLE
  5
1031
102
{ACAD_REACTORS
330
102B
102
}
330
102B
100
AcDbVisualStyle
  2
2dWireframe
 70
     4
 71
     0
 72
     2
 73
     0
 90
        0
 40
-0.6
 41
-30.0
 62
     5
 63
     7
421
 16777215
 74
     1
 91
        4
 64
     7
 65
   257
 75
     1
175
     1
 42
1.0
 92
        0
 66
   257
 43
1.0
 76
     1
 77
     6
 78
     2
 67
     7
 79
     5
170
     0
171
     0
290
     0
174
     0
 93
        1
 44
0.0
173
     0
291
     0
 45
0.0
  0
VISUALSTYLE
  5
1033
102
{ACAD_REACTORS
330
102B
102
}
330
102B
100
AcDbVisualStyle
  2
3D Hidden
 70
     6
 71
     1
 72
     2
 73
     2
 90
        0
 40
-0.6
 41
-30.0
 62
     5
 63
     7
421
 16777215
 74
     2
 91
        2
 64
     7
 65
   257
 75
     2
175
     1
 42
40.0
 92
        0
 66
   257
 43
1.0
 76
     1
 77
     6
 78
     2
 67
     7
 79
     3
170
     0
171
     0
290
     0
174
     0
 93
        1
 44
0.0
173
     0
291
     0
 45
0.0
  0
VISUALSTYLE
  5
1032
102
{ACAD_REACTORS
330
102B
102
}
330
102B
100
AcDbVisualStyle
  2
3dWireframe
 70
     5
 71
     0
 72
     2
 73
     0
 90
        0
 40
-0.6
 41
-30.0
 62
     5
 63
     7
421
 16777215
 74
     1
 91
        4
 64
     7
 65
   257
 75
     1
175
     1
 42
1.0
 92
        0
 66
   257
 43
1.0
 76
     1
 77
     6
 78
     2
 67
     7
 79
     5
170
     0
171
     0
290
     0
174
     0
 93
        1
 44
0.0
173
     0
291
     0
 45
0.0
  0
VISUALSTYLE
  5
1030
102
{ACAD_REACTORS
330
102B
102
}
330
102B
100
AcDbVisualStyle
  2
Basic
 70
     7
 71
     1
 72
     0
 73
     1
 90
        0
 40
-0.6
 41
-30.0
 62
     5
 63
     7
421
 16777215
 74
     0
 91
        4
 64
     7
 65
   257
 75
     1
175
     1
 42
1.0
 92
        8
 66
     7
 43
1.0
 76
     1
 77
     6
 78
     2
 67
     7
 79
     5
170
     0
171
     0
290
     0
174
     0
 93
        1
 44
0.0
173
     0
291
     1
 45
0.0
  0
VISUALSTYLE
  5
1037
102
{ACAD_REACTORS
330
102B
102
}
330
102B
100
AcDbVisualStyle
  2
Brighten
 70
    12
 71
     2
 72
     2
 73
     0
 90
        0
 40
-0.6
 41
-30.0
 62
     5
 63
     7
421
 16777215
 74
     1
 91
        4
 64
     7
 65
   257
 75
     1
175
     1
 42
1.0
 92
        8
 66
     7
 43
1.0
 76
     1
 77
     6
 78
     2
 67
     7
 79
     5
170
     0
171
     0
290
     0
174
     0
 93
        1
 44
50.0
173
     0
291
     1
 45
0.0
  0
VISUALSTYLE
  5
103B
102
{ACAD_REACTORS
330
102B
102
}
330
102B
100
AcDbVisualStyle
  2
ColorChange
 70
    16
 71
     2
 72
     2
 73
     3
 90
        0
 40
-0.6
 41
-30.0
 62
     5
 63
     8
421
  8421504
 74
     1
 91
        4
 64
     7
 65
   257
 75
     1
175
     1
 42
1.0
 92
        8
 66
     8
424
  8421504
 43
1.0
 76
     1
 77
     6
 78
     2
 67
     7
 79
     5
170
     0
171
     0
290
     0
174
     0
 93
        1
 44
0.0
173
     0
291
     1
 45
0.0
  0
VISUALSTYLE
  5
1034
102
{ACAD_REACTORS
330
102B
102
}
330
102B
100
AcDbVisualStyle
  2
Conceptual
 70
     9
 71
     3
 72
     2
 73
     0
 90
        0
 40
-0.6
 41
-30.0
 62
     5
 63
     7
421
 16777215
 74
     2
 91
        2
 64
     7
 65
   257
 75
     1
175
     1
 42
40.0
 92
        8
 66
     7
 43
1.0
 76
     1
 77
     6
 78
     2
 67
     7
 79
     3
170
     0
171
     0
290
     0
174
     0
 93
        1
 44
0.0
173
     0
291
     0
 45
0.0
  0
VISUALSTYLE
  5
1036
102
{ACAD_REACTORS
330
102B
102
}
330
102B
100
AcDbVisualStyle
  2
Dim
 70
    11
 71
     2
 72
     2
 73
     0
 90
        0
 40
-0.6
 41
-30.0
 62
     5
 63
     7
421
 16777215
 74
     1
 91
        4
 64
     7
 65
   257
 75
     1
175
     1
 42
1.0
 92
        8
 66
     7
 43
1.0
 76
     1
 77
     6
 78
     2
 67
     7
 79
     5
170
     0
171
     0
290
     0
174
     0
 93
        1
 44
-50.0
173
     0
291
     1
 45
0.0
  0
VISUALSTYLE
  5
103A
102
{ACAD_REACTORS
330
102B
102
}
330
102B
100
AcDbVisualStyle
  2
Facepattern
 70
    15
 71
     2
 72
     2
 73
     0
 90
        0
 40
-0.6
 41
-30.0
 62
     5
 63
     7
421
 16777215
 74
     1
 91
        4
 64
     7
 65
   257
 75
     1
175
     1
 42
1.0
 92
        8
 66
     7
 43
1.0
 76
     1
 77
     6
 78
     2
 67
     7
 79
     5
170
     0
171
     0
290
     0
174
     0
 93
        1
 44
0.0
173
     0
291
     1
 45
0.0
  0
VISUALSTYLE
  5
102C
102
{ACAD_REACTORS
330
102B
102
}
330
102B
100
AcDbVisualStyle
  2
Flat
 70
     0
 71
     2
 72
     1
 73
     1
 90
        2
 40
-0.6
 41
30.0
 62
     5
 63
     7
421
 16777215
 74
     0
 91
        4
 64
     7
 65
   257
 75
     1
175
     1
 42
1.0
 92
        8
 66
     7
 43
1.0
 76
     1
 77
     6
 78
     2
 67
     7
 79
     5
170
     0
171
     0
290
     0
174
     0
 93
       13
 44
0.0
173
     0
291
     1
 45
0.0
  0
VISUALSTYLE
  5
102D
102
{ACAD_REACTORS
330
102B
102
}
330
102B
100
AcDbVisualStyle
  2
FlatWithEdges
 70
     1
 71
     2
 72
     1
 73
     1
 90
        2
 40
-0.6
 41
30.0
 62
     5
 63
     7
421
 16777215
 74
     1
 91
        4
 64
     7
 65
   257
 75
     1
175
     1
 42
1.0
 92
        0
 66
   257
 43
1.0
 76
     1
 77
     6
 78
     2
 67
     7
 79
     5
170
     0
171
     0
290
     0
174
     0
 93
       13
 44
0.0
173
     0
291
     1
 45
0.0
  0
VISUALSTYLE
  5
102E
102
{ACAD_REACTORS
330
102B
102
}
330
102B
100
AcDbVisualStyle
  2
Gouraud
 70
     2
 71
     2
 72
     2
 73
     1
 90
        2
 40
-0.6
 41
30.0
 62
     5
 63
     7
421
 16777215
 74
     0
 91
        4
 64
     7
 65
   257
 75
     1
175
     1
 42
1.0
 92
        0
 66
     7
 43
1.0
 76
     1
 77
     6
 78
     2
 67
     7
 79
     5
170
     0
171
     0
290
     0
174
     0
 93
       13
 44
0.0
173
     0
291
     1
 45
0.0
  0
VISUALSTYLE
  5
102F
102
{ACAD_REACTORS
330
102B
102
}
330
102B
100
AcDbVisualStyle
  2
GouraudWithEdges
 70
     3
 71
     2
 72
     2
 73
     1
 90
        2
 40
-0.6
 41
30.0
 62
     5
 63
     7
421
 16777215
 74
     1
 91
        4
 64
     7
 65
   257
 75
     1
175
     1
 42
1.0
 92
        0
 66
   257
 43
1.0
 76
     1
 77
     6
 78
     2
 67
     7
 79
     5
170
     0
171
     0
290
     0
174
     0
 93
       13
 44
0.0
173
     0
291
     1
 45
0.0
  0
VISUALSTYLE
  5
1039
102
{ACAD_REACTORS
330
102B
102
}
330
102B
100
AcDbVisualStyle
  2
Linepattern
 70
    14
 71
     2
 72
     2
 73
     0
 90
        0
 40
-0.6
 41
-30.0
 62
     5
 63
     7
421
 16777215
 74
     1
 91
        4
 64
     7
 65
   257
 75
     7
175
     7
 42
1.0
 92
        8
 66
     7
 43
1.0
 76
     1
 77
     6
 78
     2
 67
     7
 79
     5
170
     0
171
     0
290
     0
174
     0
 93
        1
 44
0.0
173
     0
291
     1
 45
0.0
  0
VISUALSTYLE
  5
1035
102
{ACAD_REACTORS
330
102B
102
}
330
102B
100
AcDbVisualStyle
  2
Realistic
 70
     8
 71
     2
 72
     2
 73
     0
 90
        0
 40
-0.6
 41
-30.0
 62
     5
 63
     7
421
 16777215
 74
     1
 91
        0
 64
     7
 65
   257
 75
     1
175
     1
 42
1.0
 92
        8
 66
     8
424
  7895160
 43
1.0
 76
     1
 77
     6
 78
     2
 67
     7
 79
     5
170
     0
171
     0
290
     0
174
     0
 93
       13
 44
0.0
173
     0
291
     0
 45
0.0
  0
VISUALSTYLE
  5
1038
102
{ACAD_REACTORS
330
102B
102
}
330
102B
100
AcDbVisualStyle
  2
Thicken
 70
    13
 71
     2
 72
     2
 73
     0
 90
        0
 40
-0.6
 41
-30.0
 62
     5
 63
     7
421
 16777215
 74
     1
 91
        4
 64
     7
 65
   257
 75
     1
175
     1
 42
1.0
 92
       12
 66
     7
 43
1.0
 76
     1
 77
     6
 78
     2
 67
     7
 79
     5
170
     0
171
     0
290
     0
174
     0
 93
        1
 44
0.0
173
     0
291
     1
 45
0.0
  0
DICTIONARYVAR
  5
1068
102
{ACAD_REACTORS
330
1067
102
}
330
1067
100
DictionaryVariables
280
     0
  1
STANDARD
  0
ENDSEC
  0
EOF
