  0
SECTION
  2
HEADER
  9
$ACADVER
  1
AC1009
  9
$INSBASE
 10
0.0
 20
0.0
 30
0.0
  9
$EXTMIN
 10
671.20546511381951
 20
-0.081349616884836
 30
-0.000000000000013
  9
$EXTMAX
 10
3890.118785837753
 20
2668.5962030626251
 30
0.0000000000000023
  9
$LIMMIN
 10
0.0
 20
0.0
  9
$LIMMAX
 10
3890.0
 20
2660.0
  9
$ORTHOMODE
 70
     1
  9
$REGENMODE
 70
     1
  9
$FILLMODE
 70
     1
  9
$QTEXTMODE
 70
     0
  9
$MIRRTEXT
 70
     0
  9
$DRAGMODE
 70
     2
  9
$LTSCALE
 40
100.0
  9
$OSMODE
 70
  3071
  9
$ATTMODE
 70
     1
  9
$TEXTSIZE
 40
25.0
  9
$TRACEWID
 40
0.05
  9
$TEXTSTYLE
  7
TITLE3
  9
$CLAYER
  8
AM_5
  9
$CELTYPE
  6
BYLAYER
  9
$CECOLOR
 62
   256
  9
$DIMSCALE
 40
1.0
  9
$DIMASZ
 40
0.12
  9
$DIMEXO
 40
0.05
  9
$DIMDLI
 40
0.5
  9
$DIMRND
 40
0.0
  9
$DIMDLE
 40
0.0
  9
$DIMEXE
 40
0.1
  9
$DIMTP
 40
0.1
  9
$DIMTM
 40
0.1
  9
$DIMTXT
 40
0.12
  9
$DIMCEN
 40
0.0
  9
$DIMTSZ
 40
0.0
  9
$DIMTOL
 70
     0
  9
$DIMLIM
 70
     0
  9
$DIMTIH
 70
     1
  9
$DIMTOH
 70
     1
  9
$DIMSE1
 70
     0
  9
$DIMSE2
 70
     0
  9
$DIMTAD
 70
     0
  9
$DIMZIN
 70
     7
  9
$DIMBLK
  1

  9
$DIMASO
 70
     0
  9
$DIMSHO
 70
     0
  9
$DIMPOST
  1

  9
$DIMAPOST
  1
mm
  9
$DIMALT
 70
     0
  9
$DIMALTD
 70
     2
  9
$DIMALTF
 40
25.399999999999999
  9
$DIMLFAC
 40
1.0
  9
$DIMTOFL
 70
     0
  9
$DIMTVP
 40
0.0
  9
$DIMTIX
 70
     0
  9
$DIMSOXD
 70
     0
  9
$DIMSAH
 70
     0
  9
$DIMBLK1
  1

  9
$DIMBLK2
  1

  9
$DIMSTYLE
  2
AM_ANSI
  9
$DIMCLRD
 70
   256
  9
$DIMCLRE
 70
   256
  9
$DIMCLRT
 70
     2
  9
$DIMTFAC
 40
0.71
  9
$DIMGAP
 40
0.06
  9
$LUNITS
 70
     2
  9
$LUPREC
 70
     2
  9
$SKETCHINC
 40
0.1
  9
$FILLETRAD
 40
0.0
  9
$AUNITS
 70
     0
  9
$AUPREC
 70
     2
  9
$MENU
  1
\acad12\support\cnc
  9
$ELEVATION
 40
0.0
  9
$PELEVATION
 40
0.0
  9
$THICKNESS
 40
0.0
  9
$LIMCHECK
 70
     0
  9
$BLIPMODE
 70
     0
  9
$CHAMFERA
 40
0.0
  9
$CHAMFERB
 40
0.0
  9
$SKPOLY
 70
     0
  9
$TDCREATE
 40
2450764.4272488421
  9
$TDUPDATE
 40
2457151.4370743749
  9
$TDINDWG
 40
1.9242016666999999
  9
$TDUSRTIMER
 40
1.9241947222
  9
$USRTIMER
 70
     1
  9
$ANGBASE
 50
0.0
  9
$ANGDIR
 70
     0
  9
$PDMODE
 70
     2
  9
$PDSIZE
 40
10.0
  9
$PLINEWID
 40
0.0
  9
$COORDS
 70
     1
  9
$SPLFRAME
 70
     0
  9
$SPLINETYPE
 70
     6
  9
$SPLINESEGS
 70
     8
  9
$ATTDIA
 70
     1
  9
$ATTREQ
 70
     1
  9
$HANDLING
 70
     1
  9
$HANDSEED
  5
8756
  9
$SURFTAB1
 70
     6
  9
$SURFTAB2
 70
     6
  9
$SURFTYPE
 70
     6
  9
$SURFU
 70
     6
  9
$SURFV
 70
     6
  9
$UCSNAME
  2

  9
$UCSORG
 10
0.0
 20
0.0
 30
0.0
  9
$UCSXDIR
 10
1.0
 20
0.0
 30
0.0
  9
$UCSYDIR
 10
0.0
 20
1.0
 30
0.0
  9
$PUCSNAME
  2

  9
$PUCSORG
 10
0.0
 20
0.0
 30
0.0
  9
$PUCSXDIR
 10
1.0
 20
0.0
 30
0.0
  9
$PUCSYDIR
 10
0.0
 20
1.0
 30
0.0
  9
$USERI1
 70
     0
  9
$USERI2
 70
     0
  9
$USERI3
 70
     0
  9
$USERI4
 70
     0
  9
$USERI5
 70
     0
  9
$USERR1
 40
0.0
  9
$USERR2
 40
0.0
  9
$USERR3
 40
0.0
  9
$USERR4
 40
0.0
  9
$USERR5
 40
0.0
  9
$WORLDVIEW
 70
     1
  9
$SHADEDGE
 70
     3
  9
$SHADEDIF
 70
    70
  9
$TILEMODE
 70
     1
  9
$MAXACTVP
 70
    16
  9
$PLIMCHECK
 70
     0
  9
$PEXTMIN
 10
1.0000000000000000E+020
 20
1.0000000000000000E+020
 30
1.0000000000000000E+020
  9
$PEXTMAX
 10
-1.0000000000000000E+020
 20
-1.0000000000000000E+020
 30
-1.0000000000000000E+020
  9
$PLIMMIN
 10
0.0
 20
0.0
  9
$PLIMMAX
 10
12.0
 20
9.0
  9
$UNITMODE
 70
     0
  9
$VISRETAIN
 70
     0
  9
$PLINEGEN
 70
     0
  9
$PSLTSCALE
 70
     0
  0
ENDSEC
  0
SECTION
  2
TABLES
  0
TABLE
  2
VPORT
 70
     1
  0
VPORT
  2
*ACTIVE
 70
     0
 10
0.0
 20
0.0
 11
1.0
 21
1.0
 12
-628.65986955185269
 22
269.3157576951748
 13
0.0
 23
0.0
 14
25.0
 24
25.0
 15
100.0
 25
100.0
 16
0.0
 26
0.0
 36
1.0
 17
2909.3219950276389
 27
1064.9416690276951
 37
-0.7257469300703157
 40
2685.1848365105179
 41
1.9174406604747161
 42
50.0
 43
0.0
 44
0.0
 50
0.0
 51
0.0
 71
     0
 72
   100
 73
     1
 74
     0
 75
     0
 76
     0
 77
     0
 78
     0
  0
ENDTAB
  0
TABLE
  2
LTYPE
 70
    13
  0
LTYPE
  2
CONTINUOUS
 70
     0
  3
Solid line
 72
    65
 73
     0
 40
0.0
  0
LTYPE
  2
PHANTOM
 70
     0
  3
Phantom ______  __  __  ______  __  __  ______
 72
    65
 73
     6
 40
2.5
 49
1.25
 49
-0.25
 49
0.25
 49
-0.25
 49
0.25
 49
-0.25
  0
LTYPE
  2
HIDDEN
 70
     0
  3
__ __ __ __ __ __ __ __ __ __ __ __ __ __ __ __
 72
    65
 73
     2
 40
0.375
 49
0.25
 49
-0.125
  0
LTYPE
  2
ACANSTGL
 70
     0
  3
_ _ _ _ _
 72
    65
 73
     2
 40
0.11811023622
 49
0.07874015748
 49
-0.03937007874
  0
ENDTAB
  0
TABLE
  2
LAYER
 70
     2
  0
LAYER
  2
0
 70
     0
 62
     7
  6
CONTINUOUS
  0
LAYER
  2
AM_5
 70
     0
 62
     3
  6
CONTINUOUS
  0
ENDTAB
  0
TABLE
  2
STYLE
 70
     8
  0
STYLE
  2
STANDARD
 70
     0
 40
0.0
 41
1.0
 50
0.0
 71
     0
 42
0.2
  3
txt
  4

  0
STYLE
  2
TITLE3
 70
     0
 40
25.0
 41
1.0
 50
0.0
 71
     0
 42
25.0
  3
SIMPLEX.shx
  4

  0
STYLE
  2
SIMPLEX
 70
     0
 40
40.0
 41
1.0
 50
0.0
 71
     0
 42
25.0
  3
SIMPLEX
  4

  0
STYLE
  2
TITLE5
 70
     0
 40
25.0
 41
1.0
 50
0.0
 71
     0
 42
25.0
  3
SIMPLEX
  4

  0
ENDTAB
  0
TABLE
  2
VIEW
 70
     0
  0
ENDTAB
  0
TABLE
  2
UCS
 70
     0
  0
ENDTAB
  0
TABLE
  2
APPID
 70
    35
  0
APPID
  2
ACAD
 70
     0
  0
APPID
  2
ACADANNOTATIVE
 70
     0
  0
APPID
  2
ACAD_MLEADERVER
 70
     0
  0
APPID
  2
ACAD_EXEMPT_FROM_CAD_STANDARDS
 70
     0
  0
APPID
  2
ACAECLAYERSTANDARD
 70
     0
  0
APPID
  2
ACAD_DSTYLE_DIMTEXT_FILL
 70
     0
  0
APPID
  2
ACAD_DSTYLE_DIMEXT_LENGTH
 70
     0
  0
APPID
  2
ACAD_DSTYLE_DIMEXT_ENABLED
 70
     0
  0
APPID
  2
ACAD_DSTYLE_DIM_LINETYPE
 70
     0
  0
APPID
  2
ACAD_DSTYLE_DIM_EXT1_LINETYPE
 70
     0
  0
APPID
  2
ACAD_DSTYLE_DIM_EXT2_LINETYPE
 70
     0
  0
APPID
  2
ACAD_DSTYLE_DIMJOGGED_JOGA
 70
     0
  0
APPID
  2
ACAD_DSTYLE_DIMARC_LENGTH_
 70
     0
  0
APPID
  2
ACAD_PSEXT
 70
     0
  0
APPID
  2
CONTENTBLOCKICON
 70
     0
  0
APPID
  2
GENIUS_GENDIM_13
 70
     0
  0
APPID
  2
GENIUS_GENDTOL_13
 70
     0
  0
APPID
  2
GENIUS_GE3DTOL_13
 70
     0
  0
APPID
  2
MCAD_NO_VIS
 70
     0
  0
APPID
  2
ACAD_TEMP_GRAPHIC
 70
     0
  0
APPID
  2
AD_DRAW
 70
     0
  0
APPID
  2
ACATTRIBSERVICES
 70
     0
  0
APPID
  2
ASURF_PCURVE_APPNAME
 70
     0
  0
APPID
  2
AMG_3D2D_5_0
 70
     0
  0
APPID
  2
DESIGNERASSEMBLIES
 70
     0
  0
APPID
  2
ACADM_DIM_EDIT
 70
     0
  0
APPID
  2
AMDT_DM_ADJ
 70
     0
  0
APPID
  2
AMG_3D2D_5_00
 70
     0
  0
APPID
  2
AMG_3D2D_5_01
 70
     0
  0
APPID
  2
ACAD_DSTYLE_DIMBREAK
 70
     0
  0
APPID
  2
ACAD_DSTYLE_DIMJAG
 70
     0
  0
APPID
  2
ACAD_NAV_VCDISPLAY
 70
     0
  0
APPID
  2
GENIUS_GENREC_14
 70
     0
  0
APPID
  2
GENIUS_GENODEF_13
 70
     0
  0
APPID
  2
GENIUS_GENOBJ-N-REC_13
 70
     0
  0
ENDTAB
  0
TABLE
  2
DIMSTYLE
 70
    10
  0
DIMSTYLE
  2
STANDARD
 70
     0
  3

  4

  5

  6

  7

 40
1.0
 41
0.18
 42
0.0625
 43
0.38
 44
0.18
 45
0.0
 46
0.0
 47
0.0
 48
0.0
140
0.18
141
0.09
142
0.0
143
25.399999999999999
144
1.0
145
0.0
146
1.0
147
0.09
 71
     0
 72
     0
 73
     1
 74
     1
 75
     0
 76
     0
 77
     0
 78
     0
170
     0
171
     2
172
     0
173
     0
174
     0
175
     0
176
     0
177
     0
178
     0
  0
DIMSTYLE
  2
AM_ANSI
 70
     0
  3

  4
mm
  5

  6

  7

 40
1.0
 41
0.12
 42
0.05
 43
0.5
 44
0.1
 45
0.0
 46
0.0
 47
0.1
 48
0.1
140
0.12
141
0.0
142
0.0
143
25.399999999999999
144
1.0
145
0.0
146
0.71
147
0.06
 71
     0
 72
     0
 73
     1
 74
     1
 75
     0
 76
     0
 77
     0
 78
     7
170
     0
171
     2
172
     0
173
     0
174
     0
175
     0
176
   256
177
   256
178
     2
  0
ENDTAB
  0
ENDSEC
  0
SECTION
  2
BLOCKS
  0
BLOCK
  8
0
  2
$MODEL_SPACE
 70
     0
 10
0.0
 20
0.0
 30
0.0
  3
$MODEL_SPACE
  1

  0
ENDBLK
  5
85B1
  8
0
  0
BLOCK
 67
     1
  8
0
  2
$PAPER_SPACE
 70
     0
 10
0.0
 20
0.0
 30
0.0
  3
$PAPER_SPACE
  1

  0
ENDBLK
  5
85AD
 67
     1
  8
0
  0
ENDSEC
  0
SECTION
  2
ENTITIES
  0
LINE
  5
23F5
  8
0
 62
     7
 10
1567.377392706956
 20
2304.9584724746078
 30
0.0
 11
1538.8447907215709
 21
2272.7852398474201
 31
0.0
  0
LINE
  5
23F7
  8
0
 62
     7
 10
1528.7948167440441
 20
2322.4242733136198
 30
0.0
 11
1548.8947646990989
 21
2322.4242733136198
 31
0.0
  0
LINE
  5
23F8
  8
0
 62
     7
 10
1548.8947646990989
 20
2322.4242733136198
 30
0.0
 11
1548.8947646990989
 21
2304.958472474606
 31
0.0
  0
LINE
  5
23F9
  8
0
 62
     7
 10
1548.8947646990989
 20
2304.958472474606
 30
0.0
 11
1567.377392706956
 21
2304.9584724746078
 31
0.0
  0
LINE
  5
23FD
  8
0
 62
     7
 10
1510.3121887361881
 20
2304.9584724746078
 30
0.0
 11
1538.8447907215709
 21
2272.7852398474201
 31
0.0
  0
LINE
  5
23FE
  8
0
 62
     7
 10
1528.7948167440441
 20
2322.4242733136198
 30
0.0
 11
1528.7948167440441
 21
2304.958472474606
 31
0.0
  0
LINE
  5
23FF
  8
0
 62
     7
 10
1528.7948167440441
 20
2304.958472474606
 30
0.0
 11
1510.3121887361881
 21
2304.9584724746078
 31
0.0
  0
LINE
  5
2400
  8
0
 62
     7
 10
1567.377392706956
 20
1741.942002094032
 30
0.0
 11
1538.8447907215709
 21
1709.768769466845
 31
0.0
  0
LINE
  5
2401
  8
0
 62
     7
 10
1528.7948167440441
 20
1759.4078029330419
 30
0.0
 11
1548.8947646991001
 21
1759.4078029330419
 31
0.0
  0
LINE
  5
2402
  8
0
 62
     7
 10
1548.8947646991001
 20
1759.4078029330419
 30
0.0
 11
1548.8947646991001
 21
1741.942002094032
 31
0.0
  0
LINE
  5
2403
  8
0
 62
     7
 10
1548.8947646991001
 20
1741.942002094032
 30
0.0
 11
1567.377392706956
 21
1741.942002094032
 31
0.0
  0
LINE
  5
2404
  8
0
 62
     7
 10
1510.312188736187
 20
1741.942002094032
 30
0.0
 11
1538.8447907215709
 21
1709.768769466845
 31
0.0
  0
LINE
  5
2405
  8
0
 62
     7
 10
1528.7948167440441
 20
1759.4078029330419
 30
0.0
 11
1528.7948167440441
 21
1741.942002094032
 31
0.0
  0
LINE
  5
2406
  8
0
 62
     7
 10
1528.7948167440441
 20
1741.942002094032
 30
0.0
 11
1510.312188736187
 21
1741.942002094032
 31
0.0
  0
LINE
  5
30F6
  8
0
 62
     7
 10
3890.000000000156
 20
0.0
 30
0.0
 11
671.43065171007368
 21
0.0
 31
0.0
  0
LINE
  5
30F7
  8
0
 62
     7
 10
671.43065171007368
 20
0.0
 30
0.0
 11
671.43065171007368
 21
2668.514722961309
 31
0.0
  0
LINE
  5
30F8
  8
0
 62
     7
 10
671.43065171007368
 20
2668.5147229613081
 30
0.0
 11
3890.000000000156
 21
2668.5147229613081
 31
0.0
  0
LINE
  5
30F9
  8
0
 62
     7
 10
3890.000000000156
 20
2668.5147229613081
 30
0.0
 11
3890.000000000156
 21
0.0
 31
0.0
  0
TEXT
  5
3AC8
  8
0
 62
     7
 10
918.51797040702866
 20
51.50540564507029
 30
0.0
 40
33.599999999996733
  1
available on request
  7
TITLE3
  0
TEXT
  5
3AC9
  8
0
 62
     7
 10
918.51797040702866
 20
109.10540564506459
 30
0.0
 40
33.599999999996733
  1
Certified dimensions
  7
TITLE3
  0
TEXT
  5
3ACA
  8
0
 62
     7
 10
918.51797040702866
 20
166.70540564505899
 30
0.0
 40
33.599999999996733
  1
without notice or obligation.
  7
TITLE3
  0
TEXT
  5
3ACB
  8
0
 62
     7
 10
918.51797040702866
 20
224.3054056450533
 30
0.0
 40
33.599999999996733
  1
specifications at any time
  7
TITLE3
  0
TEXT
  5
3ACC
  8
0
 62
     7
 10
918.51797040702866
 20
281.90540564504778
 30
0.0
 40
33.599999999996733
  1
the right to change 
  7
TITLE3
  0
TEXT
  5
3ACD
  8
0
 62
     7
 10
918.51797040702866
 20
397.10540564503611
 30
0.0
 40
33.599999999996733
  1
NOTE
  7
TITLE3
  0
TEXT
  5
3ACE
  8
0
 62
     7
 10
918.51797040702866
 20
339.50540564504212
 30
0.0
 40
33.599999999996733
  1
The manufacturer reserves
  7
TITLE3
  0
TEXT
  5
430A
  8
0
 62
     7
 10
2246.270962194777
 20
1932.569666720748
 30
0.0
 40
25.0
  1
ELECTRIC
  7
TITLE3
  0
TEXT
  5
430B
  8
0
 62
     7
 10
2246.270962194777
 20
1890.9030000540811
 30
0.0
 40
25.0
  1
BOX
  7
TITLE3
  0
SOLID
  5
430C
  8
0
 62
     7
 10
2134.210781311001
 20
1899.9612727287861
 30
0.0
 11
2104.9437793733869
 21
1891.6882685837479
 31
0.0
 12
2129.945644726793
 22
1909.0060839439529
 32
0.0
 13
2129.945644726793
 23
1909.0060839439529
 33
0.0
  0
TEXT
  5
4438
  8
0
 62
     7
 10
2573.6560087405001
 20
346.72214982266092
 30
0.0
 40
62.5
  1
temperzone ISD 87KYX
 41
1.143426659371618
  7
TITLE5
 72
     5
 11
3822.577389661285
 21
346.72214982266092
 31
0.0
  0
TEXT
  5
4439
  8
0
 62
     7
 10
3315.000000000156
 20
87.5
 30
0.0
 40
37.5
  1
ISD 87KYX
 41
1.2453987730061351
  7
TITLE3
 72
     5
 11
3677.500000000156
 21
87.5
 31
0.0
  0
TEXT
  5
443A
  8
0
 62
     7
 10
2748.958007352584
 20
137.5
 30
0.0
 40
37.5
  1
08-05-15
 41
0.6913580246913595
  7
TITLE3
 72
     5
 11
2948.9580073525849
 21
137.5
 31
0.0
  0
TEXT
  5
443B
  8
0
 62
     7
 10
2583.941228961347
 20
138.53901732512611
 30
0.0
 40
30.0
  1
Date
  7
SIMPLEX
  0
TEXT
  5
443C
  8
0
 62
     7
 10
3710.1389904671569
 20
161.879127529264
 30
0.0
 40
30.0
  1
Revision
 41
0.7812095035934841
  7
SIMPLEX
 72
     5
 11
3841.828592501487
 21
161.879127529264
 31
0.0
  0
LINE
  5
443D
  8
0
 62
     7
 10
3695.614187487854
 20
26.053116060396409
 30
0.0
 11
3695.614187487854
 21
210.3358196356829
 31
0.0
  0
LINE
  5
443E
  8
0
 62
     7
 10
2551.6894118215901
 20
433.29949611692632
 30
0.0
 11
2551.6894118215901
 21
26.053116060396409
 31
0.0
  0
LINE
  5
443F
  8
0
 62
     7
 10
3298.6420975165261
 20
26.053116060396409
 30
0.0
 11
3298.6420975165261
 21
210.3358196356829
 31
0.0
  0
LINE
  5
4440
  8
0
 62
     7
 10
3298.6420975165261
 20
116.6407490868297
 30
0.0
 11
2551.6894118215901
 21
116.6407490868297
 31
0.0
  0
LINE
  5
4441
  8
0
 62
     7
 10
3854.4693315474578
 20
210.3358196356829
 30
0.0
 11
2551.6894118215901
 21
210.3358196356829
 31
0.0
  0
LINE
  5
4442
  8
0
 62
     7
 10
2551.6894118215901
 20
26.053116060396409
 30
0.0
 11
3854.0974475745211
 21
26.053116060396409
 31
0.0
  0
LINE
  5
4443
  8
0
 62
     7
 10
3854.0974475745211
 20
26.053116060396409
 30
0.0
 11
3854.0974475745211
 21
433.29949611692632
 31
0.0
  0
LINE
  5
4444
  8
0
 62
     7
 10
3854.0974475745211
 20
433.29949611692632
 30
0.0
 11
2551.6894118215901
 21
433.29949611692632
 31
0.0
  0
TEXT
  5
4445
  8
0
 62
     7
 10
2583.1040238790438
 20
59.903110081697093
 30
0.0
 40
25.0
  1
Scale
 41
1.3701747965659681
  7
SIMPLEX
 72
     5
 11
2708.7033802309238
 21
59.903110081697093
 31
0.0
  0
TEXT
  5
4446
  8
0
 62
     7
 10
3371.0739045011542
 20
161.1167893833869
 30
0.0
 40
25.0
  1
Drawing No.
  7
SIMPLEX
 72
     2
 11
3588.9310473582959
 21
161.1167893833869
 31
0.0
  0
TEXT
  5
444B
  8
0
 62
     7
 10
2766.9599802419848
 20
58.608558680249381
 30
0.0
 40
37.5
  1
1:10
  7
TITLE3
  0
LINE
  5
446A
  8
0
 62
     7
 10
2132.0782130188959
 20
1904.4836783363701
 30
0.0
 11
2173.9664462343562
 21
1924.2363333874141
 31
0.0
  0
LINE
  5
446B
  8
0
 62
     7
 10
2173.9664462343562
 20
1924.2363333874141
 30
0.0
 11
2226.2709621947738
 21
1924.2363333874141
 31
0.0
  0
LINE
  5
50D1
  8
0
 10
1099.068178733869
 20
2374.7001991520801
 30
0.0
 11
2083.068178733869
 21
2374.7001991520801
 31
0.0
  0
LINE
  5
50D2
  8
0
 10
2083.068178733869
 20
2374.7001991520801
 30
0.0
 11
2083.068178733869
 21
2125.6501991520781
 31
0.0
  0
LINE
  5
50D3
  8
0
 10
1079.118178733868
 20
2125.6501991520781
 30
0.0
 11
2103.0181787338702
 21
2125.6501991520781
 31
0.0
  0
LINE
  5
50D6
  8
0
 10
1099.068178733869
 20
2374.7001991520801
 30
0.0
 11
1099.068178733869
 21
2125.6501991520781
 31
0.0
  0
LINE
  5
50D9
  8
0
 10
1163.2181787338679
 20
2435.6501991520772
 30
0.0
 11
2002.2181787338679
 21
2435.6501991520772
 31
0.0
  0
LINE
  5
50DA
  8
0
 10
1163.2181787338679
 20
2435.6501991520772
 30
0.0
 11
1163.2181787338679
 21
2374.7001991520801
 31
0.0
  0
LINE
  5
50DB
  8
0
 10
2002.2181787338679
 20
2435.6501991520772
 30
0.0
 11
2002.2181787338679
 21
2374.7001991520801
 31
0.0
  0
LINE
  5
50DC
  8
0
 10
1079.118178733868
 20
2384.6501991520799
 30
0.0
 11
1079.118178733868
 21
2373.200199152081
 31
0.0
  0
LINE
  5
50DD
  8
0
 10
2103.0181787338702
 20
2384.6501991520799
 30
0.0
 11
2103.0181787338702
 21
2373.200199152081
 31
0.0
  0
LINE
  5
50DE
  8
0
 10
1079.118178733868
 20
2384.6501991520799
 30
0.0
 11
1163.2181787338679
 21
2384.6501991520799
 31
0.0
  0
LINE
  5
50DF
  8
0
 10
2002.2181787338679
 20
2384.6501991520799
 30
0.0
 11
2103.0181787338702
 21
2384.6501991520799
 31
0.0
  0
LINE
  5
513A
  8
0
 10
2131.0181787338711
 20
2261.2251991520789
 30
0.0
 11
2131.0181787338711
 21
2245.2251991520789
 31
0.0
  0
LINE
  5
513C
  8
0
 10
2103.0181787338702
 20
2261.2251991520811
 30
0.0
 11
2131.0181787338711
 21
2261.2251991520811
 31
0.0
  0
LINE
  5
513D
  8
0
 10
2103.0181787338702
 20
2245.225199152082
 30
0.0
 11
2131.0181787338711
 21
2245.2251991520789
 31
0.0
  0
LINE
  5
513F
  8
0
  6
ACANSTGL
 10
2083.068178733869
 20
2163.7101991520772
 30
0.0
 11
2125.012178733869
 21
2163.7101991520772
 31
0.0
  0
LINE
  5
5140
  8
0
  6
ACANSTGL
 10
2083.068178733869
 20
2143.7101991520772
 30
0.0
 11
2125.012178733869
 21
2143.7101991520781
 31
0.0
  0
LINE
  5
5141
  8
0
  6
ACANSTGL
 10
2125.012178733869
 20
2163.7101991520772
 30
0.0
 11
2125.012178733869
 21
2143.7101991520781
 31
0.0
  0
LINE
  5
5142
  8
0
 10
2103.0181787338702
 20
2143.7101991520781
 30
0.0
 11
2103.0181787338702
 21
2125.6501991520781
 31
0.0
  0
LINE
  5
518F
  8
0
 10
2112.568178733869
 20
2373.200199152081
 30
0.0
 11
2112.568178733869
 21
2345.2001991520801
 31
0.0
  0
LINE
  5
5190
  8
0
 10
2083.068178733869
 20
2373.200199152081
 30
0.0
 11
2112.568178733869
 21
2373.200199152081
 31
0.0
  0
LINE
  5
5191
  8
0
 10
2083.068178733869
 20
2345.2001991520801
 30
0.0
 11
2112.568178733869
 21
2345.2001991520801
 31
0.0
  0
POINT
  5
5193
  8
0
 10
2098.5681787338699
 20
2359.200199152081
 30
0.0
  0
LINE
  5
51E5
  8
0
 10
1099.068178733869
 20
2373.200199152081
 30
0.0
 11
1069.568178733869
 21
2373.200199152081
 31
0.0
  0
LINE
  5
51E6
  8
0
 10
1099.068178733869
 20
2345.2001991520801
 30
0.0
 11
1069.568178733869
 21
2345.2001991520801
 31
0.0
  0
LINE
  5
51E7
  8
0
 10
1069.568178733869
 20
2373.200199152081
 30
0.0
 11
1069.568178733869
 21
2345.2001991520801
 31
0.0
  0
POINT
  5
51E8
  8
0
 10
1083.568178733869
 20
2359.200199152081
 30
0.0
 50
180.0
  0
LINE
  5
51EE
  8
0
 10
1079.118178733868
 20
2345.2001991520801
 30
0.0
 11
1079.118178733868
 21
2125.6501991520781
 31
0.0
  0
LINE
  5
5287
  8
0
 10
2028.568178733864
 20
2125.6501991520781
 30
0.0
 11
2028.5681787338681
 21
1691.6501991520779
 31
0.0
  0
LINE
  5
5288
  8
0
 10
1171.568178733869
 20
1691.6501991520779
 30
0.0
 11
2009.568178733864
 21
1691.6501991520779
 31
0.0
  0
LINE
  5
5289
  8
0
 10
1152.568178733869
 20
2125.6501991520781
 30
0.0
 11
1152.568178733869
 21
1691.6501991520779
 31
0.0
  0
LINE
  5
528A
  8
0
 10
1171.568178733869
 20
1691.6501991520779
 30
0.0
 11
1171.568178733869
 21
1641.6501991520779
 31
0.0
  0
LINE
  5
528B
  8
0
 10
1171.568178733869
 20
1641.6501991520779
 30
0.0
 11
2009.568178733864
 21
1641.650199152077
 31
0.0
  0
LINE
  5
528D
  8
0
 10
2009.568178733864
 20
1691.6501991520779
 30
0.0
 11
2009.568178733864
 21
1641.650199152077
 31
0.0
  0
LINE
  5
528F
  8
0
 10
2028.5681787338681
 20
1724.1001991520779
 30
0.0
 11
2062.5681787338681
 21
1724.1001991520779
 31
0.0
  0
LINE
  5
5290
  8
0
 10
2028.5681787338681
 20
1696.1001991520779
 30
0.0
 11
2062.5681787338681
 21
1696.1001991520779
 31
0.0
  0
LINE
  5
5291
  8
0
 10
2062.5681787338681
 20
1724.1001991520779
 30
0.0
 11
2062.5681787338681
 21
1696.1001991520779
 31
0.0
  0
POINT
  5
5292
  8
0
 10
2046.5681787338681
 20
1710.1001991520779
 30
0.0
  0
LINE
  5
5293
  8
0
 10
1152.568178733869
 20
1724.1001991520779
 30
0.0
 11
1122.5681787338681
 21
1724.1001991520779
 31
0.0
  0
LINE
  5
5294
  8
0
 10
1152.568178733869
 20
1696.1001991520779
 30
0.0
 11
1122.5681787338681
 21
1696.1001991520779
 31
0.0
  0
LINE
  5
5295
  8
0
 10
1122.5681787338681
 20
1724.1001991520779
 30
0.0
 11
1122.5681787338681
 21
1696.1001991520779
 31
0.0
  0
POINT
  5
5296
  8
0
 10
1138.5681787338681
 20
1710.1001991520779
 30
0.0
 50
180.0
  0
LINE
  5
52E3
  8
0
 10
2104.5681787338649
 20
2055.6501991520781
 30
0.0
 11
2104.5681787338649
 21
1746.6501991520779
 31
0.0
  0
LINE
  5
52E4
  8
0
 10
2028.568178733864
 20
1746.6501991520779
 30
0.0
 11
2104.5681787338649
 21
1746.6501991520779
 31
0.0
  0
LINE
  5
52E5
  8
0
 10
2028.568178733864
 20
2055.6501991520781
 30
0.0
 11
2104.5681787338649
 21
2055.6501991520781
 31
0.0
  0
LINE
  5
536B
  8
0
 10
3407.0097716931318
 20
1044.162332160872
 30
0.0
 11
3407.0097716931318
 21
649.16233216087164
 31
0.0
  0
LINE
  5
536C
  8
0
 10
3157.9597716931321
 20
1044.162332160872
 30
0.0
 11
3157.9597716931321
 21
624.16233216087164
 31
0.0
  0
LINE
  5
536D
  8
0
 10
3416.959771693133
 20
624.16233216087164
 30
0.0
 11
3157.9597716931321
 21
624.16233216087164
 31
0.0
  0
LINE
  5
536F
  8
0
 10
3416.959771693133
 20
649.16233216087176
 30
0.0
 11
3416.959771693133
 21
624.16233216087164
 31
0.0
  0
LINE
  5
5370
  8
0
 10
3416.959771693133
 20
649.16233216087164
 30
0.0
 11
3198.71977169313
 21
649.16233216087164
 31
0.0
  0
LINE
  5
5371
  8
0
 10
3467.9597716931321
 20
1026.162332160872
 30
0.0
 11
3467.9597716931321
 21
671.16233216087176
 31
0.0
  0
LINE
  5
5372
  8
0
 10
3467.9597716931321
 20
671.16233216087176
 30
0.0
 11
3407.0097716931318
 21
671.16233216087176
 31
0.0
  0
LINE
  5
5373
  8
0
 10
3467.9597716931321
 20
1026.162332160872
 30
0.0
 11
3407.00977169313
 21
1026.162332160872
 31
0.0
  0
ARC
  5
5412
  8
0
 10
3186.0197716931311
 20
649.16233216087164
 30
0.0
 40
12.699999999999999
 50
180.0
 51
0.0
  0
LINE
  5
5413
  8
0
 10
3173.31977169313
 20
649.16233216087164
 30
0.0
 11
3157.9597716931321
 21
649.16233216087164
 31
0.0
  0
CIRCLE
  5
5415
  8
0
 10
3186.0197716931311
 20
649.82633216087231
 30
0.0
 40
10.0
  0
LINE
  5
54B4
  8
0
 10
3412.1097716931331
 20
1055.162332160872
 30
0.0
 11
3412.1097716931331
 21
959.76233216087223
 31
0.0
  0
LINE
  5
54B5
  8
0
 10
3384.109771693129
 20
1055.162332160872
 30
0.0
 11
3384.109771693129
 21
959.76233216087223
 31
0.0
  0
LINE
  5
54B6
  8
0
 10
3384.109771693129
 20
959.76233216087223
 30
0.0
 11
3412.1097716931331
 21
959.76233216087223
 31
0.0
  0
LINE
  5
54B7
  8
0
 10
3384.109771693129
 20
1055.162332160872
 30
0.0
 11
3412.1097716931331
 21
1055.162332160872
 31
0.0
  0
LINE
  5
54B8
  8
0
 10
3384.109771693129
 20
1052.6623321608711
 30
0.0
 11
3412.1097716931331
 21
1052.6623321608711
 31
0.0
  0
LINE
  5
54BB
  8
0
 10
3398.1097716931299
 20
1050.0281385792759
 30
0.0
 11
3398.1097716931299
 21
1062.5281385792759
 31
0.0
  0
LINE
  5
54BD
  8
0
 10
3407.0097716931318
 20
1044.162332160872
 30
0.0
 11
3157.9597716931321
 21
1044.162332160872
 31
0.0
  0
LINE
  5
551A
  8
0
 10
3157.9597716931321
 20
635.11233216087214
 30
0.0
 11
2723.9597716931298
 21
635.11233216087214
 31
0.0
  0
LINE
  5
551B
  8
0
 10
2723.9597716931298
 20
1041.808621776052
 30
0.0
 11
2723.9597716931298
 21
635.11233216087214
 31
0.0
  0
LINE
  5
551C
  8
0
 10
3157.9597716931321
 20
1041.808621776052
 30
0.0
 11
2723.9597716931298
 21
1041.808621776052
 31
0.0
  0
LINE
  5
551D
  8
0
 10
2723.9597716931298
 20
641.06233216087185
 30
0.0
 11
2673.9597716931289
 21
641.06233216087185
 31
0.0
  0
LINE
  5
551E
  8
0
 10
2673.9597716931289
 20
917.06233216087185
 30
0.0
 11
2673.9597716931289
 21
641.06233216087185
 31
0.0
  0
LINE
  5
551F
  8
0
 10
2723.9597716931298
 20
917.06233216087196
 30
0.0
 11
2673.9597716931289
 21
917.06233216087185
 31
0.0
  0
LINE
  5
5520
  8
0
 10
2778.9597716931312
 20
1028.477332160872
 30
0.0
 11
2778.9597716931289
 21
859.47733216087215
 31
0.0
  0
LINE
  5
5521
  8
0
 10
3087.9597716931312
 20
1028.477332160872
 30
0.0
 11
3087.9597716931312
 21
859.47733216087215
 31
0.0
  0
LINE
  5
5523
  8
0
 10
3087.9597716931312
 20
1028.477332160872
 30
0.0
 11
2778.9597716931312
 21
1028.477332160872
 31
0.0
  0
LINE
  5
5525
  8
0
 10
2746.1097716931308
 20
1055.162332160872
 30
0.0
 11
2746.1097716931308
 21
959.76233216087223
 31
0.0
  0
LINE
  5
5526
  8
0
 10
2718.109771693129
 20
1055.162332160872
 30
0.0
 11
2718.109771693129
 21
959.76233216087223
 31
0.0
  0
LINE
  5
5527
  8
0
 10
2718.109771693129
 20
959.76233216087223
 30
0.0
 11
2746.1097716931308
 21
959.76233216087223
 31
0.0
  0
LINE
  5
5528
  8
0
 10
2718.109771693129
 20
1055.162332160872
 30
0.0
 11
2746.1097716931308
 21
1055.162332160872
 31
0.0
  0
LINE
  5
5529
  8
0
 10
2718.109771693129
 20
1052.6623321608711
 30
0.0
 11
2746.1097716931308
 21
1052.6623321608711
 31
0.0
  0
LINE
  5
552A
  8
0
 10
2732.1097716931308
 20
1047.662332160872
 30
0.0
 11
2732.1097716931308
 21
1060.162332160872
 31
0.0
  0
TEXT
  5
57D9
  8
0
 10
1399.948583494989
 20
1916.3714841780461
 30
0.0
 40
37.5
  1
ISD87KYX
  7
TITLE3
  0
TEXT
  5
57DA
  8
0
 10
2803.816104780351
 20
920.71074926126528
 30
0.0
 40
30.0
  1
ISD 87KYX
  7
TITLE3
  0
LINE
  5
57DB
  8
0
 62
     7
 10
1163.2181787338679
 20
2455.6501991520781
 30
0.0
 11
1163.2181787338679
 21
2521.280023042938
 31
0.0
  0
LINE
  5
57DC
  8
0
 62
     7
 10
1193.2181787338691
 20
2501.2800230429361
 30
0.0
 11
1491.062384310474
 21
2501.2800230429361
 31
0.0
  0
SOLID
  5
57DD
  8
0
 62
     7
 10
1193.2181787338691
 20
2506.280023042938
 30
0.0
 11
1193.2181787338691
 21
2496.280023042937
 31
0.0
 12
1163.2181787338679
 22
2501.2800230429361
 32
0.0
 13
1163.2181787338679
 23
2501.2800230429361
 33
0.0
  0
LINE
  5
57E1
  8
0
 62
     7
 10
2002.2181787338679
 20
2455.6501991520781
 30
0.0
 11
2002.2181787338679
 21
2521.280023042938
 31
0.0
  0
LINE
  5
57E2
  8
0
 62
     7
 10
1972.2181787338679
 20
2501.2800230429361
 30
0.0
 11
1594.727393155991
 21
2501.2800230429361
 31
0.0
  0
SOLID
  5
57E3
  8
0
 62
     7
 10
1972.2181787338679
 20
2506.280023042938
 30
0.0
 11
1972.2181787338679
 21
2496.280023042937
 31
0.0
 12
2002.2181787338679
 22
2501.2800230429361
 32
0.0
 13
2002.2181787338679
 23
2501.2800230429361
 33
0.0
  0
TEXT
  5
57EE
  8
0
 62
     7
 10
1511.547926205139
 20
2489.180023042938
 30
0.0
 40
25.0
  1
839
  0
LINE
  5
57EF
  8
0
 62
     7
 10
1171.568178733869
 20
1621.650199152077
 30
0.0
 11
1171.568178733869
 21
1553.041938488564
 31
0.0
  0
LINE
  5
57F0
  8
0
 62
     7
 10
1201.568178733866
 20
1573.0419384885649
 30
0.0
 11
1490.0568193189019
 21
1573.0419384885649
 31
0.0
  0
SOLID
  5
57F1
  8
0
 62
     7
 10
1201.568178733866
 20
1578.0419384885649
 30
0.0
 11
1201.568178733866
 21
1568.0419384885649
 31
0.0
 12
1171.568178733869
 22
1573.0419384885649
 32
0.0
 13
1171.568178733869
 23
1573.0419384885649
 33
0.0
  0
LINE
  5
57F3
  8
0
 62
     7
 10
2009.568178733864
 20
1621.650199152077
 30
0.0
 11
2009.568178733864
 21
1553.041938488564
 31
0.0
  0
LINE
  5
57F4
  8
0
 62
     7
 10
1979.5681787338631
 20
1573.0419384885649
 30
0.0
 11
1581.7234859855689
 21
1573.0419384885649
 31
0.0
  0
SOLID
  5
57F5
  8
0
 62
     7
 10
1979.5681787338631
 20
1578.0419384885649
 30
0.0
 11
1979.5681787338631
 21
1568.0419384885649
 31
0.0
 12
2009.568178733864
 22
1573.0419384885649
 32
0.0
 13
2009.568178733864
 23
1573.0419384885649
 33
0.0
  0
TEXT
  5
57F9
  8
0
 62
     7
 10
1496.307643264591
 20
1560.3419384885649
 30
0.0
 40
25.0
  1
838
  0
LINE
  5
57FA
  8
0
 62
     7
 10
2772.8723426493721
 20
742.83141917514502
 30
0.0
 11
2740.699110022184
 21
771.36402116053011
 31
0.0
  0
LINE
  5
57FB
  8
0
 62
     7
 10
2795.226143488384
 20
781.41399513805652
 30
0.0
 11
2795.226143488384
 21
761.31404718300098
 31
0.0
  0
LINE
  5
57FC
  8
0
 62
     7
 10
2795.226143488384
 20
761.31404718300098
 30
0.0
 11
2772.8723426493721
 21
761.31404718300098
 31
0.0
  0
LINE
  5
57FD
  8
0
 62
     7
 10
2772.8723426493721
 20
761.31404718300098
 30
0.0
 11
2772.8723426493721
 21
742.83141917514502
 31
0.0
  0
LINE
  5
57FE
  8
0
 62
     7
 10
2772.8723426493721
 20
799.89662314591294
 30
0.0
 11
2740.699110022184
 21
771.36402116053011
 31
0.0
  0
LINE
  5
57FF
  8
0
 62
     7
 10
2795.226143488384
 20
781.41399513805652
 30
0.0
 11
2772.8723426493721
 21
781.41399513805652
 31
0.0
  0
LINE
  5
5800
  8
0
 62
     7
 10
2772.8723426493721
 20
781.41399513805652
 30
0.0
 11
2772.8723426493721
 21
799.89662314591294
 31
0.0
  0
LINE
  5
5801
  8
0
 62
     7
 10
3372.493189788639
 20
819.93655950172229
 30
0.0
 11
3340.319957161455
 21
848.46916148710784
 31
0.0
  0
LINE
  5
5802
  8
0
 62
     7
 10
3389.9589906276519
 20
858.51913546463379
 30
0.0
 11
3389.9589906276519
 21
838.41918750957848
 31
0.0
  0
LINE
  5
5803
  8
0
 62
     7
 10
3389.9589906276519
 20
838.41918750957848
 30
0.0
 11
3372.493189788639
 21
838.41918750957848
 31
0.0
  0
LINE
  5
5804
  8
0
 62
     7
 10
3372.493189788639
 20
838.41918750957848
 30
0.0
 11
3372.493189788639
 21
819.93655950172229
 31
0.0
  0
LINE
  5
5805
  8
0
 62
     7
 10
3372.493189788639
 20
877.00176347249078
 30
0.0
 11
3340.319957161455
 21
848.46916148710784
 31
0.0
  0
LINE
  5
5806
  8
0
 62
     7
 10
3389.9589906276519
 20
858.51913546463379
 30
0.0
 11
3372.493189788639
 21
858.51913546463379
 31
0.0
  0
LINE
  5
5807
  8
0
 62
     7
 10
3372.493189788639
 20
858.51913546463379
 30
0.0
 11
3372.493189788639
 21
877.00176347249078
 31
0.0
  0
LINE
  5
5808
  8
0
 62
     7
 10
2653.9597716931289
 20
917.06233216087185
 30
0.0
 11
2590.4216841939569
 21
917.06233216087185
 31
0.0
  0
LINE
  5
5809
  8
0
 62
     7
 10
2610.4216841939578
 20
887.06233216087185
 30
0.0
 11
2610.4216841939551
 21
812.6591275856174
 31
0.0
  0
SOLID
  5
580A
  8
0
 62
     7
 10
2605.421684193956
 20
887.06233216087185
 30
0.0
 11
2615.4216841939569
 21
887.06233216087185
 31
0.0
 12
2610.4216841939578
 22
917.06233216087185
 32
0.0
 13
2610.4216841939578
 23
917.06233216087185
 33
0.0
  0
TEXT
  5
580B
  8
0
 62
     7
 10
2622.921684193956
 20
739.74328486464015
 30
0.0
 40
25.0
  1
276
 50
90.0
  0
LINE
  5
580C
  8
0
 62
     7
 10
2653.9597716931289
 20
641.06233216087185
 30
0.0
 11
2590.4216841939569
 21
641.06233216087185
 31
0.0
  0
LINE
  5
580D
  8
0
 62
     7
 10
2610.421684193956
 20
671.06233216087162
 30
0.0
 11
2610.421684193956
 21
733.49246091895122
 31
0.0
  0
SOLID
  5
580E
  8
0
 62
     7
 10
2605.421684193956
 20
671.06233216087162
 30
0.0
 11
2615.4216841939569
 21
671.06233216087162
 31
0.0
 12
2610.421684193956
 22
641.06233216087185
 32
0.0
 13
2610.421684193956
 23
641.06233216087185
 33
0.0
  0
LINE
  5
585C
  8
0
 62
     7
 10
3487.9597716931289
 20
1026.162332160872
 30
0.0
 11
3554.565598529759
 21
1026.162332160872
 31
0.0
  0
LINE
  5
585D
  8
0
 62
     7
 10
3534.5655985297631
 20
996.16233216087187
 30
0.0
 11
3534.5655985297608
 21
885.79960987752565
 31
0.0
  0
SOLID
  5
585E
  8
0
 62
     7
 10
3529.565598529759
 20
996.16233216087187
 30
0.0
 11
3539.5655985297631
 21
996.16233216087187
 31
0.0
 12
3534.5655985297631
 22
1026.162332160872
 32
0.0
 13
3534.5655985297631
 23
1026.162332160872
 33
0.0
  0
TEXT
  5
585F
  8
0
 62
     7
 10
3547.0655985297608
 20
812.88376715654738
 30
0.0
 40
25.0
  1
355
 50
90.0
  0
LINE
  5
5860
  8
0
 62
     7
 10
3487.959771693133
 20
671.16233216087301
 30
0.0
 11
3554.565598529759
 21
671.16233216087301
 31
0.0
  0
LINE
  5
5861
  8
0
 62
     7
 10
3534.5655985297631
 20
701.16233216087278
 30
0.0
 11
3534.5655985297631
 21
806.63294321085834
 31
0.0
  0
SOLID
  5
5862
  8
0
 62
     7
 10
3529.565598529759
 20
701.16233216087278
 30
0.0
 11
3539.5655985297631
 21
701.16233216087278
 31
0.0
 12
3534.5655985297631
 22
671.16233216087301
 32
0.0
 13
3534.5655985297631
 23
671.16233216087301
 33
0.0
  0
LINE
  5
58B4
  8
0
 62
     7
 10
3425.5097716931309
 20
1055.162332160872
 30
0.0
 11
3619.0868473805131
 21
1055.162332160872
 31
0.0
  0
LINE
  5
58B5
  8
0
 62
     7
 10
3599.0868473805108
 20
1025.162332160872
 30
0.0
 11
3599.0868473805108
 21
926.08841044381313
 31
0.0
  0
SOLID
  5
58B6
  8
0
 62
     7
 10
3594.0868473805131
 20
1025.162332160872
 30
0.0
 11
3604.0868473805149
 21
1025.162332160872
 31
0.0
 12
3599.0868473805172
 22
1055.162332160872
 32
0.0
 13
3599.0868473805172
 23
1055.162332160872
 33
0.0
  0
LINE
  5
58B8
  8
0
 62
     7
 10
3428.909771693131
 20
624.16233216087164
 30
0.0
 11
3619.0868473805131
 21
624.16233216087164
 31
0.0
  0
LINE
  5
58B9
  8
0
 62
     7
 10
3599.0868473805172
 20
654.16233216087176
 30
0.0
 11
3599.0868473805172
 21
746.92174377714684
 31
0.0
  0
SOLID
  5
58BA
  8
0
 62
     7
 10
3594.0868473805131
 20
654.16233216087176
 30
0.0
 11
3604.0868473805158
 21
654.16233216087176
 31
0.0
 12
3599.0868473805172
 22
624.16233216087164
 32
0.0
 13
3599.0868473805172
 23
624.16233216087164
 33
0.0
  0
TEXT
  5
58BB
  8
0
 62
     7
 10
3611.5868473805149
 20
753.17256772283554
 30
0.0
 40
25.0
  1
431 O/A
 50
90.0
  0
LINE
  5
5909
  8
0
  6
PHANTOM
 62
     7
 10
2606.0181787338679
 20
1391.650199152077
 30
0.0
 11
2606.0181787338679
 21
2384.6501991520799
 31
0.0
  0
LINE
  5
590A
  8
0
  6
PHANTOM
 62
     7
 10
2606.0181787338679
 20
2384.6501991520799
 30
0.0
 11
2116.5971839212589
 21
2384.6501991520799
 31
0.0
  0
TEXT
  5
590B
  8
0
 62
     7
 10
2647.3079293760652
 20
1687.9818970912761
 30
0.0
 40
25.0
  1
500 mm CLEARENCE
 50
90.0
  7
TITLE3
  0
LINE
  5
590C
  8
0
  6
PHANTOM
 62
     7
 10
2028.568178733864
 20
1391.650199152077
 30
0.0
 11
2606.0181787338679
 21
1391.650199152077
 31
0.0
  0
LINE
  5
590E
  8
0
  6
PHANTOM
 62
     7
 10
2028.568178733864
 20
1391.650199152077
 30
0.0
 11
2028.568178733864
 21
1539.462933301174
 31
0.0
  0
TEXT
  5
590F
  8
0
 62
     7
 10
2070.2210933756969
 20
1349.253303204239
 30
0.0
 40
25.0
  1
250 mm CLEARENCE
  7
TITLE3
  0
LINE
  5
5967
  8
0
 62
     7
 10
2673.9597716931289
 20
621.06233216087162
 30
0.0
 11
2673.9597716931289
 21
516.25069834741282
 31
0.0
  0
LINE
  5
5968
  8
0
 62
     7
 10
2703.9597716931289
 20
536.25069834741294
 30
0.0
 11
2989.6573154679791
 21
536.25069834741316
 31
0.0
  0
SOLID
  5
5969
  8
0
 62
     7
 10
2703.9597716931289
 20
541.25069834741282
 30
0.0
 11
2703.9597716931289
 21
531.25069834741282
 31
0.0
 12
2673.9597716931289
 22
536.25069834741294
 32
0.0
 13
2673.9597716931289
 23
536.25069834741294
 33
0.0
  0
LINE
  5
596A
  8
0
 62
     7
 10
3467.9597716931321
 20
650.32633216087231
 30
0.0
 11
3467.9597716931321
 21
516.25069834741294
 31
0.0
  0
LINE
  5
596B
  8
0
 62
     7
 10
3437.9597716931321
 20
536.25069834741305
 30
0.0
 11
3168.8239821346451
 21
536.25069834741316
 31
0.0
  0
SOLID
  5
596C
  8
0
 62
     7
 10
3437.9597716931321
 20
541.25069834741294
 30
0.0
 11
3437.9597716931321
 21
531.25069834741294
 31
0.0
 12
3467.9597716931321
 22
536.25069834741305
 32
0.0
 13
3467.9597716931321
 23
536.25069834741305
 33
0.0
  0
TEXT
  5
596E
  8
0
 62
     7
 10
2995.9081394136688
 20
523.75069834741214
 30
0.0
 40
25.0
  1
794 O/A
  0
LINE
  5
59BF
  8
0
 62
     7
 10
2046.5681787338681
 20
1690.1001991520779
 30
0.0
 11
2046.5681787338681
 21
1508.6518225811419
 31
0.0
  0
LINE
  5
59C0
  8
0
 62
     7
 10
2020.518178733867
 20
1528.6518225811431
 30
0.0
 11
1674.420133698339
 21
1528.651822581144
 31
0.0
  0
SOLID
  5
59C1
  8
0
 62
     7
 10
2018.518178733867
 20
1533.6518225811431
 30
0.0
 11
2018.518178733867
 21
1523.6518225811431
 31
0.0
 12
2046.5681787338681
 22
1528.6518225811431
 32
0.0
 13
2046.5681787338681
 23
1528.6518225811431
 33
0.0
  0
LINE
  5
59C2
  8
0
 62
     7
 10
1166.5681787338681
 20
1528.651822581144
 30
0.0
 11
1432.586800365005
 21
1528.651822581144
 31
0.0
  0
SOLID
  5
59C3
  8
0
 62
     7
 10
1168.5681787338681
 20
1533.6518225811431
 30
0.0
 11
1168.5681787338681
 21
1523.6518225811431
 31
0.0
 12
1138.5681787338681
 22
1528.651822581144
 32
0.0
 13
1138.5681787338681
 23
1528.651822581144
 33
0.0
  0
TEXT
  5
59C4
  8
0
 62
     7
 10
1447.3484539488641
 20
1515.951822581143
 30
0.0
 40
25.0
  1
908 CTRS
  0
LINE
  5
5A12
  8
0
 62
     7
 10
2732.1097716931308
 20
1071.862332160872
 30
0.0
 11
2732.1097716931308
 21
1137.4921560517321
 31
0.0
  0
LINE
  5
5A13
  8
0
 62
     7
 10
2762.109771693129
 20
1117.49215605173
 30
0.0
 11
2955.642082012118
 21
1117.49215605173
 31
0.0
  0
SOLID
  5
5A14
  8
0
 62
     7
 10
2762.109771693129
 20
1122.4921560517321
 30
0.0
 11
2762.109771693129
 21
1112.4921560517321
 31
0.0
 12
2732.1097716931308
 22
1117.49215605173
 32
0.0
 13
2732.1097716931308
 23
1117.49215605173
 33
0.0
  0
LINE
  5
5A15
  8
0
 62
     7
 10
3398.1097716931299
 20
1071.862332160872
 30
0.0
 11
3398.1097716931299
 21
1137.4921560517321
 31
0.0
  0
LINE
  5
5A16
  8
0
 62
     7
 10
3368.1097716931322
 20
1117.49215605173
 30
0.0
 11
3160.027384876726
 21
1117.49215605173
 31
0.0
  0
SOLID
  5
5A17
  8
0
 62
     7
 10
3368.1097716931322
 20
1122.4921560517321
 30
0.0
 11
3368.1097716931322
 21
1112.4921560517321
 31
0.0
 12
3398.1097716931299
 22
1117.49215605173
 32
0.0
 13
3398.1097716931299
 23
1117.49215605173
 33
0.0
  0
TEXT
  5
5A18
  8
0
 62
     7
 10
2961.8929059578072
 20
1105.3921560517319
 30
0.0
 40
25.0
  1
666 CTRS
  0
LINE
  5
5A67
  8
0
 62
     7
 10
1083.568178733869
 20
2379.200199152081
 30
0.0
 11
1083.568178733869
 21
2598.959510282572
 31
0.0
  0
TEXT
  5
5A6A
  8
0
 62
     7
 10
1435.180812435224
 20
2550.8594809006181
 30
0.0
 40
25.0
  1
1014 CTRS
  0
LINE
  5
5A6C
  8
0
 62
     7
 10
2098.5681787338699
 20
2379.200199152081
 30
0.0
 11
2098.5681787338699
 21
2598.959510282572
 31
0.0
  0
LINE
  5
5A6D
  8
0
 62
     7
 10
2068.5681787338681
 20
2562.959480900618
 30
0.0
 11
1650.141302356466
 21
2562.959480900618
 31
0.0
  0
SOLID
  5
5A6E
  8
0
 62
     7
 10
2068.5681787338681
 20
2567.9594809006189
 30
0.0
 11
2068.5681787338681
 21
2557.959480900618
 31
0.0
 12
2098.5681787338699
 22
2562.959480900618
 32
0.0
 13
2098.5681787338699
 23
2562.959480900618
 33
0.0
  0
LINE
  5
5D99
  8
0
 62
     7
 10
1113.568178733869
 20
2562.9594809006171
 30
0.0
 11
1428.929988489534
 21
2562.9594809006171
 31
0.0
  0
SOLID
  5
5D9A
  8
0
 62
     7
 10
1113.568178733869
 20
2567.9594809006189
 30
0.0
 11
1113.568178733869
 21
2557.959480900618
 31
0.0
 12
1083.568178733869
 22
2562.9594809006171
 32
0.0
 13
1083.568178733869
 23
2562.9594809006171
 33
0.0
  0
LINE
  5
5D9B
  8
0
 10
2101.1681787338698
 20
624.16233216087176
 30
0.0
 11
1078.168178733868
 21
624.16233216087176
 31
0.0
  0
LINE
  5
5D9E
  8
0
 10
1078.168178733868
 20
649.16233216087176
 30
0.0
 11
1078.168178733868
 21
624.16233216087176
 31
0.0
  0
LINE
  5
5D9F
  8
0
 10
2101.1681787338698
 20
649.16233216087176
 30
0.0
 11
2101.1681787338698
 21
624.16233216087176
 31
0.0
  0
LINE
  5
5DA0
  8
0
 10
1099.068178733869
 20
1055.162332160872
 30
0.0
 11
1099.068178733869
 21
624.16233216087176
 31
0.0
  0
LINE
  5
5DA2
  8
0
 10
2085.8537736705798
 20
677.392332160872
 30
0.0
 11
2120.1681787338698
 21
677.392332160872
 31
0.0
  0
LINE
  5
5DA3
  8
0
 10
2120.1681787338698
 20
676.39233216087246
 30
0.0
 11
2136.1681787338698
 21
676.39233216087246
 31
0.0
  0
LINE
  5
5DA4
  8
0
 10
2085.6866850629849
 20
699.39233216087223
 30
0.0
 11
2120.1681787338698
 21
699.39233216087223
 31
0.0
  0
LINE
  5
5DA5
  8
0
 10
2120.1681787338698
 20
700.39233216087155
 30
0.0
 11
2136.1681787338698
 21
700.39233216087155
 31
0.0
  0
LINE
  5
5DA6
  8
0
 10
2136.1681787338698
 20
700.39233216087155
 30
0.0
 11
2136.1681787338698
 21
676.39233216087246
 31
0.0
  0
LINE
  5
5DA7
  8
0
 10
2120.1681787338698
 20
700.39233216087155
 30
0.0
 11
2120.1681787338698
 21
676.39233216087246
 31
0.0
  0
LINE
  5
5DA8
  8
0
 10
2085.2272518907089
 20
759.8843665104871
 30
0.0
 11
2123.4681787338691
 21
759.8843665104871
 31
0.0
  0
LINE
  5
5DA9
  8
0
 10
2123.4681787338691
 20
758.88436651048642
 30
0.0
 11
2136.1681787338698
 21
758.88436651048642
 31
0.0
  0
LINE
  5
5DAA
  8
0
 10
2085.1307961945072
 20
772.5843665104868
 30
0.0
 11
2123.4681787338691
 21
772.58436651048703
 31
0.0
  0
LINE
  5
5DAB
  8
0
 10
2123.4681787338691
 20
773.58436651048703
 30
0.0
 11
2136.1681787338698
 21
773.58436651048703
 31
0.0
  0
LINE
  5
5DAD
  8
0
 10
2136.1681787338698
 20
773.58436651048703
 30
0.0
 11
2136.1681787338698
 21
758.88436651048642
 31
0.0
  0
LINE
  5
5DAE
  8
0
 10
2101.1681787338689
 20
624.99833216087245
 30
0.0
 11
2129.1681787338698
 21
624.99833216087211
 31
0.0
  0
LINE
  5
5DAF
  8
0
 10
2123.1621787338681
 20
640.99833216087245
 30
0.0
 11
2129.1681787338698
 21
640.99833216087245
 31
0.0
  0
LINE
  5
5DB0
  8
0
 10
2129.1681787338698
 20
640.99833216087211
 30
0.0
 11
2129.1681787338698
 21
624.998332160872
 31
0.0
  0
LINE
  5
5DB1
  8
0
 10
2101.1681787338689
 20
639.16233216087187
 30
0.0
 11
2123.1621787338681
 21
639.1623321608721
 31
0.0
  0
LINE
  5
5DB2
  8
0
 10
2085.9922293667828
 20
659.16233216087198
 30
0.0
 11
2123.1621787338681
 21
659.1623321608721
 31
0.0
  0
LINE
  5
5DB3
  8
0
 10
2123.1621787338681
 20
659.1623321608721
 30
0.0
 11
2123.1621787338681
 21
639.1623321608721
 31
0.0
  0
LINE
  5
5DB5
  8
0
 10
2083.068178733869
 20
1055.162332160872
 30
0.0
 11
2112.568178733869
 21
1055.162332160872
 31
0.0
  0
LINE
  5
5DB6
  8
0
 10
2085.568178733869
 20
1052.6623321608711
 30
0.0
 11
2112.568178733869
 21
1052.6623321608711
 31
0.0
  0
LINE
  5
5DB7
  8
0
 10
2112.568178733869
 20
1055.162332160872
 30
0.0
 11
2112.568178733869
 21
1052.6623321608711
 31
0.0
  0
LINE
  5
5DB8
  8
0
 10
2098.5681787338699
 20
1060.162332160872
 30
0.0
 11
2098.5681787338699
 21
1047.662332160872
 31
0.0
  0
LINE
  5
5DB9
  8
0
 10
1096.5681787338699
 20
1052.6623321608711
 30
0.0
 11
1096.5681787338699
 21
959.76233216087235
 31
0.0
  0
LINE
  5
5DBA
  8
0
 10
1099.068178733869
 20
1055.162332160872
 30
0.0
 11
1069.568178733869
 21
1055.162332160872
 31
0.0
  0
LINE
  5
5DBB
  8
0
 10
1096.5681787338699
 20
1052.6623321608711
 30
0.0
 11
1069.568178733869
 21
1052.6623321608711
 31
0.0
  0
LINE
  5
5DBD
  8
0
 10
1069.568178733869
 20
1055.162332160872
 30
0.0
 11
1069.568178733869
 21
1052.6623321608711
 31
0.0
  0
LINE
  5
5DBE
  8
0
 10
1083.568178733869
 20
1060.162332160872
 30
0.0
 11
1083.568178733869
 21
1047.662332160872
 31
0.0
  0
LINE
  5
5DBF
  8
0
 10
2028.5681787338681
 20
1033.2123321608719
 30
0.0
 11
2028.5681787338719
 21
635.11233216087226
 31
0.0
  0
LINE
  5
5DC0
  8
0
 10
1152.568178733869
 20
1041.808621776052
 30
0.0
 11
1152.568178733869
 21
635.11233216087226
 31
0.0
  0
LINE
  5
5DC1
  8
0
 10
2028.5681787338719
 20
635.11233216087226
 30
0.0
 11
1152.568178733869
 21
635.11233216087226
 31
0.0
  0
LINE
  5
5DC2
  8
0
 10
2028.5681787338681
 20
1041.808621776052
 30
0.0
 11
1152.568178733869
 21
1041.808621776052
 31
0.0
  0
LINE
  5
5DC3
  8
0
 10
2009.6566267253841
 20
641.06233216087185
 30
0.0
 11
1171.568178733869
 21
641.06233216087185
 31
0.0
  0
LINE
  5
5DC4
  8
0
 10
2009.6566267253841
 20
903.05533216087235
 30
0.0
 11
1171.568178733869
 21
903.05533216087235
 31
0.0
  0
LINE
  5
5DC5
  8
0
 10
1171.568178733869
 20
903.05533216087235
 30
0.0
 11
1171.568178733869
 21
641.06233216087185
 31
0.0
  0
LINE
  5
5DC6
  8
0
 10
2009.6566267253841
 20
903.05533216087235
 30
0.0
 11
2009.6566267253841
 21
641.06233216087185
 31
0.0
  0
LINE
  5
5DC8
  8
0
 10
2104.5681787338631
 20
1028.477332160872
 30
0.0
 11
2028.5681787338681
 21
1028.477332160872
 31
0.0
  0
LINE
  5
5DCB
  8
0
 10
1152.568178733869
 20
1055.162332160872
 30
0.0
 11
1152.568178733869
 21
959.76233216087235
 31
0.0
  0
LINE
  5
5DD3
  8
0
 10
2028.5681787338681
 20
1055.162332160872
 30
0.0
 11
2028.5681787338681
 21
959.76233216087235
 31
0.0
  0
LINE
  5
5DD4
  8
0
 10
2031.068178733871
 20
1052.6623321608711
 30
0.0
 11
2031.068178733871
 21
959.76233216087223
 31
0.0
  0
LINE
  5
5DD5
  8
0
 10
2028.5681787338681
 20
1055.162332160872
 30
0.0
 11
2062.5681787338699
 21
1055.162332160872
 31
0.0
  0
LINE
  5
5DD6
  8
0
 10
2031.068178733871
 20
1052.6623321608711
 30
0.0
 11
2062.5681787338699
 21
1052.6623321608711
 31
0.0
  0
LINE
  5
5DD7
  8
0
 10
2062.5681787338699
 20
1055.162332160872
 30
0.0
 11
2062.5681787338699
 21
1052.6623321608711
 31
0.0
  0
LINE
  5
5DD8
  8
0
 10
2028.5681787338681
 20
959.76233216087235
 30
0.0
 11
2031.068178733871
 21
959.76233216087223
 31
0.0
  0
LINE
  5
5DD9
  8
0
 10
2046.6239435542141
 20
1060.162332160872
 30
0.0
 11
2046.6239435542141
 21
1047.662332160872
 31
0.0
  0
LINE
  5
5DDA
  8
0
 10
2083.068178733869
 20
1044.162332160872
 30
0.0
 11
1099.068178733869
 21
1044.162332160872
 31
0.0
  0
LINE
  5
5DE8
  8
0
  6
HIDDEN
 62
     7
 10
2028.5681787338681
 20
958.76233216087041
 30
0.0
 11
2028.5681787338681
 21
1006.26233216087
 31
0.0
  0
LINE
  5
5E06
  8
0
  6
HIDDEN
 62
     7
 10
1152.568178733869
 20
958.76233216087041
 30
0.0
 11
1152.568178733869
 21
1006.26233216087
 31
0.0
  0
TEXT
  5
5E17
  8
0
 10
1435.2349401400711
 20
952.5153209607148
 30
0.0
 40
37.5
  1
ISD 87KYX
  7
TITLE3
  0
LINE
  5
5E18
  8
0
 62
     7
 10
1078.168178733868
 20
604.1623321608721
 30
0.0
 11
1078.168178733868
 21
516.25069834741305
 31
0.0
  0
LINE
  5
5E19
  8
0
 62
     7
 10
1108.1681787338671
 20
536.25069834741316
 30
0.0
 11
1559.703273014853
 21
536.25069834741328
 31
0.0
  0
SOLID
  5
5E1A
  8
0
 62
     7
 10
1108.1681787338671
 20
541.25069834741305
 30
0.0
 11
1108.1681787338671
 21
531.25069834741305
 31
0.0
 12
1078.168178733868
 22
536.25069834741316
 32
0.0
 13
1078.168178733868
 23
536.25069834741316
 33
0.0
  0
LINE
  5
5E1B
  8
0
 62
     7
 10
2136.1681787338698
 20
656.83729068062576
 30
0.0
 11
2136.1681787338698
 21
516.25069834741305
 31
0.0
  0
LINE
  5
5E1C
  8
0
 62
     7
 10
2106.1681787338712
 20
536.25069834741316
 30
0.0
 11
1754.4506756264391
 21
536.25069834741328
 31
0.0
  0
SOLID
  5
5E1D
  8
0
 62
     7
 10
2106.1681787338712
 20
541.25069834741305
 30
0.0
 11
2106.1681787338712
 21
531.25069834741305
 31
0.0
 12
2136.1681787338698
 22
536.25069834741316
 32
0.0
 13
2136.1681787338698
 23
536.25069834741316
 33
0.0
  0
TEXT
  5
5E1E
  8
0
 62
     7
 10
1565.9540969605409
 20
523.75069834741225
 30
0.0
 40
25.0
  1
1058 O/A
  0
LINE
  5
5E36
  8
0
 10
2101.1681787338698
 20
649.16233216087176
 30
0.0
 11
2037.568178733871
 21
649.16233216087164
 31
0.0
  0
LINE
  5
5E3A
  8
0
  6
HIDDEN
 62
     7
 10
2083.0681787338672
 20
958.76233216087041
 30
0.0
 11
2083.0681787338672
 21
1006.26233216087
 31
0.0
  0
LINE
  5
5F0B
  8
0
 62
     7
 10
1052.0681787338681
 20
956.26233216087019
 30
0.0
 11
1052.0681787338681
 21
1219.9668517125181
 31
0.0
  0
LINE
  5
5F0C
  8
0
 62
     7
 10
1082.0681787338681
 20
1199.966851712519
 30
0.0
 11
1248.089581296623
 21
1199.966851712519
 31
0.0
  0
SOLID
  5
5F0D
  8
0
 62
     7
 10
1082.0681787338681
 20
1204.9668517125181
 30
0.0
 11
1082.0681787338681
 21
1194.9668517125181
 31
0.0
 12
1052.0681787338681
 22
1199.966851712519
 32
0.0
 13
1052.0681787338681
 23
1199.966851712519
 33
0.0
  0
LINE
  5
5F0F
  8
0
 62
     7
 10
2103.0681787338672
 20
1199.966851712519
 30
0.0
 11
1969.587466699375
 21
1199.9668517125201
 31
0.0
  0
SOLID
  5
5F10
  8
0
 62
     7
 10
2103.0681787338672
 20
1204.9668517125181
 30
0.0
 11
2103.0681787338672
 21
1194.9668517125181
 31
0.0
 12
2133.0681787338681
 22
1199.966851712519
 32
0.0
 13
2133.0681787338681
 23
1199.966851712519
 33
0.0
  0
TEXT
  5
5F11
  8
0
 62
     7
 10
1254.340405242312
 20
1187.4668517125181
 30
0.0
 40
25.0
  1
1077 (SPRING MTG CTRS - OPTION)
  0
LINE
  5
5F12
  8
0
 62
     7
 10
1104.3081787338681
 20
956.26233216086973
 30
0.0
 11
1104.3081787338681
 21
1160.815077715861
 31
0.0
  0
LINE
  5
5F13
  8
0
 62
     7
 10
1134.308178733867
 20
1140.815077715861
 30
0.0
 11
1235.3697740091479
 21
1140.8150777158619
 31
0.0
  0
SOLID
  5
5F14
  8
0
 62
     7
 10
1134.308178733867
 20
1145.815077715861
 30
0.0
 11
1134.308178733867
 21
1135.815077715861
 31
0.0
 12
1104.3081787338681
 22
1140.8150777158619
 32
0.0
 13
1104.3081787338681
 23
1140.8150777158619
 33
0.0
  0
TEXT
  5
5F15
  8
0
 62
     7
 10
1261.29437947213
 20
1128.315077715861
 30
0.0
 40
25.0
  1
971 (SPRING MTG CTRS - OPTION)
  0
LINE
  5
5F16
  8
0
 62
     7
 10
2075.8181787338681
 20
956.26233216086882
 30
0.0
 11
2075.8181787338681
 21
1160.8150777158601
 31
0.0
  0
LINE
  5
5F17
  8
0
 62
     7
 10
2049.5654327317202
 20
1140.8150777158619
 30
0.0
 11
1974.751543568734
 21
1140.8150777158619
 31
0.0
  0
SOLID
  5
5F18
  8
0
 62
     7
 10
2045.818178733869
 20
1145.8150777158601
 30
0.0
 11
2045.818178733869
 21
1135.8150777158601
 31
0.0
 12
2075.8181787338681
 22
1140.8150777158619
 32
0.0
 13
2075.8181787338681
 23
1140.8150777158619
 33
0.0
  0
ARC
  5
5F1C
  8
0
  6
HIDDEN
 62
     7
 10
1076.568178733869
 20
958.76233216087007
 30
0.0
 40
22.5
 50
270.0
 51
0.000000000000007
  0
ARC
  5
5F1D
  8
0
  6
HIDDEN
 62
     7
 10
1076.568178733869
 20
958.76233216087007
 30
0.0
 40
10.0
 50
270.0
 51
0.000000000000007
  0
LINE
  5
5F1E
  8
0
  6
HIDDEN
 62
     7
 10
1076.568178733869
 20
948.76233216087007
 30
0.0
 11
1034.0681787338669
 21
948.76233216087007
 31
0.0
  0
LINE
  5
5F1F
  8
0
  6
HIDDEN
 62
     7
 10
1069.568178733869
 20
929.26233216087201
 30
0.0
 11
1034.568178733869
 21
929.26233216087201
 31
0.0
  0
LINE
  5
5F20
  8
0
  6
HIDDEN
 62
     7
 10
1076.568178733869
 20
936.26233216087212
 30
0.0
 11
1034.0681787338669
 21
936.26233216087212
 31
0.0
  0
LINE
  5
5F21
  8
0
  6
HIDDEN
 62
     7
 10
1034.0681787338669
 20
936.26233216087212
 30
0.0
 11
1034.0681787338669
 21
948.76233216087007
 31
0.0
  0
LINE
  5
5F22
  8
0
  6
HIDDEN
 62
     7
 10
1034.568178733869
 20
929.26233216087007
 30
0.0
 11
1034.568178733869
 21
932.26233216087201
 31
0.0
  0
ARC
  5
5F23
  8
0
  6
HIDDEN
 62
     7
 10
1038.568178733869
 20
932.26233216087201
 30
0.0
 40
4.0
 50
90.0
 51
180.0
  0
LINE
  5
5F24
  8
0
  6
HIDDEN
 62
     7
 10
1052.5681787338681
 20
929.26233216087201
 30
0.0
 11
1052.5681787338681
 21
938.93453320645767
 31
0.0
  0
ARC
  5
5F26
  8
0
  6
HIDDEN
 62
     7
 10
1065.568178733869
 20
932.26233216087201
 30
0.0
 40
4.0
 50
0.000000000000007
 51
90.0
  0
LINE
  5
5F27
  8
0
  6
HIDDEN
 62
     7
 10
1099.068178733869
 20
1006.26233216087
 30
0.0
 11
1086.568178733869
 21
1006.26233216087
 31
0.0
  0
LINE
  5
5F28
  8
0
  6
HIDDEN
 62
     7
 10
1086.568178733869
 20
958.76233216087007
 30
0.0
 11
1086.568178733869
 21
1006.26233216087
 31
0.0
  0
POINT
  5
5F2A
  8
0
  6
HIDDEN
 62
     7
 10
1052.5681787338681
 20
936.26233216087212
 30
0.0
 50
0.000000000000007
  0
LINE
  5
5F2B
  8
0
 10
1150.0681787338681
 20
1052.6623321608711
 30
0.0
 11
1150.0681787338681
 21
959.76233216087235
 31
0.0
  0
LINE
  5
5F2C
  8
0
 10
1152.5681787338681
 20
1055.162332160872
 30
0.0
 11
1118.568178733869
 21
1055.162332160872
 31
0.0
  0
LINE
  5
5F2D
  8
0
 10
1150.068178733869
 20
1052.6623321608711
 30
0.0
 11
1118.568178733869
 21
1052.6623321608711
 31
0.0
  0
LINE
  5
5F2E
  8
0
 10
1152.568178733869
 20
959.76233216087235
 30
0.0
 11
1150.0681787338681
 21
959.76233216087235
 31
0.0
  0
LINE
  5
5F2F
  8
0
 10
1118.568178733869
 20
1055.162332160872
 30
0.0
 11
1118.568178733869
 21
1052.6623321608711
 31
0.0
  0
LINE
  5
5F30
  8
0
 10
1138.5681787338681
 20
1060.162332160872
 30
0.0
 11
1138.5681787338681
 21
1047.662332160872
 31
0.0
  0
LINE
  5
5F31
  8
0
  6
HIDDEN
 62
     7
 10
1152.568178733869
 20
958.76233216087007
 30
0.0
 11
1152.568178733869
 21
1006.26233216087
 31
0.0
  0
ARC
  5
5F32
  8
0
  6
HIDDEN
 62
     7
 10
1128.558178733869
 20
958.76233216087007
 30
0.0
 40
22.5
 50
270.0
 51
0.000000000000007
  0
ARC
  5
5F33
  8
0
  6
HIDDEN
 62
     7
 10
1128.558178733869
 20
958.76233216087007
 30
0.0
 40
10.0
 50
270.0
 51
0.000000000000007
  0
LINE
  5
5F34
  8
0
  6
HIDDEN
 62
     7
 10
1128.558178733869
 20
948.76233216087007
 30
0.0
 11
1086.3081787338681
 21
948.76233216087007
 31
0.0
  0
LINE
  5
5F35
  8
0
  6
HIDDEN
 62
     7
 10
1121.808178733869
 20
929.26233216087201
 30
0.0
 11
1086.8081787338681
 21
929.26233216087201
 31
0.0
  0
LINE
  5
5F36
  8
0
  6
HIDDEN
 62
     7
 10
1128.558178733869
 20
936.26233216087212
 30
0.0
 11
1086.3081787338681
 21
936.26233216087212
 31
0.0
  0
LINE
  5
5F37
  8
0
  6
HIDDEN
 62
     7
 10
1086.3081787338681
 20
936.26233216087212
 30
0.0
 11
1086.3081787338681
 21
948.76233216087007
 31
0.0
  0
LINE
  5
5F38
  8
0
  6
HIDDEN
 62
     7
 10
1086.8081787338681
 20
929.26233216087007
 30
0.0
 11
1086.8081787338681
 21
932.26233216087212
 31
0.0
  0
ARC
  5
5F39
  8
0
  6
HIDDEN
 62
     7
 10
1090.8081787338681
 20
932.26233216087212
 30
0.0
 40
4.0
 50
90.0
 51
180.0
  0
LINE
  5
5F3A
  8
0
  6
HIDDEN
 62
     7
 10
1083.3581787338669
 20
929.26233216087201
 30
0.0
 11
1083.3581787338669
 21
938.93453320645767
 31
0.0
  0
LINE
  5
5F3B
  8
0
  6
HIDDEN
 62
     7
 10
1121.808178733869
 20
929.26233216087007
 30
0.0
 11
1121.808178733869
 21
932.26233216087212
 31
0.0
  0
ARC
  5
5F3C
  8
0
  6
HIDDEN
 62
     7
 10
1117.808178733869
 20
932.26233216087212
 30
0.0
 40
4.0
 50
0.000000000000007
 51
90.0
  0
LINE
  5
5F3D
  8
0
  6
HIDDEN
 62
     7
 10
1151.058178733867
 20
1006.26233216087
 30
0.0
 11
1138.558178733869
 21
1006.26233216087
 31
0.0
  0
LINE
  5
5F3E
  8
0
  6
HIDDEN
 62
     7
 10
1138.558178733869
 20
958.76233216087007
 30
0.0
 11
1138.558178733869
 21
1006.26233216087
 31
0.0
  0
LINE
  5
5F3F
  8
0
  6
HIDDEN
 62
     7
 10
1152.568178733869
 20
958.76233216087007
 30
0.0
 11
1152.568178733869
 21
1006.26233216087
 31
0.0
  0
POINT
  5
5F40
  8
0
  6
HIDDEN
 62
     7
 10
1104.8081787338681
 20
936.26233216087212
 30
0.0
 50
0.000000000000007
  0
LINE
  5
5F41
  8
0
  6
HIDDEN
 62
     7
 10
2083.0681787338672
 20
958.76233216087041
 30
0.0
 11
2083.0681787338672
 21
1006.26233216087
 31
0.0
  0
LINE
  5
5F42
  8
0
  6
HIDDEN
 62
     7
 10
2083.0681787338672
 20
958.76233216087007
 30
0.0
 11
2083.0681787338672
 21
1006.26233216087
 31
0.0
  0
ARC
  5
5F43
  8
0
  6
HIDDEN
 62
     7
 10
2105.5681787338649
 20
958.76233216087007
 30
0.0
 40
22.5
 50
180.0
 51
270.0
  0
ARC
  5
5F44
  8
0
  6
HIDDEN
 62
     7
 10
2105.5681787338649
 20
958.76233216087007
 30
0.0
 40
10.0
 50
180.0
 51
270.0
  0
LINE
  5
5F45
  8
0
  6
HIDDEN
 62
     7
 10
2105.5681787338649
 20
948.76233216087007
 30
0.0
 11
2148.0681787338649
 21
948.76233216087007
 31
0.0
  0
LINE
  5
5F46
  8
0
  6
HIDDEN
 62
     7
 10
2112.5681787338649
 20
929.26233216087201
 30
0.0
 11
2147.5681787338658
 21
929.26233216087201
 31
0.0
  0
LINE
  5
5F47
  8
0
  6
HIDDEN
 62
     7
 10
2105.5681787338649
 20
936.26233216087212
 30
0.0
 11
2148.0681787338649
 21
936.26233216087212
 31
0.0
  0
LINE
  5
5F48
  8
0
  6
HIDDEN
 62
     7
 10
2148.0681787338649
 20
936.26233216087212
 30
0.0
 11
2148.0681787338649
 21
948.76233216087007
 31
0.0
  0
LINE
  5
5F49
  8
0
  6
HIDDEN
 62
     7
 10
2147.5681787338658
 20
929.26233216087007
 30
0.0
 11
2147.5681787338658
 21
932.26233216087201
 31
0.0
  0
ARC
  5
5F4A
  8
0
  6
HIDDEN
 62
     7
 10
2143.5681787338649
 20
932.26233216087201
 30
0.0
 40
4.0
 50
0.000000000000007
 51
90.0
  0
LINE
  5
5F4B
  8
0
  6
HIDDEN
 62
     7
 10
2129.5681787338649
 20
929.26233216087201
 30
0.0
 11
2129.5681787338649
 21
938.93453320645767
 31
0.0
  0
LINE
  5
5F4C
  8
0
  6
HIDDEN
 62
     7
 10
2112.5681787338649
 20
929.26233216087007
 30
0.0
 11
2112.5681787338649
 21
932.26233216087201
 31
0.0
  0
ARC
  5
5F4D
  8
0
  6
HIDDEN
 62
     7
 10
2116.5681787338672
 20
932.26233216087201
 30
0.0
 40
4.0
 50
90.0
 51
180.0
  0
LINE
  5
5F4E
  8
0
  6
HIDDEN
 62
     7
 10
2083.0681787338672
 20
1006.26233216087
 30
0.0
 11
2095.5681787338672
 21
1006.26233216087
 31
0.0
  0
LINE
  5
5F4F
  8
0
  6
HIDDEN
 62
     7
 10
2095.5681787338672
 20
958.76233216087007
 30
0.0
 11
2095.5681787338672
 21
1006.26233216087
 31
0.0
  0
LINE
  5
5F50
  8
0
  6
HIDDEN
 62
     7
 10
2083.0681787338672
 20
958.76233216087007
 30
0.0
 11
2083.0681787338672
 21
1006.26233216087
 31
0.0
  0
POINT
  5
5F51
  8
0
  6
HIDDEN
 62
     7
 10
2129.5681787338649
 20
936.26233216087212
 30
0.0
 50
180.0
  0
LINE
  5
5F52
  8
0
  6
HIDDEN
 62
     7
 10
2028.5681787338681
 20
958.76233216086916
 30
0.0
 11
2028.5681787338681
 21
1006.2623321608691
 31
0.0
  0
LINE
  5
5F53
  8
0
  6
HIDDEN
 62
     7
 10
2028.5681787338681
 20
958.76233216086871
 30
0.0
 11
2028.5681787338681
 21
1006.2623321608691
 31
0.0
  0
ARC
  5
5F54
  8
0
  6
HIDDEN
 62
     7
 10
2051.0681787338708
 20
958.76233216086916
 30
0.0
 40
22.5
 50
180.0
 51
270.0
  0
ARC
  5
5F55
  8
0
  6
HIDDEN
 62
     7
 10
2051.0681787338708
 20
958.76233216086916
 30
0.0
 40
10.0
 50
180.0
 51
270.0
  0
LINE
  5
5F56
  8
0
  6
HIDDEN
 62
     7
 10
2051.0681787338708
 20
948.76233216086916
 30
0.0
 11
2094.318178733869
 21
948.76233216086916
 31
0.0
  0
LINE
  5
5F57
  8
0
  6
HIDDEN
 62
     7
 10
2061.8181787338672
 20
929.26233216087132
 30
0.0
 11
2093.8181787338681
 21
929.26233216087132
 31
0.0
  0
LINE
  5
5F58
  8
0
  6
HIDDEN
 62
     7
 10
2051.0681787338708
 20
936.26233216087076
 30
0.0
 11
2094.318178733869
 21
936.26233216087076
 31
0.0
  0
LINE
  5
5F59
  8
0
  6
HIDDEN
 62
     7
 10
2094.318178733869
 20
936.26233216087076
 30
0.0
 11
2094.318178733869
 21
948.76233216086916
 31
0.0
  0
LINE
  5
5F5A
  8
0
  6
HIDDEN
 62
     7
 10
2093.8181787338681
 20
929.26233216086916
 30
0.0
 11
2093.8181787338681
 21
932.26233216087132
 31
0.0
  0
ARC
  5
5F5B
  8
0
  6
HIDDEN
 62
     7
 10
2089.8181787338681
 20
932.26233216087132
 30
0.0
 40
4.0
 50
0.000000000000007
 51
90.0
  0
LINE
  5
5F5C
  8
0
  6
HIDDEN
 62
     7
 10
2075.8181787338681
 20
929.26233216087132
 30
0.0
 11
2075.8181787338681
 21
938.93453320645676
 31
0.0
  0
LINE
  5
5F5D
  8
0
  6
HIDDEN
 62
     7
 10
2061.8181787338672
 20
929.26233216086916
 30
0.0
 11
2061.8181787338672
 21
932.26233216087132
 31
0.0
  0
ARC
  5
5F5E
  8
0
  6
HIDDEN
 62
     7
 10
2065.8181787338681
 20
932.26233216087132
 30
0.0
 40
4.0
 50
90.0
 51
180.0
  0
LINE
  5
5F5F
  8
0
  6
HIDDEN
 62
     7
 10
2028.5681787338681
 20
1006.2623321608691
 30
0.0
 11
2041.0681787338699
 21
1006.2623321608691
 31
0.0
  0
LINE
  5
5F60
  8
0
  6
HIDDEN
 62
     7
 10
2041.0681787338699
 20
958.76233216086916
 30
0.0
 11
2041.0681787338699
 21
1006.2623321608691
 31
0.0
  0
LINE
  5
5F61
  8
0
  6
HIDDEN
 62
     7
 10
2028.5681787338681
 20
958.76233216086916
 30
0.0
 11
2028.5681787338681
 21
1006.2623321608691
 31
0.0
  0
POINT
  5
5F62
  8
0
  6
HIDDEN
 62
     7
 10
2075.8181787338681
 20
936.26233216087076
 30
0.0
 50
180.0
  0
LINE
  5
5F70
  8
0
 62
     7
 10
1138.5681787338681
 20
1690.1001991520779
 30
0.0
 11
1138.5681787338681
 21
1508.6518225811419
 31
0.0
  0
LINE
  5
6368
  8
0
 10
2123.4681787338691
 20
773.58436651048703
 30
0.0
 11
2123.4681787338691
 21
758.88436651048642
 31
0.0
  0
LINE
  5
636A
  8
0
 10
2083.068178733869
 20
2142.7101991520772
 30
0.0
 11
2120.1681787338698
 21
2142.7101991520772
 31
0.0
  0
LINE
  5
636B
  8
0
 10
2120.1681787338698
 20
2141.7101991520781
 30
0.0
 11
2136.1681787338698
 21
2141.7101991520781
 31
0.0
  0
LINE
  5
636C
  8
0
 10
2083.068178733869
 20
2164.7101991520758
 30
0.0
 11
2120.1681787338698
 21
2164.7101991520781
 31
0.0
  0
LINE
  5
636D
  8
0
 10
2120.1681787338698
 20
2165.7101991520781
 30
0.0
 11
2136.1681787338698
 21
2165.7101991520781
 31
0.0
  0
LINE
  5
636E
  8
0
 10
2136.1681787338698
 20
2165.7101991520781
 30
0.0
 11
2136.1681787338698
 21
2141.7101991520781
 31
0.0
  0
LINE
  5
636F
  8
0
 10
2120.1681787338698
 20
2165.7101991520781
 30
0.0
 11
2120.1681787338698
 21
2160.060199152078
 31
0.0
  0
LINE
  5
6371
  8
0
 10
2083.068178733869
 20
2147.3601991520791
 30
0.0
 11
2123.4681787338691
 21
2147.3601991520791
 31
0.0
  0
LINE
  5
6372
  8
0
 10
2123.4681787338691
 20
2146.3601991520791
 30
0.0
 11
2136.1681787338698
 21
2146.3601991520791
 31
0.0
  0
LINE
  5
6373
  8
0
 10
2083.068178733869
 20
2160.0601991520771
 30
0.0
 11
2123.4681787338691
 21
2160.060199152078
 31
0.0
  0
LINE
  5
6374
  8
0
 10
2123.4681787338691
 20
2161.0601991520771
 30
0.0
 11
2136.1681787338698
 21
2161.0601991520771
 31
0.0
  0
LINE
  5
6375
  8
0
 10
2136.1681787338698
 20
2161.0601991520771
 30
0.0
 11
2136.1681787338698
 21
2146.3601991520791
 31
0.0
  0
LINE
  5
6376
  8
0
 10
2123.4681787338691
 20
2161.0601991520771
 30
0.0
 11
2123.4681787338691
 21
2146.3601991520791
 31
0.0
  0
LINE
  5
6377
  8
0
 10
2103.0181787338702
 20
2345.2001991520801
 30
0.0
 11
2103.0181787338702
 21
2163.7101991520772
 31
0.0
  0
LINE
  5
6DA9
  8
0
 62
     7
 10
2130.0681787338672
 20
956.26233216087019
 30
0.0
 11
2133.0681787338699
 21
1219.9668517125181
 31
0.0
  0
CIRCLE
  5
7168
  8
0
 10
3398.1097716931299
 20
998.26233216087223
 30
0.0
 40
6.0
  0
CIRCLE
  5
716A
  8
0
 10
3398.1097716931299
 20
968.26233216087235
 30
0.0
 40
6.0
  0
CIRCLE
  5
716B
  8
0
 10
2732.1097716931308
 20
998.26233216087223
 30
0.0
 40
6.0
  0
CIRCLE
  5
716C
  8
0
 10
2732.1097716931308
 20
968.26233216087235
 30
0.0
 40
6.0
  0
LINE
  5
71BA
  8
0
 10
2083.0681787338649
 20
1055.162332160872
 30
0.0
 11
2083.0681787338649
 21
959.76233216087235
 31
0.0
  0
LINE
  5
71BB
  8
0
 10
2085.568178733869
 20
1052.6623321608711
 30
0.0
 11
2085.568178733869
 21
959.76233216087223
 31
0.0
  0
LINE
  5
71BC
  8
0
 10
2083.0681787338649
 20
959.76233216087235
 30
0.0
 11
2085.568178733869
 21
959.76233216087223
 31
0.0
  0
LINE
  5
71BD
  8
0
 10
1152.568178733869
 20
649.16233216087176
 30
0.0
 11
1079.118178733868
 21
649.16233216087176
 31
0.0
  0
LINE
  5
7997
  8
0
 10
2120.1681787338698
 20
2147.3601991520791
 30
0.0
 11
2120.1681787338698
 21
2141.7101991520781
 31
0.0
  0
LINE
  5
799C
  8
0
 10
2104.5681787338649
 20
859.47733216087204
 30
0.0
 11
2028.5681787338681
 21
859.47733216087204
 31
0.0
  0
LINE
  5
799D
  8
0
 10
2037.5681787338719
 20
646.47733216087192
 30
0.0
 11
2028.5681787338681
 21
646.47733216087192
 31
0.0
  0
LINE
  5
799E
  8
0
 10
2037.5681787338699
 20
859.47733216087204
 30
0.0
 11
2037.5681787338719
 21
646.47733216087192
 31
0.0
  0
LINE
  5
799F
  8
0
 10
2104.5681787338631
 20
1028.477332160872
 30
0.0
 11
2104.5681787338649
 21
859.47733216087204
 31
0.0
  0
CIRCLE
  5
79AB
  8
0
 10
3285.5347716931292
 20
634.32584437177911
 30
0.0
 40
9.5
  0
LINE
  5
79AC
  8
0
 10
2778.9597716931289
 20
859.47733216087215
 30
0.0
 11
3087.9597716931312
 21
859.47733216087204
 31
0.0
  0
LINE
  5
79B7
  8
0
 10
2803.9597716931271
 20
646.47733216087192
 30
0.0
 11
3074.9597716931321
 21
646.47733216087192
 31
0.0
  0
LINE
  5
79BA
  8
0
 10
3074.9597716931321
 20
859.47733216087204
 30
0.0
 11
3074.9597716931321
 21
646.47733216087192
 31
0.0
  0
LINE
  5
79BB
  8
0
 10
2803.9597716931298
 20
859.47733216087215
 30
0.0
 11
2803.9597716931262
 21
646.47733216087192
 31
0.0
  0
LINE
  5
79C8
  8
0
 62
     7
 10
1113.0435708379471
 20
2435.6501991520772
 30
0.0
 11
897.87032769068753
 21
2435.6501991520772
 31
0.0
  0
LINE
  5
79C9
  8
0
 62
     7
 10
917.87032769068333
 20
2405.6501991520781
 30
0.0
 11
917.87032769068412
 21
2324.9262981529928
 31
0.0
  0
SOLID
  5
79CA
  8
0
 62
     7
 10
922.87032769068753
 20
2405.6501991520781
 30
0.0
 11
912.87032769068333
 21
2405.6501991520781
 31
0.0
 12
917.87032769068333
 22
2435.6501991520772
 32
0.0
 13
917.87032769068333
 23
2435.6501991520772
 33
0.0
  0
TEXT
  5
79CB
  8
0
 62
     7
 10
930.37032769068514
 20
2252.0104554320151
 30
0.0
 40
25.0
  1
310
 50
90.0
  0
LINE
  5
79CC
  8
0
 62
     7
 10
1065.4552000636099
 20
2125.6501991520781
 30
0.0
 11
897.87032769068753
 21
2125.6501991520781
 31
0.0
  0
LINE
  5
79CD
  8
0
 62
     7
 10
917.87032769068333
 20
2155.6501991520781
 30
0.0
 11
917.87032769068333
 21
2245.7596314863249
 31
0.0
  0
SOLID
  5
79CE
  8
0
 62
     7
 10
922.87032769068753
 20
2155.6501991520781
 30
0.0
 11
912.87032769068333
 21
2155.6501991520781
 31
0.0
 12
917.87032769068333
 22
2125.6501991520781
 32
0.0
 13
917.87032769068333
 23
2125.6501991520781
 33
0.0
  0
LINE
  5
79D1
  8
0
 62
     7
 10
1065.4552000636099
 20
2125.6501991520781
 30
0.0
 11
897.87032769068753
 21
2125.6501991520781
 31
0.0
  0
LINE
  5
79D2
  8
0
 62
     7
 10
917.87032769068333
 20
2095.6501991520781
 30
0.0
 11
917.87032769068412
 21
1918.6449071649361
 31
0.0
  0
SOLID
  5
79D3
  8
0
 62
     7
 10
922.87032769068753
 20
2095.6501991520781
 30
0.0
 11
912.87032769068333
 21
2095.6501991520781
 31
0.0
 12
917.87032769068333
 22
2125.6501991520781
 32
0.0
 13
917.87032769068333
 23
2125.6501991520781
 33
0.0
  0
TEXT
  5
79D4
  8
0
 62
     7
 10
930.37032769068514
 20
1845.729064443957
 30
0.0
 40
25.0
  1
486
 50
90.0
  0
LINE
  5
79D5
  8
0
 62
     7
 10
1139.2530366514891
 20
1641.6501991520779
 30
0.0
 11
897.87032769068753
 21
1641.6501991520779
 31
0.0
  0
LINE
  5
79D6
  8
0
 62
     7
 10
917.87032769068333
 20
1671.6501991520779
 30
0.0
 11
917.87032769068333
 21
1839.478240498268
 31
0.0
  0
SOLID
  5
79D7
  8
0
 62
     7
 10
922.87032769068753
 20
1671.6501991520779
 30
0.0
 11
912.87032769068333
 21
1671.6501991520779
 31
0.0
 12
917.87032769068333
 22
1641.6501991520779
 32
0.0
 13
917.87032769068333
 23
1641.6501991520779
 33
0.0
  0
TEXT
  5
79DB
  8
0
 62
     7
 10
967.42816251266561
 20
2202.63108611916
 30
0.0
 40
25.0
  1
Coil box
 50
90.0
  0
TEXT
  5
79DC
  8
0
 62
     7
 10
967.42816251266561
 20
1807.596112975524
 30
0.0
 40
25.0
  1
Fan box
 50
90.0
  0
CIRCLE
  5
7ACB
  8
0
 10
3186.0197716931311
 20
746.13949169795706
 30
0.0
 40
5.0
  0
CIRCLE
  5
7F24
  8
0
 10
3186.0197716931311
 20
688.39233216087223
 30
0.0
 40
8.0
  0
LINE
  5
85FE
  8
0
 10
2028.5681787338681
 20
1691.6501991520779
 30
0.0
 11
1152.568178733869
 21
1691.6501991520779
 31
0.0
  0
LINE
  5
86AD
  8
0
 10
2101.1681787338689
 20
659.16233216087176
 30
0.0
 11
2123.1621787338681
 21
659.1623321608721
 31
0.0
  0
LINE
  5
86B0
  8
0
 10
2101.1681787338689
 20
659.16233216087176
 30
0.0
 11
2123.1621787338681
 21
659.1623321608721
 31
0.0
  0
LINE
  5
86B1
  8
0
 10
2084.4708496199469
 20
859.47733216087204
 30
0.0
 11
2086.0681787338708
 21
649.16233216087176
 31
0.0
  0
LINE
  5
86B2
  8
0
 10
2083.8876724047559
 20
936.26233216087098
 30
0.0
 11
2083.9408369617181
 21
929.2623321608711
 31
0.0
  0
LINE
  5
86B4
  8
0
 10
1424.068178733869
 20
839.16233216087176
 30
0.0
 11
1424.068178733869
 21
654.16233216087176
 31
0.0
  0
LINE
  5
86B5
  8
0
 10
1755.068178733869
 20
839.16233216087176
 30
0.0
 11
1755.068178733869
 21
654.16233216087176
 31
0.0
  0
LINE
  5
86B6
  8
0
 10
1755.068178733869
 20
654.16233216087176
 30
0.0
 11
1424.068178733869
 21
654.16233216087176
 31
0.0
  0
LINE
  5
86C0
  8
0
 10
1755.068178733869
 20
839.16233216087176
 30
0.0
 11
1424.068178733869
 21
839.16233216087176
 31
0.0
  0
ENDSEC
  0
EOF
