  0
SECTION
  2
HEADER
  9
$ACADVER
  1
AC1009
  9
$INSBASE
 10
0.0
 20
0.0
 30
0.0
  9
$EXTMIN
 10
1575.6826981712179
 20
-148.0833866795856
 30
-0.0000000000112498
  9
$EXTMAX
 10
5835.1187292289906
 20
3481.563169012059
 30
0.0000000000002956
  9
$LIMMIN
 10
0.0
 20
0.0
  9
$LIMMAX
 10
7780.0
 20
5320.0
  9
$ORTHOMODE
 70
     1
  9
$REGENMODE
 70
     1
  9
$FILLMODE
 70
     1
  9
$QTEXTMODE
 70
     0
  9
$MIRRTEXT
 70
     0
  9
$DRAGMODE
 70
     2
  9
$LTSCALE
 40
100.0
  9
$OSMODE
 70
  3071
  9
$ATTMODE
 70
     1
  9
$TEXTSIZE
 40
45.0
  9
$TRACEWID
 40
0.05
  9
$TEXTSTYLE
  7
TITLE3
  9
$CLAYER
  8
OUTLINE
  9
$CELTYPE
  6
BYLAYER
  9
$CECOLOR
 62
   256
  9
$DIMSCALE
 40
1.0
  9
$DIMASZ
 40
0.12
  9
$DIMEXO
 40
0.05
  9
$DIMDLI
 40
0.5
  9
$DIMRND
 40
0.0
  9
$DIMDLE
 40
0.0
  9
$DIMEXE
 40
0.1
  9
$DIMTP
 40
0.1
  9
$DIMTM
 40
0.1
  9
$DIMTXT
 40
0.12
  9
$DIMCEN
 40
0.0
  9
$DIMTSZ
 40
0.0
  9
$DIMTOL
 70
     0
  9
$DIMLIM
 70
     0
  9
$DIMTIH
 70
     1
  9
$DIMTOH
 70
     1
  9
$DIMSE1
 70
     0
  9
$DIMSE2
 70
     0
  9
$DIMTAD
 70
     0
  9
$DIMZIN
 70
     7
  9
$DIMBLK
  1

  9
$DIMASO
 70
     0
  9
$DIMSHO
 70
     0
  9
$DIMPOST
  1

  9
$DIMAPOST
  1
mm
  9
$DIMALT
 70
     0
  9
$DIMALTD
 70
     2
  9
$DIMALTF
 40
25.399999999999999
  9
$DIMLFAC
 40
1.0
  9
$DIMTOFL
 70
     0
  9
$DIMTVP
 40
0.0
  9
$DIMTIX
 70
     0
  9
$DIMSOXD
 70
     0
  9
$DIMSAH
 70
     0
  9
$DIMBLK1
  1

  9
$DIMBLK2
  1

  9
$DIMSTYLE
  2
AM_ANSI
  9
$DIMCLRD
 70
   256
  9
$DIMCLRE
 70
   256
  9
$DIMCLRT
 70
     2
  9
$DIMTFAC
 40
0.71
  9
$DIMGAP
 40
0.06
  9
$LUNITS
 70
     2
  9
$LUPREC
 70
     2
  9
$SKETCHINC
 40
0.1
  9
$FILLETRAD
 40
0.0
  9
$AUNITS
 70
     0
  9
$AUPREC
 70
     2
  9
$MENU
  1
\acad12\support\cnc
  9
$ELEVATION
 40
0.0
  9
$PELEVATION
 40
0.0
  9
$THICKNESS
 40
0.0
  9
$LIMCHECK
 70
     0
  9
$BLIPMODE
 70
     0
  9
$CHAMFERA
 40
0.0
  9
$CHAMFERB
 40
0.0
  9
$SKPOLY
 70
     0
  9
$TDCREATE
 40
2451402.6391548612
  9
$TDUPDATE
 40
2457155.6838493641
  9
$TDINDWG
 40
0.5327206134
  9
$TDUSRTIMER
 40
0.5327125463
  9
$USRTIMER
 70
     1
  9
$ANGBASE
 50
0.0
  9
$ANGDIR
 70
     0
  9
$PDMODE
 70
     2
  9
$PDSIZE
 40
15.0
  9
$PLINEWID
 40
0.0
  9
$COORDS
 70
     1
  9
$SPLFRAME
 70
     0
  9
$SPLINETYPE
 70
     6
  9
$SPLINESEGS
 70
     8
  9
$ATTDIA
 70
     1
  9
$ATTREQ
 70
     1
  9
$HANDLING
 70
     1
  9
$HANDSEED
  5
24AF
  9
$SURFTAB1
 70
     6
  9
$SURFTAB2
 70
     6
  9
$SURFTYPE
 70
     6
  9
$SURFU
 70
     6
  9
$SURFV
 70
     6
  9
$UCSNAME
  2

  9
$UCSORG
 10
0.0
 20
0.0
 30
0.0
  9
$UCSXDIR
 10
1.0
 20
0.0
 30
0.0
  9
$UCSYDIR
 10
0.0
 20
1.0
 30
0.0
  9
$PUCSNAME
  2

  9
$PUCSORG
 10
0.0
 20
0.0
 30
0.0
  9
$PUCSXDIR
 10
1.0
 20
0.0
 30
0.0
  9
$PUCSYDIR
 10
0.0
 20
1.0
 30
0.0
  9
$USERI1
 70
     0
  9
$USERI2
 70
     0
  9
$USERI3
 70
     0
  9
$USERI4
 70
     0
  9
$USERI5
 70
     0
  9
$USERR1
 40
0.0
  9
$USERR2
 40
0.0
  9
$USERR3
 40
0.0
  9
$USERR4
 40
0.0
  9
$USERR5
 40
0.0
  9
$WORLDVIEW
 70
     1
  9
$SHADEDGE
 70
     3
  9
$SHADEDIF
 70
    70
  9
$TILEMODE
 70
     1
  9
$MAXACTVP
 70
    16
  9
$PLIMCHECK
 70
     0
  9
$PEXTMIN
 10
1.0000000000000000E+020
 20
1.0000000000000000E+020
 30
1.0000000000000000E+020
  9
$PEXTMAX
 10
-1.0000000000000000E+020
 20
-1.0000000000000000E+020
 30
-1.0000000000000000E+020
  9
$PLIMMIN
 10
0.0
 20
0.0
  9
$PLIMMAX
 10
12.0
 20
9.0
  9
$UNITMODE
 70
     0
  9
$VISRETAIN
 70
     0
  9
$PLINEGEN
 70
     0
  9
$PSLTSCALE
 70
     0
  0
ENDSEC
  0
SECTION
  2
TABLES
  0
TABLE
  2
VPORT
 70
     1
  0
VPORT
  2
*ACTIVE
 70
     0
 10
0.0
 20
0.0
 11
1.0
 21
1.0
 12
3705.400713700104
 22
1666.7398911662369
 13
0.0
 23
0.0
 14
50.0
 24
50.0
 15
100.0
 25
100.0
 16
0.0
 26
0.0
 36
1.0
 17
0.0
 27
0.0
 37
0.0
 40
3653.8711155739029
 41
2.0467706013363021
 42
50.0
 43
0.0
 44
0.0
 50
0.0
 51
0.0
 71
     0
 72
   100
 73
     1
 74
     0
 75
     0
 76
     0
 77
     0
 78
     0
  0
ENDTAB
  0
TABLE
  2
LTYPE
 70
    20
  0
LTYPE
  2
CONTINUOUS
 70
     0
  3
Solid line
 72
    65
 73
     0
 40
0.0
  0
LTYPE
  2
PHANTOM2
 70
     0
  3
Phantom (.5x) ___ _ _ ___ _ _ ___ _ _ ___ _ _
 72
    65
 73
     6
 40
1.25
 49
0.625
 49
-0.125
 49
0.125
 49
-0.125
 49
0.125
 49
-0.125
  0
LTYPE
  2
PHANTOM
 70
     0
  3
______  __  __  ______  __  __  ______  __  __ 
 72
    65
 73
     6
 40
2.5
 49
1.25
 49
-0.25
 49
0.25
 49
-0.25
 49
0.25
 49
-0.25
  0
LTYPE
  2
HIDDEN
 70
     0
  3
Hidden __ __ __ __ __ __ __ __ __ __ __ __ __ _
 72
    65
 73
     2
 40
0.375
 49
0.25
 49
-0.125
  0
LTYPE
  2
CENTER
 70
     0
  3
Center ____ _ ____ _ ____ _ ____ _ ____ _ ____
 72
    65
 73
     4
 40
2.0
 49
1.25
 49
-0.25
 49
0.25
 49
-0.25
  0
LTYPE
  2
AM_ISO02W050
 70
     0
  3
__ __ __ __ __ __ __ __ __ __ __ __ __ __ __
 72
    65
 73
     2
 40
7.5
 49
6.0
 49
-1.5
  0
LTYPE
  2
AM_ISO08W050
 70
     0
  3
____ . ____ . ____ . ____ . ____ . ____ . ____
 72
    65
 73
     4
 40
18.0
 49
12.0
 49
-1.5
 49
3.0
 49
-1.5
  0
LTYPE
  2
AM_ISO09W050
 70
     0
  3
_____ . . _____ . . _____ . . ____ .. ____
 72
    65
 73
     6
 40
22.5
 49
12.0
 49
-1.5
 49
3.0
 49
-1.5
 49
3.0
 49
-1.5
  0
LTYPE
  2
AMCONSTR
 70
     0
  3
_______________________
 72
    65
 73
     2
 40
9999.0
 49
9999.0
 49
0.0
  0
LTYPE
  2
AM_ISO08W050X2
 70
     0
  3
__ . __ . __ . __ . __ . __
 72
    65
 73
     4
 40
9.0
 49
6.0
 49
-0.75
 49
1.5
 49
-0.75
  0
LTYPE
  2
AM_ISO02W050X2
 70
     0
  3
 _ _ _ _ _ _ _ _ _ _ _ _
 72
    65
 73
     2
 40
3.75
 49
3.0
 49
-0.75
  0
LTYPE
  2
AMZIGZAG
 70
     0
  3
/\/-/\/-/\/-/\/-/\/-/\/
 72
    65
 73
     2
 40
11.0001
 49
0.0001
 49
-11.0
  0
LTYPE
  2
CENTER2
 70
     0
  3
Center (.5x) ___ _ ___ _ ___ _ ___ _ ___ _ ___
 72
    65
 73
     4
 40
1.125
 49
0.75
 49
-0.125
 49
0.125
 49
-0.125
  0
LTYPE
  2
HIDDEN2
 70
     0
  3
Hidden (.5x) _ _ _ _ _ _ _ _ _ _ _ _ _ _ _ _ _
 72
    65
 73
     2
 40
0.1875
 49
0.125
 49
-0.0625
  0
LTYPE
  2
AMZIGZAG2
 70
     0
  3
/\/-/\/-/\/-/\/-/\/-/\/
 72
    65
 73
     2
 40
0.4401
 49
0.0001
 49
-0.4400000000000003
  0
LTYPE
  2
ACANSTGB
 70
     0
  3
__ . . __ . .
 72
    65
 73
     6
 40
0.35433070866
 49
0.15748031496
 49
-0.03937007874
 49
0.03937007874
 49
-0.03937007874
 49
0.03937007874
 49
-0.03937007874
  0
LTYPE
  2
ACANSTGL
 70
     0
  3
_ _ _ _ _
 72
    65
 73
     2
 40
0.11811023622
 49
0.07874015748
 49
-0.03937007874
  0
LTYPE
  2
DASHED
 70
     0
  3
Dashed __ __ __ __ __ __ __ __ __ __ __ __ __ _
 72
    65
 73
     2
 40
0.75
 49
0.5
 49
-0.25
  0
LTYPE
  2
DOT
 70
     0
  3
Dot . . . . . . . . . . . . . . . . . . . . . .
 72
    65
 73
     2
 40
0.25
 49
0.0
 49
-0.25
  0
ENDTAB
  0
TABLE
  2
LAYER
 70
     7
  0
LAYER
  2
0
 70
     0
 62
     7
  6
CONTINUOUS
  0
LAYER
  2
OUTLINE
 70
     0
 62
     7
  6
CONTINUOUS
  0
LAYER
  2
TEXT
 70
     0
 62
   100
  6
CONTINUOUS
  0
LAYER
  2
DIM
 70
     0
 62
     2
  6
CONTINUOUS
  0
LAYER
  2
MTG-FEET
 70
     0
 62
    30
  6
CONTINUOUS
  0
LAYER
  2
OVERLAY-A3
 70
     0
 62
     7
  6
CONTINUOUS
  0
LAYER
  2
CLEAR
 70
     0
 62
     1
  6
PHANTOM
  0
ENDTAB
  0
TABLE
  2
STYLE
 70
     8
  0
STYLE
  2
STANDARD
 70
     0
 40
0.0
 41
1.0
 50
0.0
 71
     0
 42
0.2
  3
txt
  4

  0
STYLE
  2
ANNOTATIVE
 70
     0
 40
0.0
 41
1.0
 50
0.0
 71
     0
 42
0.2
  3
txt
  4

  0
STYLE
  2
TITLE3
 70
     0
 40
45.0
 41
1.0
 50
0.0
 71
     0
 42
45.0
  3
SIMPLEX
  4

  0
STYLE
  2
TITLE5
 70
     0
 40
75.0
 41
1.0
 50
0.0
 71
     0
 42
100.0
  3
SIMPLEX
  4

  0
STYLE
  2
SIMPLEX
 70
     0
 40
60.0
 41
1.0
 50
0.0
 71
     0
 42
60.0
  3
simplex
  4

  0
STYLE
  2

 70
     1
 40
0.0
 41
1.0
 50
0.0
 71
     0
 42
45.0
  3
genltshp.shx
  4

  0
STYLE
  2
ACANSTS
 70
     0
 40
1.0
 41
1.0
 50
0.0
 71
     0
 42
45.0
  3
romans.shx
  4

  0
STYLE
  2
ACANSGDT
 70
     0
 40
0.0
 41
1.0
 50
0.0
 71
     0
 42
45.0
  3
amgdt.shx
  4

  0
ENDTAB
  0
TABLE
  2
VIEW
 70
     0
  0
ENDTAB
  0
TABLE
  2
UCS
 70
     0
  0
ENDTAB
  0
TABLE
  2
APPID
 70
    15
  0
APPID
  2
ACAD
 70
     0
  0
APPID
  2
ACADANNOTATIVE
 70
     0
  0
APPID
  2
ACAD_MLEADERVER
 70
     0
  0
APPID
  2
ACAD_PSEXT
 70
     0
  0
APPID
  2
MCAD_NO_VIS
 70
     0
  0
APPID
  2
ACAD_TEMP_GRAPHIC
 70
     0
  0
APPID
  2
AD_DRAW
 70
     0
  0
APPID
  2
ACATTRIBSERVICES
 70
     0
  0
APPID
  2
DESIGNERASSEMBLIES
 70
     0
  0
APPID
  2
ACADM_DIM_EDIT
 70
     0
  0
APPID
  2
AMDT_DM_ADJ
 70
     0
  0
APPID
  2
ACAD_EXEMPT_FROM_CAD_STANDARDS
 70
     0
  0
APPID
  2
ACAD_NAV_VCDISPLAY
 70
     0
  0
APPID
  2
ACAD_DSTYLE_DIMBREAK
 70
     0
  0
APPID
  2
ACAD_DSTYLE_DIMJAG
 70
     0
  0
ENDTAB
  0
TABLE
  2
DIMSTYLE
 70
     8
  0
DIMSTYLE
  2
STANDARD
 70
     0
  3

  4

  5

  6

  7

 40
1.0
 41
0.18
 42
0.0625
 43
0.38
 44
0.18
 45
0.0
 46
0.0
 47
0.0
 48
0.0
140
0.18
141
0.09
142
0.0
143
25.399999999999999
144
1.0
145
0.0
146
1.0
147
0.09
 71
     0
 72
     0
 73
     1
 74
     1
 75
     0
 76
     0
 77
     0
 78
     0
170
     0
171
     2
172
     0
173
     0
174
     0
175
     0
176
     0
177
     0
178
     0
  0
DIMSTYLE
  2
ANNOTATIVE
 70
     0
  3

  4

  5

  6

  7

 40
1.0
 41
0.18
 42
0.0625
 43
0.38
 44
0.18
 45
0.0
 46
0.0
 47
0.0
 48
0.0
140
0.18
141
0.09
142
0.0
143
25.399999999999999
144
1.0
145
0.0
146
1.0
147
0.09
 71
     0
 72
     0
 73
     1
 74
     1
 75
     0
 76
     0
 77
     0
 78
     0
170
     0
171
     2
172
     0
173
     0
174
     0
175
     0
176
     0
177
     0
178
     0
  0
DIMSTYLE
  2
AM_ANSI
 70
     0
  3

  4
mm
  5

  6

  7

 40
1.0
 41
0.12
 42
0.05
 43
0.5
 44
0.1
 45
0.0
 46
0.0
 47
0.1
 48
0.1
140
0.12
141
0.0
142
0.0
143
25.399999999999999
144
1.0
145
0.0
146
0.71
147
0.06
 71
     0
 72
     0
 73
     1
 74
     1
 75
     0
 76
     0
 77
     0
 78
     7
170
     0
171
     2
172
     0
173
     0
174
     0
175
     0
176
   256
177
   256
178
     2
  0
DIMSTYLE
  2
AM_ANSI$3
 70
     0
  3

  4
mm
  5

  6

  7

 40
1.0
 41
0.12
 42
0.05
 43
0.5
 44
0.1
 45
0.0
 46
0.0
 47
0.1
 48
0.1
140
0.12
141
0.0
142
0.0
143
25.399999999999999
144
1.0
145
0.0
146
0.71
147
0.06
 71
     0
 72
     0
 73
     1
 74
     1
 75
     0
 76
     0
 77
     0
 78
     7
170
     0
171
     2
172
     0
173
     0
174
     0
175
     0
176
   256
177
   256
178
     2
  0
DIMSTYLE
  2
AM_ANSI$4
 70
     0
  3

  4
mm
  5

  6

  7

 40
1.0
 41
0.12
 42
0.05
 43
0.5
 44
0.1
 45
0.0
 46
0.0
 47
0.1
 48
0.1
140
0.12
141
0.0
142
0.0
143
25.399999999999999
144
1.0
145
0.0
146
0.71
147
0.06
 71
     0
 72
     0
 73
     1
 74
     1
 75
     0
 76
     0
 77
     0
 78
     7
170
     0
171
     2
172
     0
173
     0
174
     0
175
     0
176
   256
177
   256
178
     2
  0
DIMSTYLE
  2
AM_ANSI$7
 70
     0
  3

  4
mm
  5

  6

  7

 40
1.0
 41
0.12
 42
0.05
 43
0.5
 44
0.1
 45
0.0
 46
0.0
 47
0.1
 48
0.1
140
0.12
141
0.0
142
0.0
143
25.399999999999999
144
1.0
145
0.0
146
0.71
147
0.06
 71
     0
 72
     0
 73
     1
 74
     1
 75
     0
 76
     0
 77
     0
 78
     7
170
     0
171
     2
172
     0
173
     0
174
     0
175
     0
176
   256
177
   256
178
     2
  0
DIMSTYLE
  2
AM_ANSI$SF
 70
     0
  3

  4
mm
  5

  6

  7

 40
1.0
 41
0.12
 42
0.05
 43
0.5
 44
0.1
 45
0.0
 46
0.0
 47
0.1
 48
0.1
140
0.12
141
0.0
142
0.0
143
25.399999999999999
144
1.0
145
0.0
146
0.71
147
0.06
 71
     0
 72
     0
 73
     1
 74
     1
 75
     1
 76
     1
 77
     0
 78
     7
170
     0
171
     2
172
     0
173
     0
174
     0
175
     0
176
   256
177
   256
178
     2
  0
DIMSTYLE
  2
AM_ANSI$SH
 70
     0
  3

  4
mm
  5

  6

  7

 40
1.0
 41
0.12
 42
0.05
 43
0.5
 44
0.1
 45
0.0
 46
0.0
 47
0.1
 48
0.1
140
0.12
141
0.0
142
0.0
143
25.399999999999999
144
1.0
145
0.0
146
0.71
147
0.06
 71
     0
 72
     0
 73
     1
 74
     1
 75
     1
 76
     1
 77
     0
 78
     7
170
     0
171
     2
172
     0
173
     1
174
     0
175
     0
176
   256
177
   256
178
     2
  0
ENDTAB
  0
ENDSEC
  0
SECTION
  2
BLOCKS
  0
BLOCK
  8
0
  2
$MODEL_SPACE
 70
     0
 10
0.0
 20
0.0
 30
0.0
  3
$MODEL_SPACE
  1

  0
ENDBLK
  5
2365
  8
0
  0
BLOCK
 67
     1
  8
0
  2
$PAPER_SPACE
 70
     0
 10
0.0
 20
0.0
 30
0.0
  3
$PAPER_SPACE
  1

  0
ENDBLK
  5
2361
 67
     1
  8
0
  0
BLOCK
  8
0
  2
LINES
 70
     0
 10
0.0
 20
0.0
 30
0.0
  3
LINES
  1

  0
ENDBLK
  5
F67
  8
0
  0
BLOCK
  8
0
  2
NEW_BLOCK
 70
     0
 10
0.0
 20
0.0
 30
0.0
  3
NEW_BLOCK
  1

  0
TEXT
  5
F6A
  8
TEXT
 10
27.285946821803002
 20
25.27142175952417
 30
0.0
 40
40.0
  1
available on request
  7
TITLE3
  0
TEXT
  5
F6B
  8
TEXT
 10
27.285946821803002
 20
93.842850330952714
 30
0.0
 40
40.0
  1
Certified dimensions
  7
TITLE3
  0
TEXT
  5
F6C
  8
TEXT
 10
27.285946821803002
 20
162.4142789023812
 30
0.0
 40
40.0
  1
without notice or obligation.
  7
TITLE3
  0
TEXT
  5
F6D
  8
TEXT
 10
27.285946821803002
 20
230.9857074738097
 30
0.0
 40
40.0
  1
specifications at any time
  7
TITLE3
  0
TEXT
  5
F6E
  8
TEXT
 10
27.285946821803002
 20
299.55713604523839
 30
0.0
 40
40.0
  1
the right to change 
  7
TITLE3
  0
TEXT
  5
F6F
  8
TEXT
 10
27.285946821803002
 20
436.69999318809488
 30
0.0
 40
40.0
  1
NOTE
  7
TITLE3
  0
TEXT
  5
F70
  8
TEXT
 10
27.285946821803002
 20
368.12856461666678
 30
0.0
 40
40.0
  1
The manufacturer reserves
  7
TITLE3
  0
ENDBLK
  5
F71
  8
0
  0
BLOCK
  8
0
  2
GENAXEH
 70
     0
 10
0.0
 20
0.0
 30
0.0
  3
GENAXEH
  1

  0
LINE
  5
11EC
  8
0
 10
-1.0
 20
0.0
 30
0.0
 11
1.0
 21
0.0
 31
0.0
  0
ENDBLK
  5
11EE
  8
0
  0
BLOCK
  8
0
  2
*U5
 70
     1
 10
0.0
 20
0.0
 30
0.0
  3
*U5
  1

  0
TEXT
  5
1550
  8
TEXT
 10
2626.728253300982
 20
705.96161876651979
 30
0.0
 40
60.0
  1
OSA 175
  7
TITLE5
  0
TEXT
  5
1551
  8
TEXT
 10
2678.1568247295531
 20
605.96161876651979
 30
0.0
 40
60.0
  1
RKTHG
  7
TITLE5
  0
ENDBLK
  5
1553
  8
0
  0
BLOCK
  8
0
  2
*U6
 70
     1
 10
0.0
 20
0.0
 30
0.0
  3
*U6
  1

  0
TEXT
  5
1555
  8
TEXT
 10
2158.699581695857
 20
4047.9584319483888
 30
0.0
 40
60.0
  1
OSA 175RKTHG
  7
TITLE5
  0
ENDBLK
  5
1557
  8
0
  0
BLOCK
  8
0
  2
*U7
 70
     1
 10
0.0
 20
0.0
 30
0.0
  3
*U7
  1

  0
TEXT
  5
1867
  8
OVERLAY-A3
 10
4236.5413026078313
 20
4150.0630656892281
 30
0.0
 40
45.0
  1
389
 50
90.0
  0
ENDBLK
  5
1869
  8
0
  0
BLOCK
  8
0
  2
*U8
 70
     1
 10
0.0
 20
0.0
 30
0.0
  3
*U8
  1

  0
TEXT
  5
186B
  8
OVERLAY-A3
 10
5609.6572296216964
 20
4060.5630656892272
 30
0.0
 40
45.0
  1
422 O/A
 50
90.0
  0
ENDBLK
  5
186D
  8
0
  0
BLOCK
  8
0
  2
*U9
 70
     1
 10
0.0
 20
0.0
 30
0.0
  3
*U9
  1

  0
TEXT
  5
186F
  8
OVERLAY-A3
 10
5363.7440490226281
 20
4532.892957384247
 30
0.0
 40
45.0
  1
17
 50
90.0
  0
ENDBLK
  5
1871
  8
0
  0
BLOCK
  8
0
  2
*U10
 70
     1
 10
0.0
 20
0.0
 30
0.0
  3
*U10
  1

  0
TEXT
  5
1873
  8
OVERLAY-A3
 10
1820.676681088564
 20
597.64282502649564
 30
0.0
 40
45.0
  1
1119 O/A
 50
90.0
  0
ENDBLK
  5
1875
  8
0
  0
BLOCK
  8
0
  2
*U11
 70
     1
 10
0.0
 20
0.0
 30
0.0
  3
*U11
  1

  0
TEXT
  5
1877
  8
OVERLAY-A3
 10
1967.864371528633
 20
100.7515184167496
 30
0.0
 40
45.0
  1
180
  0
ENDBLK
  5
1879
  8
0
  0
BLOCK
  8
0
  2
*U12
 70
     1
 10
0.0
 20
0.0
 30
0.0
  3
*U12
  1

  0
TEXT
  5
187B
  8
OVERLAY-A3
 10
2316.7143715286329
 20
100.7515184167496
 30
0.0
 40
45.0
  1
765 CTRS
  0
ENDBLK
  5
187D
  8
0
  0
BLOCK
  8
0
  2
*U13
 70
     1
 10
0.0
 20
0.0
 30
0.0
  3
*U13
  1

  0
TEXT
  5
187F
  8
OVERLAY-A3
 10
2332.5143715286331
 20
1354.8076330213951
 30
0.0
 40
45.0
  1
1127 O/A
  0
ENDBLK
  5
1881
  8
0
  0
BLOCK
  8
0
  2
*U14
 70
     1
 10
0.0
 20
0.0
 30
0.0
  3
*U14
  1

  0
TEXT
  5
1883
  8
OVERLAY-A3
 10
3261.578438522592
 20
4035.0630656892281
 30
0.0
 40
45.0
  1
375 CTRS
 50
90.0
  0
ENDBLK
  5
1885
  8
0
  0
BLOCK
  8
0
  2
*U15
 70
     1
 10
0.0
 20
0.0
 30
0.0
  3
*U15
  1

  0
TEXT
  5
1887
  8
OVERLAY-A3
 10
5545.0379560977772
 20
3752.0630656892299
 30
0.0
 40
45.0
  1
20.5
 50
90.0
  0
ENDBLK
  5
1889
  8
0
  0
ENDSEC
  0
SECTION
  2
ENTITIES
  0
LINE
  5
F73
  8
OUTLINE
 10
2075.0143715286331
 20
303.14282502649542
 30
0.0
 11
2155.0143715286331
 21
303.14282502649542
 31
0.0
  0
LINE
  5
F76
  8
OUTLINE
 10
1930.0143715286331
 20
1558.1428250264951
 30
0.0
 11
1930.0143715286331
 21
335.44282502649543
 31
0.0
  0
TEXT
  5
F78
  8
TEXT
 10
4272.8624271399531
 20
259.2742466930232
 30
0.0
 40
75.0
  1
temperzone OSA 184RKTFH
 41
0.9444505968041651
  7
TITLE5
 72
     5
 11
5740.1338900321371
 21
259.2742466930232
 31
0.0
  0
TEXT
  5
F79
  8
TEXT
 10
5167.207040051012
 20
-41.001320039896591
 30
0.0
 40
40.499999999999993
  1
OSA184RKTFH
 41
0.9575471698113208
  7
TITLE3
 72
     5
 11
5558.707040051012
 21
-41.001320039896591
 31
0.0
  0
INSERT
  5
FCE
  8
MTG-FEET
  2
LINES
 10
637.42319439946073
 20
2246.7294005091198
 30
0.0
  0
TEXT
  5
FDF
  8
TEXT
 10
4445.5737691718496
 20
17.0
 30
0.0
 40
45.0
  1
12-05-15
 41
0.7088607594936658
  7
TITLE3
 72
     5
 11
4685.5737691718477
 21
17.0
 31
0.0
  0
TEXT
  5
FE0
  8
OVERLAY-A3
 10
4272.345334441874
 20
18.246820790151421
 30
0.0
 40
36.0
  1
Date
  7
SIMPLEX
  0
TEXT
  5
FE1
  8
OVERLAY-A3
 10
5619.166788560402
 20
46.254953035116813
 30
0.0
 40
36.0
  1
Revision
 41
0.7812095035934883
  7
SIMPLEX
 72
     5
 11
5777.1943110015991
 21
46.254953035116813
 31
0.0
  0
LINE
  5
FE2
  8
OVERLAY-A3
 10
5601.7370249852393
 20
-116.7362607275243
 30
0.0
 11
5601.7370249852393
 21
104.40298356282
 31
0.0
  0
LINE
  5
FE3
  8
OVERLAY-A3
 10
4229.0272941857229
 20
357.82662824683229
 30
0.0
 11
4229.0272941857229
 21
-116.7362607275243
 31
0.0
  0
LINE
  5
FE4
  8
OVERLAY-A3
 10
5125.3705170196408
 20
-116.7362607275243
 30
0.0
 11
5125.3705170196408
 21
104.40298356282
 31
0.0
  0
LINE
  5
FE5
  8
OVERLAY-A3
 10
5125.370517019639
 20
-8.0311010958044982
 30
0.0
 11
4229.0272941857229
 21
-8.0311010958044982
 31
0.0
  0
LINE
  5
FE6
  8
OVERLAY-A3
 10
5792.3631978567637
 20
104.40298356282
 30
0.0
 11
4229.0272941857229
 21
104.40298356282
 31
0.0
  0
LINE
  5
FE7
  8
OVERLAY-A3
 10
4229.0272941857229
 20
-116.7362607275243
 30
0.0
 11
5791.9169370892359
 21
-116.7362607275243
 31
0.0
  0
LINE
  5
FE8
  8
OVERLAY-A3
 10
5791.9169370892359
 20
-116.7362607275243
 30
0.0
 11
5791.9169370892359
 21
357.82662824683229
 31
0.0
  0
LINE
  5
FE9
  8
OVERLAY-A3
 10
5791.9169370892359
 20
357.82662824683229
 30
0.0
 11
4229.0272941857229
 21
357.82662824683229
 31
0.0
  0
TEXT
  5
FEA
  8
OVERLAY-A3
 10
4266.7248286546628
 20
-76.116267901963454
 30
0.0
 40
30.0
  1
Scale
 41
1.3701747965660029
  7
SIMPLEX
 72
     5
 11
4417.4440562769232
 21
-76.116267901963454
 31
0.0
  0
TEXT
  5
FEB
  8
OVERLAY-A3
 10
5212.2886854011949
 20
45.340147260064313
 30
0.0
 40
30.0
  1
Drawing No.
  7
SIMPLEX
 72
     2
 11
5473.7172568297656
 21
45.340147260064313
 31
0.0
  0
LINE
  5
FEC
  8
OVERLAY-A3
 10
1576.1105239390611
 20
-148.0
 30
0.0
 11
5835.0
 21
-148.0
 31
0.0
  0
LINE
  5
FED
  8
OVERLAY-A3
 10
5835.0
 20
-148.0
 30
0.0
 11
5834.9999999999973
 21
3477.5393139767311
 31
0.0
  0
LINE
  5
FEE
  8
OVERLAY-A3
 10
5834.9999999999973
 20
3477.5393139767311
 30
0.0
 11
1576.1105239390611
 21
3481.5393139767302
 31
0.0
  0
LINE
  5
FEF
  8
OVERLAY-A3
 10
1576.1105239390611
 20
3481.5393139767302
 30
0.0
 11
1576.1105239390611
 21
-148.0
 31
0.0
  0
TEXT
  5
FF0
  8
TEXT
 10
4499.1433054549598
 20
-73.789942976643061
 30
0.0
 40
45.0
  1
1:20
  7
TITLE3
  0
TEXT
  5
10A0
  8
TEXT
 10
5115.8581734788086
 20
408.56898589035478
 30
0.0
 40
28.0
  1
available on request
  7
TITLE3
  0
TEXT
  5
10A1
  8
TEXT
 10
5115.8581734788086
 20
456.56898589035478
 30
0.0
 40
28.0
  1
Certified dimensions
  7
TITLE3
  0
TEXT
  5
10A2
  8
TEXT
 10
5115.8581734788086
 20
504.5689858903545
 30
0.0
 40
28.0
  1
without notice or obligation.
  7
TITLE3
  0
TEXT
  5
10A3
  8
TEXT
 10
5115.8581734788086
 20
552.56898589035472
 30
0.0
 40
28.0
  1
specifications at any time
  7
TITLE3
  0
TEXT
  5
10A4
  8
TEXT
 10
5115.8581734788086
 20
600.56898589035472
 30
0.0
 40
28.0
  1
the right to change 
  7
TITLE3
  0
TEXT
  5
10A5
  8
TEXT
 10
5115.8581734788086
 20
696.56898589035472
 30
0.0
 40
28.0
  1
NOTE
  7
TITLE3
  0
TEXT
  5
10A6
  8
TEXT
 10
5115.8581734788086
 20
648.56898589035472
 30
0.0
 40
28.0
  1
The manufacturer reserves
  7
TITLE3
  0
LINE
  5
1384
  8
OUTLINE
 10
3085.0143715286331
 20
1558.1428250264951
 30
0.0
 11
3085.0143715286331
 21
335.44282502649543
 31
0.0
  0
LINE
  5
1387
  8
OUTLINE
 10
1933.5143715286331
 20
1573.1428250264951
 30
0.0
 11
3081.5143715286331
 21
1573.1428250264951
 31
0.0
  0
LINE
  5
1388
  8
OUTLINE
 10
1930.0143715286331
 20
335.44282502649543
 30
0.0
 11
3085.0143715286331
 21
335.44282502649543
 31
0.0
  0
LINE
  5
1389
  8
OUTLINE
 10
2115.0143715286331
 20
313.14282502649519
 30
0.0
 11
2115.0143715286331
 21
293.1428250264953
 31
0.0
  0
LINE
  5
1393
  8
OUTLINE
 10
2155.0143715286331
 20
303.14282502649542
 30
0.0
 11
2187.3143715286319
 21
335.44282502649543
 31
0.0
  0
LINE
  5
1394
  8
OUTLINE
 10
2075.0143715286331
 20
303.14282502649542
 30
0.0
 11
2042.714371528634
 21
335.44282502649543
 31
0.0
  0
LINE
  5
1396
  8
OUTLINE
 10
2861.0143715286331
 20
303.14282502649542
 30
0.0
 11
2941.0143715286331
 21
303.14282502649542
 31
0.0
  0
LINE
  5
1397
  8
OUTLINE
 10
2941.0143715286331
 20
303.14282502649542
 30
0.0
 11
2973.3143715286328
 21
335.44282502649543
 31
0.0
  0
LINE
  5
1398
  8
OUTLINE
 10
2861.0143715286331
 20
303.14282502649542
 30
0.0
 11
2828.7143715286329
 21
335.44282502649543
 31
0.0
  0
LINE
  5
139B
  8
OUTLINE
 10
2901.0143715286331
 20
313.14282502649519
 30
0.0
 11
2901.0143715286331
 21
293.1428250264953
 31
0.0
  0
TEXT
  5
13A8
  8
DIM
 10
2479.054371645454
 20
2646.983315174326
 30
0.0
 40
45.0
  1
FLOW
  7
SIMPLEX
  0
TEXT
  5
13A9
  8
DIM
 10
2513.8162731559191
 20
2717.8032765645121
 30
0.0
 40
45.0
  1
AIR
  7
SIMPLEX
  0
LINE
  5
13AA
  8
DIM
 10
2407.484922833265
 20
2684.0048817445459
 30
0.0
 11
2407.484922833265
 21
2745.7241730831311
 31
0.0
  0
LINE
  5
13AB
  8
DIM
 10
2434.7057012422351
 20
2684.0048817445459
 30
0.0
 11
2407.484922833265
 21
2684.0048817445459
 31
0.0
  0
LINE
  5
13AC
  8
DIM
 10
2394.824095666298
 20
2651.2461809571419
 30
0.0
 11
2434.7057012422351
 21
2684.0048817445459
 31
0.0
  0
LINE
  5
13AD
  8
DIM
 10
2382.1632684993351
 20
2745.7241730831311
 30
0.0
 11
2407.484922833265
 21
2745.7241730831311
 31
0.0
  0
LINE
  5
13AE
  8
DIM
 10
2382.1632684993351
 20
2684.0048817445459
 30
0.0
 11
2382.1632684993351
 21
2745.7241730831311
 31
0.0
  0
LINE
  5
13AF
  8
DIM
 10
2354.9424900903632
 20
2684.0048817445459
 30
0.0
 11
2382.1632684993351
 21
2684.0048817445459
 31
0.0
  0
LINE
  5
13B0
  8
DIM
 10
2394.824095666298
 20
2651.2461809571419
 30
0.0
 11
2354.9424900903632
 21
2684.0048817445459
 31
0.0
  0
TEXT
  5
13DD
  8
TEXT
 10
2599.3235341941249
 20
3374.152380662023
 30
0.0
 40
45.0
  1
150 min CLEARANCE
  7
TITLE3
  0
TEXT
  5
13DE
  8
TEXT
 10
2137.2123392597841
 20
2057.4993087726821
 30
0.0
 40
45.0
  1
800 min CLEARANCE
  7
TITLE3
  0
TEXT
  5
13DF
  8
TEXT
 10
1675.0258966143001
 20
2986.9933018242291
 30
0.0
 40
45.0
  1
150 min
 50
90.0
  7
TITLE3
  0
TEXT
  5
13E0
  8
TEXT
 10
1752.1687537571579
 20
2918.5242822778619
 30
0.0
 40
45.0
  1
CLEARANCE
 50
90.0
  7
TITLE3
  0
TEXT
  5
13E1
  8
TEXT
 10
3970.8869505180628
 20
2939.3430090111951
 30
0.0
 40
45.0
  1
1000 min
 50
90.0
  7
TITLE3
  0
TEXT
  5
13E2
  8
TEXT
 10
4048.0298076609201
 20
2888.6877733386132
 30
0.0
 40
45.0
  1
CLEARANCE
 50
90.0
  7
TITLE3
  0
LINE
  5
1413
  8
OUTLINE
 10
1928.5143715286331
 20
3203.124730783115
 30
0.0
 11
3086.5143715286331
 21
3203.124730783115
 31
0.0
  0
LINE
  5
1414
  8
OUTLINE
 10
1928.5143715286331
 20
3203.124730783115
 30
0.0
 11
1928.5143715286331
 21
2891.1247307831168
 31
0.0
  0
LINE
  5
1415
  8
OUTLINE
 10
3086.5143715286331
 20
3203.124730783115
 30
0.0
 11
3086.5143715286331
 21
2891.1247307831168
 31
0.0
  0
LINE
  5
1416
  8
OUTLINE
 10
2009.5143715286331
 20
2810.1247307831168
 30
0.0
 11
3005.5143715286331
 21
2810.1247307831168
 31
0.0
  0
LINE
  5
1417
  8
OUTLINE
 10
2075.0143715286331
 20
3220.1247307831122
 30
0.0
 11
2155.0143715286331
 21
3220.1247307831159
 31
0.0
  0
LINE
  5
141A
  8
OUTLINE
 10
2075.0143715286331
 20
2794.1247307831181
 30
0.0
 11
2155.0143715286331
 21
2794.1247307831181
 31
0.0
  0
POINT
  5
142C
  8
OUTLINE
 10
2115.0143715286331
 20
2813.6247307831159
 30
0.0
  0
POINT
  5
142E
  8
OUTLINE
 10
2115.0143715286331
 20
3212.1247307831131
 30
0.0
  0
POINT
  5
1437
  8
OUTLINE
 10
2901.0143715286331
 20
2813.6247307831159
 30
0.0
  0
POINT
  5
1438
  8
OUTLINE
 10
2901.0143715286331
 20
3212.1247307831131
 30
0.0
  0
LINE
  5
146E
  8
CLEAR
 10
1778.514371528634
 20
3353.124730783115
 30
0.0
 11
1778.5143715286349
 21
2810.1247307831168
 31
0.0
  0
LINE
  5
146F
  8
CLEAR
 10
1778.514371528634
 20
3353.124730783115
 30
0.0
 11
4086.5143715286322
 21
3353.124730783115
 31
0.0
  0
LINE
  5
1470
  8
CLEAR
 10
4086.5143715286322
 20
3353.124730783115
 30
0.0
 11
4086.5143715286322
 21
2810.1247307831168
 31
0.0
  0
LINE
  5
1471
  8
CLEAR
 10
1928.5143715286331
 20
2010.124730783117
 30
0.0
 11
3086.5143715286331
 21
2010.124730783117
 31
0.0
  0
LINE
  5
1472
  8
CLEAR
 10
1928.5143715286331
 20
2785.1247307831168
 30
0.0
 11
1928.5143715286331
 21
2010.124730783117
 31
0.0
  0
LINE
  5
1473
  8
CLEAR
 10
3086.5143715286331
 20
2785.1247307831168
 30
0.0
 11
3086.5143715286331
 21
2010.124730783117
 31
0.0
  0
LINE
  5
1474
  8
CLEAR
 10
3111.5143715286331
 20
2810.1247307831168
 30
0.0
 11
4086.5143715286322
 21
2810.1247307831168
 31
0.0
  0
LINE
  5
1475
  8
CLEAR
 10
1903.514371528634
 20
2810.1247307831168
 30
0.0
 11
1778.5143715286349
 21
2810.1247307831168
 31
0.0
  0
LINE
  5
151A
  8
OUTLINE
 10
2075.0143715286331
 20
2794.1247307831181
 30
0.0
 11
2059.0143715286331
 21
2810.1247307831168
 31
0.0
  0
LINE
  5
151B
  8
OUTLINE
 10
2155.0143715286331
 20
2794.1247307831181
 30
0.0
 11
2171.0143715286331
 21
2810.1247307831168
 31
0.0
  0
LINE
  5
151C
  8
OUTLINE
 10
2075.0143715286331
 20
3220.1247307831122
 30
0.0
 11
2058.0143715286322
 21
3203.124730783115
 31
0.0
  0
LINE
  5
151D
  8
OUTLINE
 10
2155.0143715286331
 20
3220.1247307831159
 30
0.0
 11
2172.0143715286331
 21
3203.1247307831168
 31
0.0
  0
LINE
  5
151E
  8
OUTLINE
 10
2861.0143715286331
 20
3220.1247307831122
 30
0.0
 11
2941.0143715286331
 21
3220.1247307831159
 31
0.0
  0
LINE
  5
151F
  8
OUTLINE
 10
2861.0143715286331
 20
2794.1247307831181
 30
0.0
 11
2941.0143715286331
 21
2794.1247307831181
 31
0.0
  0
LINE
  5
1520
  8
OUTLINE
 10
2861.0143715286331
 20
2794.1247307831181
 30
0.0
 11
2845.0143715286331
 21
2810.1247307831168
 31
0.0
  0
LINE
  5
1521
  8
OUTLINE
 10
2941.0143715286331
 20
2794.1247307831181
 30
0.0
 11
2957.0143715286322
 21
2810.1247307831168
 31
0.0
  0
LINE
  5
1522
  8
OUTLINE
 10
2861.0143715286331
 20
3220.1247307831122
 30
0.0
 11
2844.0143715286308
 21
3203.124730783115
 31
0.0
  0
LINE
  5
1523
  8
OUTLINE
 10
2941.0143715286331
 20
3220.1247307831159
 30
0.0
 11
2958.014371528634
 21
3203.1247307831168
 31
0.0
  0
LINE
  5
168C
  8
OUTLINE
 10
4323.3768419741236
 20
3203.1247307831159
 30
0.0
 11
5546.0768419741244
 21
3203.124730783115
 31
0.0
  0
LINE
  5
168D
  8
OUTLINE
 10
4323.3768419741236
 20
2810.124730783114
 30
0.0
 11
5546.0768419741244
 21
2810.1247307831168
 31
0.0
  0
LINE
  5
169F
  8
OUTLINE
 10
4308.3768419741255
 20
2813.6247307831159
 30
0.0
 11
4308.3768419741255
 21
3199.624730783114
 31
0.0
  0
LINE
  5
16A0
  8
OUTLINE
 10
5546.0768419741244
 20
2810.1247307831168
 30
0.0
 11
5546.0768419741244
 21
3203.124730783115
 31
0.0
  0
LINE
  5
16B2
  8
OUTLINE
 10
5578.3768419741218
 20
2794.1247307831181
 30
0.0
 11
5578.3768419741264
 21
3220.1247307831122
 31
0.0
  0
LINE
  5
16B3
  8
OUTLINE
 10
5578.3768419741218
 20
2794.1247307831181
 30
0.0
 11
5546.0768419741244
 21
2826.424730783116
 31
0.0
  0
LINE
  5
16B4
  8
OUTLINE
 10
5578.3768419741264
 20
3220.1247307831122
 30
0.0
 11
5546.0768419741244
 21
3187.824730783113
 31
0.0
  0
LINE
  5
16B5
  8
OUTLINE
 10
5588.3768419741236
 20
3212.1247307831131
 30
0.0
 11
5568.3768419741264
 21
3212.1247307831131
 31
0.0
  0
LINE
  5
16B6
  8
OUTLINE
 10
5588.3768419741236
 20
2813.6247307831159
 30
0.0
 11
5568.3768419741227
 21
2813.6247307831159
 31
0.0
  0
LINE
  5
16BC
  8
OVERLAY-A3
 10
4278.3768419741236
 20
3204.6247307831159
 30
0.0
 11
4161.8208512668571
 21
3204.6247307831159
 31
0.0
  0
LINE
  5
16BD
  8
OVERLAY-A3
 10
4278.3768419741236
 20
2808.624730783114
 30
0.0
 11
4161.8208512668571
 21
2808.624730783114
 31
0.0
  0
LINE
  5
16BE
  8
OVERLAY-A3
 10
4191.8208512668562
 20
3159.6247307831181
 30
0.0
 11
4191.8208512668562
 21
3094.6247307831181
 31
0.0
  0
LINE
  5
16BF
  8
OVERLAY-A3
 10
4191.8208512668562
 20
2853.6247307831159
 30
0.0
 11
4191.8208512668562
 21
2914.6247307831181
 31
0.0
  0
SOLID
  5
16C0
  8
OVERLAY-A3
 10
4184.3208512668552
 20
3159.6247307831181
 30
0.0
 11
4199.3208512668552
 21
3159.6247307831181
 31
0.0
 12
4191.8208512668562
 22
3204.6247307831159
 32
0.0
 13
4191.8208512668562
 23
3204.6247307831159
 33
0.0
  0
SOLID
  5
16C1
  8
OVERLAY-A3
 10
4184.3208512668552
 20
2853.6247307831159
 30
0.0
 11
4199.3208512668552
 21
2853.6247307831159
 31
0.0
 12
4191.8208512668562
 22
2808.624730783114
 32
0.0
 13
4191.8208512668562
 23
2808.624730783114
 33
0.0
  0
LINE
  5
16C3
  8
OVERLAY-A3
 10
5608.3768419741236
 20
3220.1247307831122
 30
0.0
 11
5745.9367782807221
 21
3220.1247307831122
 31
0.0
  0
LINE
  5
16C4
  8
OVERLAY-A3
 10
5608.3768419741236
 20
2794.1247307831181
 30
0.0
 11
5745.9367782807221
 21
2794.1247307831181
 31
0.0
  0
LINE
  5
16C5
  8
OVERLAY-A3
 10
5715.9367782807212
 20
3265.1247307831131
 30
0.0
 11
5715.9367782807212
 21
3310.124730783114
 31
0.0
  0
LINE
  5
16C6
  8
OVERLAY-A3
 10
5715.9367782807212
 20
2749.1247307831181
 30
0.0
 11
5715.9367782807212
 21
2704.1247307831181
 31
0.0
  0
SOLID
  5
16C7
  8
OVERLAY-A3
 10
5708.4367782807212
 20
3265.1247307831131
 30
0.0
 11
5723.4367782807212
 21
3265.1247307831131
 31
0.0
 12
5715.9367782807212
 22
3220.1247307831122
 32
0.0
 13
5715.9367782807212
 23
3220.1247307831122
 33
0.0
  0
SOLID
  5
16C8
  8
OVERLAY-A3
 10
5708.4367782807212
 20
2749.1247307831181
 30
0.0
 11
5723.4367782807212
 21
2749.1247307831181
 31
0.0
 12
5715.9367782807212
 22
2794.1247307831181
 32
0.0
 13
5715.9367782807212
 23
2794.1247307831181
 33
0.0
  0
INSERT
  5
16C9
  8
OUTLINE
  2
*U8
 10
127.77954865902571
 20
-1197.4705222838891
 30
0.0
  0
LINE
  5
16CA
  8
OVERLAY-A3
 10
5547.3768419741236
 20
3220.1247307831122
 30
0.0
 11
5439.0235976816539
 21
3220.1247307831122
 31
0.0
  0
LINE
  5
16CB
  8
OVERLAY-A3
 10
5547.3768419741227
 20
3212.1247307831131
 30
0.0
 11
5440.1510360621933
 21
3212.1247307831159
 31
0.0
  0
LINE
  5
16CC
  8
OVERLAY-A3
 10
5469.0235976816557
 20
3265.1247307831131
 30
0.0
 11
5469.0235976816557
 21
3310.124730783114
 31
0.0
  0
LINE
  5
16CD
  8
OVERLAY-A3
 10
5469.023597681653
 20
3167.1247307831168
 30
0.0
 11
5469.023597681653
 21
3118.124730783119
 31
0.0
  0
SOLID
  5
16CE
  8
OVERLAY-A3
 10
5461.5235976816539
 20
3265.1247307831131
 30
0.0
 11
5476.5235976816548
 21
3265.1247307831131
 31
0.0
 12
5469.0235976816557
 22
3220.1247307831122
 32
0.0
 13
5469.0235976816557
 23
3220.1247307831122
 33
0.0
  0
SOLID
  5
16CF
  8
OVERLAY-A3
 10
5461.523597681653
 20
3167.1247307831168
 30
0.0
 11
5476.523597681653
 21
3167.1247307831168
 31
0.0
 12
5469.023597681653
 22
3212.1247307831159
 32
0.0
 13
5469.023597681653
 23
3212.1247307831159
 33
0.0
  0
LINE
  5
16D1
  8
OVERLAY-A3
 10
1898.514371528634
 20
1573.1428250264951
 30
0.0
 11
1770.1766810885649
 21
1573.1428250264951
 31
0.0
  0
LINE
  5
16D3
  8
OVERLAY-A3
 10
1800.1766810885649
 20
1532.1428250264951
 30
0.0
 11
1800.1766810885649
 21
1113.264501368192
 31
0.0
  0
LINE
  5
16D4
  8
OVERLAY-A3
 10
1800.1766810885649
 20
348.14282502649542
 30
0.0
 11
1800.1766810885649
 21
752.26450136819301
 31
0.0
  0
SOLID
  5
16D5
  8
OVERLAY-A3
 10
1792.6766810885649
 20
1532.1428250264951
 30
0.0
 11
1807.6766810885649
 21
1532.1428250264951
 31
0.0
 12
1800.1766810885649
 22
1573.1428250264951
 32
0.0
 13
1800.1766810885649
 23
1573.1428250264951
 33
0.0
  0
SOLID
  5
16D6
  8
OVERLAY-A3
 10
1792.6766810885649
 20
348.14282502649542
 30
0.0
 11
1807.6766810885649
 21
348.14282502649542
 31
0.0
 12
1800.1766810885649
 22
303.14282502649542
 32
0.0
 13
1800.1766810885649
 23
303.14282502649542
 33
0.0
  0
LINE
  5
16D8
  8
OVERLAY-A3
 10
1928.5143715286331
 20
305.44282502649543
 30
0.0
 11
1928.5143715286331
 21
209.25151841674949
 31
0.0
  0
LINE
  5
16D9
  8
OVERLAY-A3
 10
2115.0143715286331
 20
249.14282502649539
 30
0.0
 11
2115.0143715286331
 21
209.25151841674949
 31
0.0
  0
LINE
  5
16DA
  8
OVERLAY-A3
 10
1883.514371528634
 20
239.25151841674941
 30
0.0
 11
1838.514371528634
 21
239.25151841674941
 31
0.0
  0
LINE
  5
16DB
  8
OVERLAY-A3
 10
2160.0143715286331
 20
239.25151841674941
 30
0.0
 11
2205.0143715286331
 21
239.25151841674941
 31
0.0
  0
SOLID
  5
16DC
  8
OVERLAY-A3
 10
1883.514371528634
 20
246.75151841674949
 30
0.0
 11
1883.514371528634
 21
231.75151841674949
 31
0.0
 12
1928.5143715286331
 22
239.25151841674941
 32
0.0
 13
1928.5143715286331
 23
239.25151841674941
 33
0.0
  0
SOLID
  5
16DD
  8
OVERLAY-A3
 10
2160.0143715286331
 20
246.75151841674949
 30
0.0
 11
2160.0143715286331
 21
231.75151841674949
 31
0.0
 12
2115.0143715286331
 22
239.25151841674941
 32
0.0
 13
2115.0143715286331
 23
239.25151841674941
 33
0.0
  0
LINE
  5
16DF
  8
OVERLAY-A3
 10
2115.0143715286331
 20
276.65339673753249
 30
0.0
 11
2115.0143715286331
 21
209.25151841674949
 31
0.0
  0
LINE
  5
16E0
  8
OVERLAY-A3
 10
2901.0143715286331
 20
276.65339673753249
 30
0.0
 11
2901.0143715286331
 21
209.25151841674949
 31
0.0
  0
LINE
  5
16E1
  8
OVERLAY-A3
 10
2160.0143715286331
 20
239.25151841674941
 30
0.0
 11
2309.3875928578391
 21
239.25151841674941
 31
0.0
  0
LINE
  5
16E2
  8
OVERLAY-A3
 10
2856.0143715286331
 20
239.25151841674941
 30
0.0
 11
2714.3875928578391
 21
239.25151841674941
 31
0.0
  0
SOLID
  5
16E3
  8
OVERLAY-A3
 10
2160.0143715286331
 20
246.75151841674949
 30
0.0
 11
2160.0143715286331
 21
231.75151841674949
 31
0.0
 12
2115.0143715286331
 22
239.25151841674941
 32
0.0
 13
2115.0143715286331
 23
239.25151841674941
 33
0.0
  0
SOLID
  5
16E4
  8
OVERLAY-A3
 10
2856.0143715286331
 20
246.75151841674949
 30
0.0
 11
2856.0143715286331
 21
231.75151841674949
 31
0.0
 12
2901.0143715286331
 22
239.25151841674941
 32
0.0
 13
2901.0143715286331
 23
239.25151841674941
 33
0.0
  0
LINE
  5
16E6
  8
OVERLAY-A3
 10
1928.5143715286331
 20
1603.1428250264951
 30
0.0
 11
1928.5143715286331
 21
1673.3076330213951
 31
0.0
  0
LINE
  5
16E7
  8
OVERLAY-A3
 10
3086.5143715286331
 20
1603.1428250264951
 30
0.0
 11
3086.5143715286331
 21
1673.3076330213951
 31
0.0
  0
LINE
  5
16E8
  8
OVERLAY-A3
 10
1973.5143715286331
 20
1643.3076330213951
 30
0.0
 11
2326.7458552022081
 21
1643.3076330213951
 31
0.0
  0
LINE
  5
16E9
  8
OVERLAY-A3
 10
3041.5143715286331
 20
1643.3076330213951
 30
0.0
 11
2701.745855202209
 21
1643.3076330213951
 31
0.0
  0
SOLID
  5
16EA
  8
OVERLAY-A3
 10
1973.5143715286331
 20
1650.8076330213951
 30
0.0
 11
1973.5143715286331
 21
1635.8076330213951
 31
0.0
 12
1928.5143715286331
 22
1643.3076330213951
 32
0.0
 13
1928.5143715286331
 23
1643.3076330213951
 33
0.0
  0
SOLID
  5
16EB
  8
OVERLAY-A3
 10
3041.5143715286331
 20
1650.8076330213951
 30
0.0
 11
3041.5143715286331
 21
1635.8076330213951
 31
0.0
 12
3086.5143715286331
 22
1643.3076330213951
 32
0.0
 13
3086.5143715286331
 23
1643.3076330213951
 33
0.0
  0
LINE
  5
1701
  8
OVERLAY-A3
 10
2932.2143715286338
 20
3212.1247307831131
 30
0.0
 11
3299.5784385225929
 21
3212.1247307831131
 31
0.0
  0
LINE
  5
1702
  8
OVERLAY-A3
 10
2932.2143715286338
 20
2813.6247307831159
 30
0.0
 11
3299.5784385225929
 21
2813.6247307831159
 31
0.0
  0
LINE
  5
1703
  8
OVERLAY-A3
 10
3272.0784385225929
 20
3257.1247307831131
 30
0.0
 11
3272.0784385225929
 21
3302.1247307831131
 31
0.0
  0
LINE
  5
1704
  8
OVERLAY-A3
 10
3272.0784385225929
 20
2768.6247307831159
 30
0.0
 11
3272.0784385225929
 21
2723.6247307831181
 31
0.0
  0
SOLID
  5
1705
  8
OVERLAY-A3
 10
3264.5784385225929
 20
3257.1247307831131
 30
0.0
 11
3279.578438522592
 21
3257.1247307831131
 31
0.0
 12
3272.0784385225929
 22
3212.1247307831131
 32
0.0
 13
3272.0784385225929
 23
3212.1247307831131
 33
0.0
  0
SOLID
  5
1706
  8
OVERLAY-A3
 10
3264.5784385225929
 20
2768.6247307831159
 30
0.0
 11
3279.578438522592
 21
2768.6247307831159
 31
0.0
 12
3272.0784385225929
 22
2813.6247307831159
 32
0.0
 13
3272.0784385225929
 23
2813.6247307831159
 33
0.0
  0
LINE
  5
1708
  8
OVERLAY-A3
 10
5616.6670943648533
 20
2813.6247307831159
 30
0.0
 11
5679.6077571475316
 21
2813.6247307831159
 31
0.0
  0
LINE
  5
1709
  8
OVERLAY-A3
 10
5608.3768419741236
 20
2794.1247307831181
 30
0.0
 11
5691.3175047568038
 21
2794.1247307831181
 31
0.0
  0
LINE
  5
170A
  8
OVERLAY-A3
 10
5651.3175047568038
 20
2853.6247307831159
 30
0.0
 11
5651.3175047568038
 21
2898.6247307831168
 31
0.0
  0
LINE
  5
170B
  8
OVERLAY-A3
 10
5651.3175047568038
 20
2749.1247307831181
 30
0.0
 11
5651.3175047568038
 21
2704.1247307831181
 31
0.0
  0
SOLID
  5
170C
  8
OVERLAY-A3
 10
5643.817504756802
 20
2858.6247307831159
 30
0.0
 11
5658.8175047568038
 21
2858.6247307831159
 31
0.0
 12
5651.3175047568038
 22
2813.6247307831159
 32
0.0
 13
5651.3175047568038
 23
2813.6247307831159
 33
0.0
  0
SOLID
  5
170D
  8
OVERLAY-A3
 10
5643.817504756802
 20
2749.1247307831181
 30
0.0
 11
5658.8175047568038
 21
2749.1247307831181
 31
0.0
 12
5651.3175047568038
 22
2794.1247307831181
 32
0.0
 13
5651.3175047568038
 23
2794.1247307831181
 33
0.0
  0
TEXT
  5
17F0
  8
OUTLINE
 10
2158.699581695857
 20
2985.1005819711781
 30
0.0
 40
60.0
  1
OSA 184RKTFH
  7
TITLE5
  0
TEXT
  5
17F1
  8
OUTLINE
 10
4595.6790026078397
 20
2985.1005819711781
 30
0.0
 40
60.0
  1
OSA 184RKTFH
  7
TITLE5
  0
TEXT
  5
17F2
  8
OUTLINE
 10
2626.728253300982
 20
917.3103916658506
 30
0.0
 40
60.0
  1
OSA 184
  7
TITLE5
  0
TEXT
  5
17F3
  8
OUTLINE
 10
2678.1568247295531
 20
817.31039166585026
 30
0.0
 40
60.0
  1
RKTFH
  7
TITLE5
  0
LINE
  5
19D0
  8
OVERLAY-A3
 10
2047.5143715286331
 20
303.14282502649542
 30
0.0
 11
1770.1766810885631
 21
303.14282502649542
 31
0.0
  0
TEXT
  5
19D3
  8
OVERLAY-A3
 10
1822.676681088564
 20
783.26450136819324
 30
0.0
 40
45.0
  1
1270 O/A
 50
90.0
  0
TEXT
  5
1DB5
  8
OVERLAY-A3
 10
5672.817504756802
 20
2546.62473078312
 30
0.0
 40
45.0
  1
19.5
 50
90.0
  0
TEXT
  5
1DB8
  8
OVERLAY-A3
 10
5491.5235976816539
 20
3331.4546224781361
 30
0.0
 40
45.0
  1
8
 50
90.0
  0
LINE
  5
1DC0
  8
OUTLINE
 10
4313.3768419741236
 20
3204.6247307831159
 30
0.0
 11
4323.3768419741236
 21
3204.6247307831159
 31
0.0
  0
LINE
  5
1DC1
  8
OUTLINE
 10
4323.3768419741236
 20
3204.6247307831159
 30
0.0
 11
4323.3768419741236
 21
2808.624730783114
 31
0.0
  0
LINE
  5
1DC2
  8
OUTLINE
 10
4323.3768419741236
 20
2808.624730783114
 30
0.0
 11
4313.3768419741236
 21
2808.624730783114
 31
0.0
  0
ARC
  5
1DC3
  8
OUTLINE
 10
4313.3768419741236
 20
2813.6247307831159
 30
0.0
 40
5.0
 50
180.0
 51
270.0
  0
ARC
  5
1DC4
  8
OUTLINE
 10
4313.3768419741236
 20
3199.624730783114
 30
0.0
 40
5.0
 50
90.0
 51
180.0
  0
TEXT
  5
1DC5
  8
OVERLAY-A3
 10
4214.3208512668571
 20
2944.6247307831181
 30
0.0
 40
45.0
  1
396
 50
90.0
  0
TEXT
  5
1DCF
  8
OVERLAY-A3
 10
1982.249245246875
 20
227.48869650817309
 30
0.0
 40
35.0
  1
185
  0
LINE
  5
1DD0
  8
OUTLINE
 10
1928.5143715286331
 20
1558.1428250264951
 30
0.0
 11
3086.5143715286331
 21
1558.1428250264951
 31
0.0
  0
ARC
  5
1DD1
  8
OUTLINE
 10
1933.5143715286331
 20
1568.1428250264951
 30
0.0
 40
5.0
 50
90.0
 51
180.0
  0
ARC
  5
1DD2
  8
OUTLINE
 10
3081.5143715286331
 20
1568.1428250264951
 30
0.0
 40
5.0
 50
0.0
 51
90.0
  0
LINE
  5
1E2C
  8
OUTLINE
 10
1928.5143715286331
 20
1568.1428250264951
 30
0.0
 11
1928.5143715286331
 21
1558.1428250264951
 31
0.0
  0
LINE
  5
1E2D
  8
OUTLINE
 10
3086.5143715286331
 20
1568.1428250264951
 30
0.0
 11
3086.5143715286331
 21
1558.1428250264951
 31
0.0
  0
LINE
  5
208E
  8
OUTLINE
 10
5578.3768419741264
 20
3220.1247307831122
 30
0.0
 11
5561.9869851775802
 21
3220.1247307831122
 31
0.0
  0
TEXT
  5
2093
  8
OVERLAY-A3
 10
3294.578438522592
 20
2839.794862905132
 30
0.0
 40
45.0
  1
398 CTRS
 50
90.0
  0
TEXT
  5
20AD
  8
OVERLAY-A3
 10
2356.7458552022081
 20
1629.3894707439281
 30
0.0
 40
45.0
  1
1158 O/A
  0
TEXT
  5
20B2
  8
OVERLAY-A3
 10
2339.3875928578391
 20
214.9776067537058
 30
0.0
 40
45.0
  1
786 CTRS
  0
LINE
  5
21E1
  8
OUTLINE
 10
1928.5143715286331
 20
2891.1247307831168
 30
0.0
 11
2009.5143715286331
 21
2810.1247307831168
 31
0.0
  0
LINE
  5
21E2
  8
OUTLINE
 10
3086.5143715286331
 20
2891.1247307831168
 30
0.0
 11
3005.5143715286331
 21
2810.1247307831168
 31
0.0
  0
CIRCLE
  5
2263
  8
OUTLINE
 10
2332.8321061098068
 20
1255.3672164879699
 30
0.0
 40
254.0
  0
CIRCLE
  5
2264
  8
OUTLINE
 10
2332.8321061098068
 20
655.02558956287157
 30
0.0
 40
254.0
  0
ENDSEC
  0
EOF
