  0
SECTION
  2
HEADER
  9
$ACADVER
  1
AC1032
  9
$ACADMAINTVER
 90
        4
  9
$DWGCODEPAGE
  3
ANSI_1252
  9
$LASTSAVEDBY
  1
ssaheef
  9
$REQUIREDVERSIONS
160
                 0
  9
$INSBASE
 10
0.0
 20
0.0
 30
0.0
  9
$EXTMIN
 10
-482.5765112177232
 20
-202.0981374865787
 30
-0.0000000000112498
  9
$EXTMAX
 10
4051.191174890689
 20
4820.670462598826
 30
0.0000000000002956
  9
$LIMMIN
 10
0.0
 20
0.0
  9
$LIMMAX
 10
3890.0
 20
2660.0
  9
$ORTHOMODE
 70
     1
  9
$REGENMODE
 70
     1
  9
$FILLMODE
 70
     1
  9
$QTEXTMODE
 70
     0
  9
$MIRRTEXT
 70
     0
  9
$LTSCALE
 40
300.0
  9
$ATTMODE
 70
     1
  9
$TEXTSIZE
 40
30.0
  9
$TRACEWID
 40
0.05
  9
$TEXTSTYLE
  7
TITLE3
  9
$CLAYER
  8
0
  9
$CELTYPE
  6
ByLayer
  9
$CECOLOR
 62
   256
  9
$CELTSCALE
 40
1.0
  9
$DISPSILH
 70
     0
  9
$DIMSCALE
 40
1.0
  9
$DIMASZ
 40
0.18
  9
$DIMEXO
 40
0.0625
  9
$DIMDLI
 40
0.38
  9
$DIMRND
 40
0.0
  9
$DIMDLE
 40
0.0
  9
$DIMEXE
 40
0.18
  9
$DIMTP
 40
0.0
  9
$DIMTM
 40
0.0
  9
$DIMTXT
 40
0.18
  9
$DIMCEN
 40
0.09
  9
$DIMTSZ
 40
0.0
  9
$DIMTOL
 70
     0
  9
$DIMLIM
 70
     0
  9
$DIMTIH
 70
     1
  9
$DIMTOH
 70
     1
  9
$DIMSE1
 70
     0
  9
$DIMSE2
 70
     0
  9
$DIMTAD
 70
     0
  9
$DIMZIN
 70
     0
  9
$DIMBLK
  1

  9
$DIMASO
 70
     0
  9
$DIMSHO
 70
     0
  9
$DIMPOST
  1

  9
$DIMAPOST
  1

  9
$DIMALT
 70
     0
  9
$DIMALTD
 70
     2
  9
$DIMALTF
 40
25.4
  9
$DIMLFAC
 40
1.0
  9
$DIMTOFL
 70
     0
  9
$DIMTVP
 40
0.0
  9
$DIMTIX
 70
     0
  9
$DIMSOXD
 70
     0
  9
$DIMSAH
 70
     0
  9
$DIMBLK1
  1

  9
$DIMBLK2
  1

  9
$DIMSTYLE
  2
ANNOTATIVE
  9
$DIMCLRD
 70
     0
  9
$DIMCLRE
 70
     0
  9
$DIMCLRT
 70
     0
  9
$DIMTFAC
 40
1.0
  9
$DIMGAP
 40
0.09
  9
$DIMJUST
 70
     0
  9
$DIMSD1
 70
     0
  9
$DIMSD2
 70
     0
  9
$DIMTOLJ
 70
     1
  9
$DIMTZIN
 70
     0
  9
$DIMALTZ
 70
     0
  9
$DIMALTTZ
 70
     0
  9
$DIMUPT
 70
     0
  9
$DIMDEC
 70
     4
  9
$DIMTDEC
 70
     4
  9
$DIMALTU
 70
     2
  9
$DIMALTTD
 70
     2
  9
$DIMTXSTY
  7
STANDARD
  9
$DIMAUNIT
 70
     0
  9
$DIMADEC
 70
     0
  9
$DIMALTRND
 40
0.0
  9
$DIMAZIN
 70
     0
  9
$DIMDSEP
 70
    46
  9
$DIMATFIT
 70
     3
  9
$DIMFRAC
 70
     0
  9
$DIMLDRBLK
  1

  9
$DIMLUNIT
 70
     2
  9
$DIMLWD
 70
    -2
  9
$DIMLWE
 70
    -2
  9
$DIMTMOVE
 70
     0
  9
$DIMFXL
 40
1.0
  9
$DIMFXLON
 70
     0
  9
$DIMJOGANG
 40
0.7853981633974483
  9
$DIMTFILL
 70
     0
  9
$DIMTFILLCLR
 70
     0
  9
$DIMARCSYM
 70
     0
  9
$DIMLTYPE
  6

  9
$DIMLTEX1
  6

  9
$DIMLTEX2
  6

  9
$DIMTXTDIRECTION
 70
     0
  9
$LUNITS
 70
     2
  9
$LUPREC
 70
     2
  9
$SKETCHINC
 40
0.1
  9
$FILLETRAD
 40
0.0
  9
$AUNITS
 70
     0
  9
$AUPREC
 70
     2
  9
$MENU
  1
\acad12\support\cnc
  9
$ELEVATION
 40
0.0
  9
$PELEVATION
 40
0.0
  9
$THICKNESS
 40
0.0
  9
$LIMCHECK
 70
     0
  9
$CHAMFERA
 40
20.0
  9
$CHAMFERB
 40
20.0
  9
$CHAMFERC
 40
0.0
  9
$CHAMFERD
 40
0.0
  9
$SKPOLY
 70
     0
  9
$TDCREATE
 40
2450610.402627315
  9
$TDUCREATE
 40
2450609.902627315
  9
$TDUPDATE
 40
2458775.451493056
  9
$TDUUPDATE
 40
2458774.909826389
  9
$TDINDWG
 40
0.6132414931
  9
$TDUSRTIMER
 40
0.6132384606
  9
$USRTIMER
 70
     1
  9
$ANGBASE
 50
0.0
  9
$ANGDIR
 70
     0
  9
$PDMODE
 70
     2
  9
$PDSIZE
 40
10.0
  9
$PLINEWID
 40
2.0
  9
$SPLFRAME
 70
     0
  9
$SPLINETYPE
 70
     6
  9
$SPLINESEGS
 70
     8
  9
$HANDSEED
  5
AEF9
  9
$SURFTAB1
 70
     6
  9
$SURFTAB2
 70
     6
  9
$SURFTYPE
 70
     6
  9
$SURFU
 70
     6
  9
$SURFV
 70
     6
  9
$UCSBASE
  2

  9
$UCSNAME
  2

  9
$UCSORG
 10
0.0
 20
0.0
 30
0.0
  9
$UCSXDIR
 10
1.0
 20
0.0
 30
0.0
  9
$UCSYDIR
 10
0.0
 20
1.0
 30
0.0
  9
$UCSORTHOREF
  2

  9
$UCSORTHOVIEW
 70
     0
  9
$UCSORGTOP
 10
0.0
 20
0.0
 30
0.0
  9
$UCSORGBOTTOM
 10
0.0
 20
0.0
 30
0.0
  9
$UCSORGLEFT
 10
0.0
 20
0.0
 30
0.0
  9
$UCSORGRIGHT
 10
0.0
 20
0.0
 30
0.0
  9
$UCSORGFRONT
 10
0.0
 20
0.0
 30
0.0
  9
$UCSORGBACK
 10
0.0
 20
0.0
 30
0.0
  9
$PUCSBASE
  2

  9
$PUCSNAME
  2

  9
$PUCSORG
 10
0.0
 20
0.0
 30
0.0
  9
$PUCSXDIR
 10
1.0
 20
0.0
 30
0.0
  9
$PUCSYDIR
 10
0.0
 20
1.0
 30
0.0
  9
$PUCSORTHOREF
  2

  9
$PUCSORTHOVIEW
 70
     0
  9
$PUCSORGTOP
 10
0.0
 20
0.0
 30
0.0
  9
$PUCSORGBOTTOM
 10
0.0
 20
0.0
 30
0.0
  9
$PUCSORGLEFT
 10
0.0
 20
0.0
 30
0.0
  9
$PUCSORGRIGHT
 10
0.0
 20
0.0
 30
0.0
  9
$PUCSORGFRONT
 10
0.0
 20
0.0
 30
0.0
  9
$PUCSORGBACK
 10
0.0
 20
0.0
 30
0.0
  9
$USERI1
 70
     0
  9
$USERI2
 70
     0
  9
$USERI3
 70
     0
  9
$USERI4
 70
     0
  9
$USERI5
 70
     0
  9
$USERR1
 40
0.0
  9
$USERR2
 40
0.0
  9
$USERR3
 40
0.0
  9
$USERR4
 40
0.0
  9
$USERR5
 40
0.0
  9
$WORLDVIEW
 70
     1
  9
$SHADEDGE
 70
     3
  9
$SHADEDIF
 70
    70
  9
$TILEMODE
 70
     1
  9
$MAXACTVP
 70
    16
  9
$PINSBASE
 10
0.0
 20
0.0
 30
0.0
  9
$PLIMCHECK
 70
     0
  9
$PEXTMIN
 10
1.129416638471947
 20
0.7730833676856337
 30
0.0
  9
$PEXTMAX
 10
10.16474974624754
 20
6.957750309170696
 30
0.0
  9
$PLIMMIN
 10
-0.1979161059762549
 20
-0.2679166643638311
  9
$PLIMMAX
 10
11.49541659617987
 20
8.000416830768735
  9
$UNITMODE
 70
     0
  9
$VISRETAIN
 70
     0
  9
$PLINEGEN
 70
     0
  9
$PSLTSCALE
 70
     0
  9
$TREEDEPTH
 70
  3020
  9
$CMLSTYLE
  2
Standard
  9
$CMLJUST
 70
     0
  9
$CMLSCALE
 40
1.0
  9
$PROXYGRAPHICS
 70
     1
  9
$MEASUREMENT
 70
     0
  9
$CELWEIGHT
370
    -1
  9
$ENDCAPS
280
     0
  9
$JOINSTYLE
280
     0
  9
$LWDISPLAY
290
     0
  9
$INSUNITS
 70
     0
  9
$HYPERLINKBASE
  1

  9
$STYLESHEET
  1

  9
$XEDIT
290
     1
  9
$CEPSNTYPE
380
     0
  9
$PSTYLEMODE
290
     1
  9
$FINGERPRINTGUID
  2
{0E7C41ED-5AC1-8342-9533-15F9420EC1F2}
  9
$VERSIONGUID
  2
{E8F353AD-7966-C748-A5FD-AF4A846A61C3}
  9
$EXTNAMES
290
     1
  9
$PSVPSCALE
 40
0.0
  9
$OLESTARTUP
290
     0
  9
$SORTENTS
280
   127
  9
$INDEXCTL
280
     0
  9
$HIDETEXT
280
     0
  9
$XCLIPFRAME
280
     2
  9
$HALOGAP
280
     0
  9
$OBSCOLOR
 70
   257
  9
$OBSLTYPE
280
     0
  9
$INTERSECTIONDISPLAY
280
     0
  9
$INTERSECTIONCOLOR
 70
   257
  9
$DIMASSOC
280
     0
  9
$PROJECTNAME
  1

  9
$CAMERADISPLAY
290
     0
  9
$LENSLENGTH
 40
50.0
  9
$CAMERAHEIGHT
 40
0.0
  9
$STEPSPERSEC
 40
2.0
  9
$STEPSIZE
 40
6.0
  9
$3DDWFPREC
 40
2.0
  9
$PSOLWIDTH
 40
0.25
  9
$PSOLHEIGHT
 40
4.0
  9
$LOFTANG1
 40
1.570796326794896
  9
$LOFTANG2
 40
1.570796326794896
  9
$LOFTMAG1
 40
0.0
  9
$LOFTMAG2
 40
0.0
  9
$LOFTPARAM
 70
     7
  9
$LOFTNORMALS
280
     1
  9
$LATITUDE
 40
37.795
  9
$LONGITUDE
 40
-122.394
  9
$NORTHDIRECTION
 40
0.0
  9
$TIMEZONE
 70
 -8000
  9
$LIGHTGLYPHDISPLAY
280
     1
  9
$TILEMODELIGHTSYNCH
280
     1
  9
$CMATERIAL
347
AE26
  9
$SOLIDHIST
280
     0
  9
$SHOWHIST
280
     1
  9
$DWFFRAME
280
     2
  9
$DGNFRAME
280
     0
  9
$REALWORLDSCALE
290
     1
  9
$INTERFERECOLOR
 62
     1
  9
$INTERFEREOBJVS
345
AE48
  9
$INTERFEREVPVS
346
AE45
  9
$CSHADOW
280
     0
  9
$SHADOWPLANELOCATION
 40
0.0
  0
ENDSEC
  0
SECTION
  2
CLASSES
  0
CLASS
  1
ACDBDICTIONARYWDFLT
  2
AcDbDictionaryWithDefault
  3
ObjectDBX Classes
 90
        0
 91
        1
280
     0
281
     0
  0
CLASS
  1
MATERIAL
  2
AcDbMaterial
  3
ObjectDBX Classes
 90
     1153
 91
        3
280
     0
281
     0
  0
CLASS
  1
VISUALSTYLE
  2
AcDbVisualStyle
  3
ObjectDBX Classes
 90
     4095
 91
       24
280
     0
281
     0
  0
CLASS
  1
SCALE
  2
AcDbScale
  3
ObjectDBX Classes
 90
     1153
 91
       17
280
     0
281
     0
  0
CLASS
  1
TABLESTYLE
  2
AcDbTableStyle
  3
ObjectDBX Classes
 90
     4095
 91
        1
280
     0
281
     0
  0
CLASS
  1
MLEADERSTYLE
  2
AcDbMLeaderStyle
  3
ACDB_MLEADERSTYLE_CLASS
 90
     4095
 91
        1
280
     0
281
     0
  0
CLASS
  1
ACDBSECTIONVIEWSTYLE
  2
AcDbSectionViewStyle
  3
ObjectDBX Classes
 90
     1025
 91
        1
280
     0
281
     0
  0
CLASS
  1
ACDBDETAILVIEWSTYLE
  2
AcDbDetailViewStyle
  3
ObjectDBX Classes
 90
     1025
 91
        1
280
     0
281
     0
  0
CLASS
  1
EXACXREFPANELOBJECT
  2
ExAcXREFPanelObject
  3
EXAC_ESW
 90
     1025
 91
        1
280
     0
281
     0
  0
CLASS
  1
NPOCOLLECTION
  2
AcDbImpNonPersistentObjectsCollection
  3
ObjectDBX Classes
 90
     1153
 91
        1
280
     0
281
     0
  0
CLASS
  1
DICTIONARYVAR
  2
AcDbDictionaryVar
  3
ObjectDBX Classes
 90
        0
 91
        9
280
     0
281
     0
  0
CLASS
  1
CELLSTYLEMAP
  2
AcDbCellStyleMap
  3
ObjectDBX Classes
 90
     1152
 91
        2
280
     0
281
     0
  0
ENDSEC
  0
SECTION
  2
TABLES
  0
TABLE
  2
VPORT
  5
AE1D
330
0
100
AcDbSymbolTable
 70
     1
  0
VPORT
  5
AE89
330
AE1D
100
AcDbSymbolTableRecord
100
AcDbViewportTableRecord
  2
*ACTIVE
 70
     0
 10
0.0
 20
0.0
 11
1.0
 21
1.0
 12
-273.1736038652461
 22
-23.23618754816425
 13
0.0
 23
0.0
 14
25.0
 24
25.0
 15
100.0
 25
100.0
 16
0.0
 26
0.0
 36
1.0
 17
2057.480935701729
 27
2332.522350104288
 37
0.0
 40
5060.819877358779
 41
2.323640960809102
 42
50.0
 43
0.0
 44
0.0
 50
0.0
 51
0.0
 71
     0
 72
   100
 73
     1
 74
     0
 75
     0
 76
     0
 77
     0
 78
     0
281
     0
 65
     1
110
0.0
120
0.0
130
0.0
111
1.0
121
0.0
131
0.0
112
0.0
122
1.0
132
0.0
 79
     0
146
0.0
348
AE44
 60
     3
 61
     5
292
     1
282
     0
141
0.0
142
0.0
 63
   250
421
  3355443
1001
ACAD_NAV_VCDISPLAY
1070
     3
  0
ENDTAB
  0
TABLE
  2
LTYPE
  5
AE1A
330
0
100
AcDbSymbolTable
 70
     5
  0
LTYPE
  5
AE6F
330
AE1A
100
AcDbSymbolTableRecord
100
AcDbLinetypeTableRecord
  2
ByBlock
 70
     0
  3

 72
    65
 73
     0
 40
0.0
  0
LTYPE
  5
AE70
330
AE1A
100
AcDbSymbolTableRecord
100
AcDbLinetypeTableRecord
  2
ByLayer
 70
     0
  3

 72
    65
 73
     0
 40
0.0
  0
LTYPE
  5
AE71
330
AE1A
100
AcDbSymbolTableRecord
100
AcDbLinetypeTableRecord
  2
CONTINUOUS
 70
     0
  3
Solid line
 72
    65
 73
     0
 40
0.0
  0
LTYPE
  5
AE8A
330
AE1A
100
AcDbSymbolTableRecord
100
AcDbLinetypeTableRecord
  2
PHANTOM2
 70
     0
  3
Phantom (.5x) ___ _ _ ___ _ _ ___ _ _ ___ _ _
 72
    65
 73
     6
 40
1.25
 49
0.625
 74
     0
 49
-0.125
 74
     0
 49
0.125
 74
     0
 49
-0.125
 74
     0
 49
0.125
 74
     0
 49
-0.125
 74
     0
  0
LTYPE
  5
AE8B
330
AE1A
100
AcDbSymbolTableRecord
100
AcDbLinetypeTableRecord
  2
HIDDEN
 70
     0
  3
_ _ _ _ _ _ _ _ _ _ _ _ _ _ _ _ _ _ _ _ _ _ _
 72
    65
 73
     2
 40
0.375
 49
0.25
 74
     0
 49
-0.125
 74
     0
  0
LTYPE
  5
AE8C
330
AE1A
100
AcDbSymbolTableRecord
100
AcDbLinetypeTableRecord
  2
HIDDEN2
 70
     0
  3
Hidden (.5x) _ _ _ _ _ _ _ _ _ _ _ _ _ _ _ _ _
 72
    65
 73
     2
 40
0.1875
 49
0.125
 74
     0
 49
-0.0625
 74
     0
  0
ENDTAB
  0
TABLE
  2
LAYER
  5
AE17
330
0
100
AcDbSymbolTable
 70
     1
  0
LAYER
  5
AE69
102
{ACAD_XDICTIONARY
360
AED9
102
}
330
AE17
100
AcDbSymbolTableRecord
100
AcDbLayerTableRecord
  2
0
 70
     0
 62
     7
  6
CONTINUOUS
370
    -3
390
AE24
347
AE36
348
0
  0
ENDTAB
  0
TABLE
  2
STYLE
  5
AE18
330
0
100
AcDbSymbolTable
 70
     6
  0
STYLE
  5
AE6A
330
AE18
100
AcDbSymbolTableRecord
100
AcDbTextStyleTableRecord
  2
STANDARD
 70
     0
 40
0.0
 41
1.0
 50
0.0
 71
     0
 42
0.2
  3
txt
  4

  0
STYLE
  5
AE6E
330
AE18
100
AcDbSymbolTableRecord
100
AcDbTextStyleTableRecord
  2
ANNOTATIVE
 70
     0
 40
0.0
 41
1.0
 50
0.0
 71
     0
 42
0.2
  3
txt
  4

1001
ACADANNOTATIVE
1000
AnnotativeData
1002
{
1070
     1
1070
     1
1002
}
  0
STYLE
  5
AE88
330
AE18
100
AcDbSymbolTableRecord
100
AcDbTextStyleTableRecord
  2
TITLE3
 70
     0
 40
30.0
 41
1.0
 50
0.0
 71
     0
 42
30.0
  3
SIMPLEX
  4

  0
STYLE
  5
AE8D
330
AE18
100
AcDbSymbolTableRecord
100
AcDbTextStyleTableRecord
  2
TITLE5
 70
     0
 40
50.0
 41
1.0
 50
0.0
 71
     0
 42
50.0
  3
SIMPLEX
  4

  0
STYLE
  5
AE8E
330
AE18
100
AcDbSymbolTableRecord
100
AcDbTextStyleTableRecord
  2
SIMPLEX
 70
     0
 40
30.0
 41
1.0
 50
0.0
 71
     0
 42
25.0
  3
SIMPLEX.shx
  4

  0
STYLE
  5
AE8F
330
AE18
100
AcDbSymbolTableRecord
100
AcDbTextStyleTableRecord
  2
TITLE
 70
     0
 40
60.0
 41
1.0
 50
0.0
 71
     0
 42
60.0
  3
simplex.shx
  4

  0
ENDTAB
  0
TABLE
  2
VIEW
  5
AE1B
330
0
100
AcDbSymbolTable
 70
     0
  0
ENDTAB
  0
TABLE
  2
UCS
  5
AE1C
330
0
100
AcDbSymbolTable
 70
     0
  0
ENDTAB
  0
TABLE
  2
APPID
  5
AE1E
330
0
100
AcDbSymbolTable
 70
    27
  0
APPID
  5
AE6B
330
AE1E
100
AcDbSymbolTableRecord
100
AcDbRegAppTableRecord
  2
ACAD
 70
     0
  0
APPID
  5
AE72
330
AE1E
100
AcDbSymbolTableRecord
100
AcDbRegAppTableRecord
  2
ACADANNOTATIVE
 70
     0
  0
APPID
  5
AE90
330
AE1E
100
AcDbSymbolTableRecord
100
AcDbRegAppTableRecord
  2
ACAD_MLEADERVER
 70
     0
  0
APPID
  5
AE91
330
AE1E
100
AcDbSymbolTableRecord
100
AcDbRegAppTableRecord
  2
GENIUS_GENDIM_13
 70
     0
  0
APPID
  5
AE92
330
AE1E
100
AcDbSymbolTableRecord
100
AcDbRegAppTableRecord
  2
GENIUS_GENDTOL_13
 70
     0
  0
APPID
  5
AE93
330
AE1E
100
AcDbSymbolTableRecord
100
AcDbRegAppTableRecord
  2
GENIUS_GE3DTOL_13
 70
     0
  0
APPID
  5
AE94
330
AE1E
100
AcDbSymbolTableRecord
100
AcDbRegAppTableRecord
  2
MCAD_NO_VIS
 70
     0
  0
APPID
  5
AE95
330
AE1E
100
AcDbSymbolTableRecord
100
AcDbRegAppTableRecord
  2
ACAD_TEMP_GRAPHIC
 70
     0
  0
APPID
  5
AE96
330
AE1E
100
AcDbSymbolTableRecord
100
AcDbRegAppTableRecord
  2
AD_DRAW
 70
     0
  0
APPID
  5
AE97
330
AE1E
100
AcDbSymbolTableRecord
100
AcDbRegAppTableRecord
  2
ACATTRIBSERVICES
 70
     0
  0
APPID
  5
AE98
330
AE1E
100
AcDbSymbolTableRecord
100
AcDbRegAppTableRecord
  2
ASURF_PCURVE_APPNAME
 70
     0
  0
APPID
  5
AE99
330
AE1E
100
AcDbSymbolTableRecord
100
AcDbRegAppTableRecord
  2
AMG_3D2D_5_0
 70
     0
  0
APPID
  5
AE9A
330
AE1E
100
AcDbSymbolTableRecord
100
AcDbRegAppTableRecord
  2
DESIGNERASSEMBLIES
 70
     0
  0
APPID
  5
AE9B
330
AE1E
100
AcDbSymbolTableRecord
100
AcDbRegAppTableRecord
  2
ACADM_DIM_EDIT
 70
     0
  0
APPID
  5
AE9C
330
AE1E
100
AcDbSymbolTableRecord
100
AcDbRegAppTableRecord
  2
AMDT_DM_ADJ
 70
     0
  0
APPID
  5
AE9D
330
AE1E
100
AcDbSymbolTableRecord
100
AcDbRegAppTableRecord
  2
ACAD_PSEXT
 70
     0
  0
APPID
  5
AE9E
330
AE1E
100
AcDbSymbolTableRecord
100
AcDbRegAppTableRecord
  2
AMG_3D2D_5_00
 70
     0
  0
APPID
  5
AE9F
330
AE1E
100
AcDbSymbolTableRecord
100
AcDbRegAppTableRecord
  2
ACAD_EXEMPT_FROM_CAD_STANDARDS
 70
     0
  0
APPID
  5
AEA0
330
AE1E
100
AcDbSymbolTableRecord
100
AcDbRegAppTableRecord
  2
AMG_3D2D_5_01
 70
     0
  0
APPID
  5
AEA1
330
AE1E
100
AcDbSymbolTableRecord
100
AcDbRegAppTableRecord
  2
ACAD_NAV_VCDISPLAY
 70
     0
  0
APPID
  5
AEA2
330
AE1E
100
AcDbSymbolTableRecord
100
AcDbRegAppTableRecord
  2
ACAD_DSTYLE_DIMRADIAL_EXTENSION
 70
     0
  0
APPID
  5
AEA3
330
AE1E
100
AcDbSymbolTableRecord
100
AcDbRegAppTableRecord
  2
ACAD_DSTYLE_DIMBREAK
 70
     0
  0
APPID
  5
AEA4
330
AE1E
100
AcDbSymbolTableRecord
100
AcDbRegAppTableRecord
  2
ACAD_DSTYLE_DIMJAG
 70
     0
  0
APPID
  5
AEA5
330
AE1E
100
AcDbSymbolTableRecord
100
AcDbRegAppTableRecord
  2
GENIUS_GENSCREG_15
 70
     0
  0
APPID
  5
AEA6
330
AE1E
100
AcDbSymbolTableRecord
100
AcDbRegAppTableRecord
  2
GENIUS_GENOBJ-N-SDF_13
 70
     0
  0
APPID
  5
AEA7
330
AE1E
100
AcDbSymbolTableRecord
100
AcDbRegAppTableRecord
  2
GENIUS_GENODEF_13
 70
     0
  0
APPID
  5
AEA8
330
AE1E
100
AcDbSymbolTableRecord
100
AcDbRegAppTableRecord
  2
ACAECLAYERSTANDARD
 70
     0
  0
ENDTAB
  0
TABLE
  2
DIMSTYLE
  5
AE1F
330
0
100
AcDbSymbolTable
 70
     4
100
AcDbDimStyleTable
 71
     1
340
AE6D
  0
DIMSTYLE
105
AE6C
330
AE1F
100
AcDbSymbolTableRecord
100
AcDbDimStyleTableRecord
  2
STANDARD
 70
     0
271
     2
272
     2
279
     2
340
AE88
  0
DIMSTYLE
105
AE6D
330
AE1F
100
AcDbSymbolTableRecord
100
AcDbDimStyleTableRecord
  2
ANNOTATIVE
 70
     0
271
     2
272
     2
279
     2
340
AE88
1001
ACADANNOTATIVE
1000
AnnotativeData
1002
{
1070
     1
1070
     1
1002
}
  0
DIMSTYLE
105
AEA9
330
AE1F
100
AcDbSymbolTableRecord
100
AcDbDimStyleTableRecord
  2
AM_ANSI
 70
     0
  4
mm
 41
0.12
 42
0.05
 43
0.5
 44
0.1
 47
0.1
 48
0.1
 78
     7
140
0.12
141
0.0
146
0.71
147
0.06
176
   256
177
   256
178
     2
271
     2
272
     2
279
     2
340
AE88
  0
ENDTAB
  0
TABLE
  2
BLOCK_RECORD
  5
AE16
330
0
100
AcDbSymbolTable
 70
     3
  0
BLOCK_RECORD
  5
AE84
330
AE16
100
AcDbSymbolTableRecord
100
AcDbBlockTableRecord
  2
*Model_Space
340
AE87
 70
     0
280
     1
281
     0
  0
BLOCK_RECORD
  5
AE80
330
AE16
100
AcDbSymbolTableRecord
100
AcDbBlockTableRecord
  2
*Paper_Space
340
AE83
 70
     0
280
     1
281
     0
  0
BLOCK_RECORD
  5
AEAC
330
AE16
100
AcDbSymbolTableRecord
100
AcDbBlockTableRecord
  2
$MODEL_SPACE
340
0
 70
     0
280
     1
281
     0
  0
BLOCK_RECORD
  5
AEAE
330
AE16
100
AcDbSymbolTableRecord
100
AcDbBlockTableRecord
  2
$PAPER_SPACE
340
0
 70
     0
280
     1
281
     0
  0
ENDTAB
  0
ENDSEC
  0
SECTION
  2
BLOCKS
  0
BLOCK
  5
AE85
330
AE84
100
AcDbEntity
  8
0
100
AcDbBlockBegin
  2
*Model_Space
 70
     0
 10
0.0
 20
0.0
 30
0.0
  3
*Model_Space
  1

  0
ENDBLK
  5
AE86
330
AE84
100
AcDbEntity
  8
0
100
AcDbBlockEnd
  0
BLOCK
  5
AE81
330
AE80
100
AcDbEntity
 67
     1
  8
0
100
AcDbBlockBegin
  2
*Paper_Space
 70
     0
 10
0.0
 20
0.0
 30
0.0
  3
*Paper_Space
  1

  0
ENDBLK
  5
AE82
330
AE80
100
AcDbEntity
 67
     1
  8
0
100
AcDbBlockEnd
  0
BLOCK
  5
AEAD
330
AEAC
100
AcDbEntity
  8
0
100
AcDbBlockBegin
  2
$MODEL_SPACE
 70
     0
 10
0.0
 20
0.0
 30
0.0
  3
$MODEL_SPACE
  1

  0
ENDBLK
  5
AD82
330
AEAC
100
AcDbEntity
  8
0
100
AcDbBlockEnd
  0
BLOCK
  5
AEAF
330
AEAE
100
AcDbEntity
  8
0
100
AcDbBlockBegin
  2
$PAPER_SPACE
 70
     0
 10
0.0
 20
0.0
 30
0.0
  3
$PAPER_SPACE
  1

  0
ENDBLK
  5
AD7E
330
AEAE
100
AcDbEntity
  8
0
100
AcDbBlockEnd
  0
ENDSEC
  0
SECTION
  2
ENTITIES
  0
LINE
  5
8200
330
AE84
100
AcDbEntity
  8
0
 62
     7
100
AcDbLine
 10
-482.5073820823073
 20
-202.0215522544402
 30
0.0
 11
4051.121982417341
 21
-202.0215522544396
 31
0.0
  0
LINE
  5
8201
330
AE84
100
AcDbEntity
  8
0
 62
     7
100
AcDbLine
 10
4051.12198241734
 20
-202.0215522544396
 30
0.0
 11
4051.12198241734
 21
4820.593807197276
 31
0.0
  0
LINE
  5
8203
330
AE84
100
AcDbEntity
  8
0
 62
     7
100
AcDbLine
 10
-482.5073820823073
 20
4820.593807197276
 30
0.0
 11
-482.5073820823073
 21
-202.0215522544402
 31
0.0
  0
TEXT
  5
8205
330
AE84
100
AcDbEntity
  8
0
 62
     7
100
AcDbText
 10
1932.295809670212
 20
3015.037381343918
 30
0.0
 40
30.0
  1
2000 min CLEARANCE
  7
TITLE3
100
AcDbText
  0
LINE
  5
8212
330
AE84
100
AcDbEntity
  8
0
 62
     7
100
AcDbLine
 10
1522.496205460893
 20
-35.93134345226508
 30
0.0
 11
1606.496205460891
 21
-35.93134345226508
 31
0.0
  0
SOLID
  5
8232
330
AE84
100
AcDbEntity
  8
0
 62
     7
100
AcDbTrace
 10
2577.904431202138
 20
4674.070889713912
 30
0.0
 11
2586.904431202138
 21
4620.070889713912
 31
0.0
 12
2595.904431202138
 22
4674.070889713912
 32
0.0
 13
2595.904431202138
 23
4674.070889713912
 33
0.0
1001
ACAD
1000
DSTYLE
1002
{
1070
    41
1040
60.0
1070
    42
1040
40.0
1070
    44
1040
40.0
1070
    73
1070
     0
1070
    74
1070
     0
1070
   140
1040
60.0
1070
   147
1040
40.0
1070
   176
1070
    52
1070
   177
1070
    52
1070
   178
1070
    50
1070
   179
1070
     2
1070
   271
1070
     2
1070
   272
1070
     2
1070
   279
1070
     2
1070
   340
1005
FC6
1002
}
  0
LINE
  5
8233
330
AE84
100
AcDbEntity
  8
0
 62
     7
100
AcDbLine
 10
1636.446205460892
 20
3783.390952834255
 30
0.0
 11
1636.446205460892
 21
3809.390952834256
 31
0.0
  0
LINE
  5
8234
330
AE84
100
AcDbEntity
  8
0
 62
     7
100
AcDbLine
 10
1506.54620546089
 20
3783.390952834255
 30
0.0
 11
1506.54620546089
 21
3809.390952834255
 31
0.0
  0
LINE
  5
8235
330
AE84
100
AcDbEntity
  8
0
 62
     7
100
AcDbLine
 10
1506.54620546089
 20
3783.390952834255
 30
0.0
 11
1636.446205460892
 21
3783.390952834255
 31
0.0
  0
LINE
  5
8237
330
AE84
100
AcDbEntity
  8
0
 62
     7
100
AcDbLine
 10
-302.7342695255072
 20
3779.690952834255
 30
0.0
 11
-302.7342695255076
 21
4619.690952834255
 31
0.0
  0
LINE
  5
8238
330
AE84
100
AcDbEntity
  8
0
 62
     7
100
AcDbLine
 10
-282.7842695255064
 20
4590.540952834254
 30
0.0
 11
-269.7342695255047
 21
4590.540952834254
 31
0.0
  0
LINE
  5
823C
330
AE84
100
AcDbEntity
  8
0
 62
     7
100
AcDbLine
 10
-282.7842695255064
 20
4590.540952834254
 30
0.0
 11
-282.7842695255064
 21
4598.440952834255
 31
0.0
  0
LINE
  5
823E
330
AE84
100
AcDbEntity
  8
0
 62
     7
100
AcDbLine
 10
-282.7842695255064
 20
3808.390952834255
 30
0.0
 11
-269.7342695255047
 21
3808.390952834255
 31
0.0
  0
LINE
  5
8242
330
AE84
100
AcDbEntity
  8
0
 62
     7
100
AcDbLine
 10
-282.7842695255064
 20
3808.390952834255
 30
0.0
 11
-282.7842695255064
 21
3800.940952834255
 31
0.0
  0
LINE
  5
8243
330
AE84
100
AcDbEntity
  8
0
 62
     7
100
AcDbLine
 10
-302.7342695255072
 20
3779.690952834255
 30
0.0
 11
-301.5342695255084
 21
3779.690952834255
 31
0.0
  0
LINE
  5
8244
330
AE84
100
AcDbEntity
  8
0
 62
     7
100
AcDbLine
 10
-301.5342695255084
 20
3779.690952834255
 30
0.0
 11
-282.7842695255064
 21
3800.940952834255
 31
0.0
  0
LINE
  5
824E
330
AE84
100
AcDbEntity
  8
0
 62
     7
100
AcDbLine
 10
1360.496205460893
 20
1287.068656547735
 30
0.0
 11
1360.496205460893
 21
-2.93134345226477
 31
0.0
  0
LINE
  5
824F
330
AE84
100
AcDbEntity
  8
0
 62
     7
100
AcDbLine
 10
2956.496205460889
 20
-2.931343452264994
 30
0.0
 11
1360.496205460893
 21
-2.93134345226477
 31
0.0
  0
LINE
  5
8250
330
AE84
100
AcDbEntity
  8
0
 62
     7
100
AcDbLine
 10
2956.496205460893
 20
1287.068656547735
 30
0.0
 11
2956.496205460889
 21
-2.93134345226508
 31
0.0
  0
LINE
  5
8255
330
AE84
100
AcDbEntity
  8
0
 62
     7
100
AcDbLine
 10
1020.265730474492
 20
4591.190952834255
 30
0.0
 11
-269.7342695255047
 21
4591.190952834259
 31
0.0
  0
LINE
  5
8256
330
AE84
100
AcDbEntity
  8
0
 62
     7
100
AcDbLine
 10
1020.265730474492
 20
3808.190952834255
 30
0.0
 11
-269.7342695255047
 21
3808.190952834255
 31
0.0
  0
LINE
  5
8257
330
AE84
100
AcDbEntity
  8
0
 62
     7
100
AcDbLine
 10
-269.7342695255047
 20
4591.190952834259
 30
0.0
 11
-269.7342695255047
 21
3808.190952834255
 31
0.0
  0
LINE
  5
8258
330
AE84
100
AcDbEntity
  8
0
 62
     7
100
AcDbLine
 10
2957.496205460893
 20
4592.390952834255
 30
0.0
 11
2957.496205460893
 21
3809.390952834255
 31
0.0
  0
LINE
  5
8259
330
AE84
100
AcDbEntity
  8
0
 62
     7
100
AcDbLine
 10
1359.496205460893
 20
4592.390952834254
 30
0.0
 11
1359.496205460893
 21
3809.390952834255
 31
0.0
  0
LINE
  5
825A
330
AE84
100
AcDbEntity
  8
0
 62
     7
100
AcDbLine
 10
1359.496205460893
 20
3809.390952834255
 30
0.0
 11
2957.496205460893
 21
3809.390952834255
 31
0.0
  0
LINE
  5
825B
330
AE84
100
AcDbEntity
  8
0
 62
     7
100
AcDbLine
 10
2957.496205460893
 20
4592.390952834255
 30
0.0
 11
1359.496205460893
 21
4592.390952834254
 31
0.0
  0
LINE
  5
825E
330
AE84
100
AcDbEntity
  8
0
 62
     7
100
AcDbLine
 10
1360.496205460893
 20
1287.068656547735
 30
0.0
 11
2956.496205460893
 21
1287.068656547735
 31
0.0
  0
LINE
  5
8260
330
AE84
100
AcDbEntity
  8
0
 62
     7
100
AcDbLine
 10
1020.265730474492
 20
4591.190952834255
 30
0.0
 11
1020.265730474492
 21
3808.190952834255
 31
0.0
  0
LINE
  5
8274
330
AE84
100
AcDbEntity
  8
0
  6
PHANTOM2
 62
     7
100
AcDbLine
 10
1360.496205460893
 20
1312.068656547735
 30
0.0
 11
1360.496205460893
 21
3087.068656547735
 31
0.0
  0
LINE
  5
8275
330
AE84
100
AcDbEntity
  8
0
  6
PHANTOM2
 62
     7
100
AcDbLine
 10
2956.496205460893
 20
1312.068656547733
 30
0.0
 11
2956.496205460893
 21
3087.068656547735
 31
0.0
  0
TEXT
  5
8276
330
AE84
100
AcDbEntity
  8
0
 62
     7
100
AcDbText
 10
1851.625368306042
 20
523.6250288078001
 30
0.0
 40
56.25
  1
OSA324RKTGV
  7
TITLE5
 72
     1
 11
2147.607511163185
 21
523.6250288078001
 31
0.0
100
AcDbText
  0
SOLID
  5
827E
330
AE84
100
AcDbEntity
  8
0
 62
     7
100
AcDbTrace
 10
2296.746184751114
 20
1509.406468279174
 30
0.0
 11
2271.746184751113
 21
1659.406468279173
 31
0.0
 12
2246.746184751112
 22
1509.406468279174
 32
0.0
 13
2246.746184751112
 23
1509.406468279174
 33
0.0
1001
ACAD
1000
DSTYLE
1002
{
1070
    41
1040
60.0
1070
    42
1040
40.0
1070
    44
1040
40.0
1070
    73
1070
     0
1070
    74
1070
     0
1070
   140
1040
60.0
1070
   147
1040
40.0
1070
   176
1070
    52
1070
   177
1070
    52
1070
   178
1070
    50
1070
   179
1070
     2
1070
   271
1070
     2
1070
   272
1070
     2
1070
   279
1070
     2
1070
   340
1005
FC6
1002
}
  0
TEXT
  5
8283
330
AE84
100
AcDbEntity
  8
0
 62
     7
100
AcDbText
 10
1083.782377823118
 20
4073.503281100895
 30
0.0
 40
30.0
  1
CLEARANCE
 50
90.0
  7
TITLE3
100
AcDbText
  0
TEXT
  5
8284
330
AE84
100
AcDbEntity
  8
0
 62
     7
100
AcDbText
 10
1265.304198919373
 20
4108.862804410237
 30
0.0
 40
30.0
  1
150 min
 50
90.0
  7
TITLE3
100
AcDbText
  0
TEXT
  5
8285
330
AE84
100
AcDbEntity
  8
0
 62
     7
100
AcDbText
 10
1947.788190066779
 20
3250.076795043173
 30
0.0
 40
30.0
  1
750 min CLEARANCE
  7
TITLE3
100
AcDbText
  0
TEXT
  5
8286
330
AE84
100
AcDbEntity
  8
0
 62
     7
100
AcDbText
 10
3927.432448523047
 20
4071.9160992334
 30
0.0
 40
30.0
  1
CLEARANCE
 50
90.0
  7
TITLE3
100
AcDbText
  0
TEXT
  5
8287
330
AE84
100
AcDbEntity
  8
0
 62
     7
100
AcDbText
 10
-12.62848273199171
 20
4202.950672344389
 30
0.0
 40
56.25
  1
OSA324RKTGV
  7
TITLE5
 72
     1
 11
283.3536601251511
 21
4202.950672344389
 31
0.0
100
AcDbText
  0
TEXT
  5
8288
330
AE84
100
AcDbEntity
  8
0
 62
     7
100
AcDbText
 10
1805.941990927509
 20
4300.234928784925
 30
0.0
 40
56.25
  1
OSA
  7
TITLE5
 72
     1
 11
1883.620562356081
 21
4300.234928784925
 31
0.0
100
AcDbText
  0
TEXT
  5
828A
330
AE84
100
AcDbEntity
  8
0
 62
     7
100
AcDbText
 10
1946.403919032692
 20
4692.012001090922
 30
0.0
 40
30.0
  1
150 min CLEARANCE
  7
TITLE3
100
AcDbText
  0
LINE
  5
828B
330
AE84
100
AcDbEntity
  8
0
  6
HIDDEN2
 62
     7
100
AcDbLine
 10
1642.429821526261
 20
4530.734411731073
 30
0.0
 11
2699.22982152626
 21
4530.734411731073
 31
0.0
  0
LINE
  5
828C
330
AE84
100
AcDbEntity
  8
0
  6
HIDDEN2
 62
     7
100
AcDbLine
 10
1642.429821526261
 20
4585.734411731075
 30
0.0
 11
2699.229821526264
 21
4585.734411731075
 31
0.0
  0
ARC
  5
828D
330
AE84
100
AcDbEntity
  8
0
  6
HIDDEN2
 62
     7
100
AcDbCircle
 10
1642.429821526262
 20
4330.734411731078
 30
0.0
 40
255.0
100
AcDbArc
 50
90.0
 51
180.0
  0
ARC
  5
828E
330
AE84
100
AcDbEntity
  8
0
  6
HIDDEN2
 62
     7
100
AcDbCircle
 10
1642.429821526262
 20
4330.734411731078
 30
0.0
 40
200.0
100
AcDbArc
 50
90.0
 51
180.0
  0
LINE
  5
828F
330
AE84
100
AcDbEntity
  8
0
  6
HIDDEN2
 62
     7
100
AcDbLine
 10
1442.429821526261
 20
3859.734411731072
 30
0.0
 11
1442.429821526261
 21
4330.734411731078
 31
0.0
  0
LINE
  5
8290
330
AE84
100
AcDbEntity
  8
0
  6
HIDDEN2
 62
     7
100
AcDbLine
 10
1387.429821526259
 20
4330.734411731078
 30
0.0
 11
1387.429821526259
 21
3858.534411731073
 31
0.0
  0
LINE
  5
8291
330
AE84
100
AcDbEntity
  8
0
  6
HIDDEN2
 62
     7
100
AcDbLine
 10
1442.429821526261
 20
3858.534411731073
 30
0.0
 11
1387.429821526259
 21
3858.534411731073
 31
0.0
  0
LINE
  5
8292
330
AE84
100
AcDbEntity
  8
0
  6
HIDDEN
 62
     7
100
AcDbLine
 10
1398.813932954188
 20
4557.590952834249
 30
0.0
 11
1398.813932954188
 21
4556.390952834251
 31
0.0
  0
LINE
  5
8293
330
AE84
100
AcDbEntity
  8
0
  6
HIDDEN
 62
     7
100
AcDbLine
 10
2699.229821526264
 20
4530.734411731073
 30
0.0
 11
2699.229821526264
 21
4585.734411731075
 31
0.0
  0
TEXT
  5
8295
330
AE84
100
AcDbEntity
  8
0
 62
     7
100
AcDbText
 10
3868.786822720507
 20
4111.789908257033
 30
0.0
 40
30.0
  1
1000 min
 50
90.0
  7
TITLE3
100
AcDbText
  0
TEXT
  5
8430
330
AE84
100
AcDbEntity
  8
0
 62
     7
100
AcDbText
 10
-432.6425776166646
 20
148.9748278020899
 30
0.0
 40
61.0
  1
temperzone OSA 324RKTGV
  7
TITLE5
 72
     1
 11
212.2145652404782
 21
148.9748278020899
 31
0.0
100
AcDbText
  0
TEXT
  5
8431
330
AE84
100
AcDbEntity
  8
0
 62
     7
100
AcDbText
 10
-270.0073820823076
 20
-114.5215522544401
 30
0.0
 40
37.5
  1
OSA324RKTGV
 41
0.9185520361990958
  7
TITLE3
 72
     5
 11
92.49261791769276
 21
-114.5215522544401
 31
0.0
100
AcDbText
  0
TEXT
  5
8432
330
AE84
100
AcDbEntity
  8
0
 62
     7
100
AcDbText
 10
406.2458489514358
 20
-68.25394454491089
 30
0.0
 40
37.5
  1
27-07-15
 41
0.6913580246913588
  7
TITLE3
 72
     5
 11
606.245848951436
 21
-68.25394454491089
 31
0.0
100
AcDbText
  0
TEXT
  5
8433
330
AE84
100
AcDbEntity
  8
0
 62
     7
100
AcDbText
 10
670.7520487197301
 20
-63.4825349293141
 30
0.0
 40
30.0
  1
: Date
  7
SIMPLEX
100
AcDbText
  0
TEXT
  5
8434
330
AE84
100
AcDbEntity
  8
0
 62
     7
100
AcDbText
 10
-434.3359745836383
 20
-40.14242472517617
 30
0.0
 40
30.0
  1
Revision
 41
0.7812095035934832
  7
SIMPLEX
 72
     5
 11
-302.6463725493083
 21
-40.14242472517617
 31
0.0
100
AcDbText
  0
LINE
  5
8435
330
AE84
100
AcDbEntity
  8
0
 62
     7
100
AcDbLine
 10
-288.1215695700045
 20
-175.9684361940437
 30
0.0
 11
-288.1215695700045
 21
8.314267381242697
 31
0.0
  0
LINE
  5
8436
330
AE84
100
AcDbEntity
  8
0
 62
     7
100
AcDbLine
 10
879.2745478978025
 20
231.2779438624862
 30
0.0
 11
879.2745478978025
 21
-175.9684361940437
 31
0.0
  0
LINE
  5
8437
330
AE84
100
AcDbEntity
  8
0
 62
     7
100
AcDbLine
 10
108.8505204013259
 20
-175.9684361940437
 30
0.0
 11
108.8505204013259
 21
8.314267381242697
 31
0.0
  0
LINE
  5
8438
330
AE84
100
AcDbEntity
  8
0
 62
     7
100
AcDbLine
 10
108.8505204013259
 20
-85.38080316761048
 30
0.0
 11
879.2745478978025
 21
-85.38080316761048
 31
0.0
  0
LINE
  5
8439
330
AE84
100
AcDbEntity
  8
0
 62
     7
100
AcDbLine
 10
-446.9767136296081
 20
8.314267381242697
 30
0.0
 11
879.2745478978025
 21
8.314267381242697
 31
0.0
  0
LINE
  5
843A
330
AE84
100
AcDbEntity
  8
0
 62
     7
100
AcDbLine
 10
879.2745478978025
 20
-175.9684361940437
 30
0.0
 11
-446.6048296566714
 21
-175.9684361940437
 31
0.0
  0
LINE
  5
843B
330
AE84
100
AcDbEntity
  8
0
 62
     7
100
AcDbLine
 10
-446.6048296566714
 20
-175.9684361940437
 30
0.0
 11
-446.6048296566714
 21
231.2779438624862
 31
0.0
  0
LINE
  5
843C
330
AE84
100
AcDbEntity
  8
0
 62
     7
100
AcDbLine
 10
-446.6048296566714
 20
231.2779438624862
 30
0.0
 11
879.2745478978025
 21
231.2779438624862
 31
0.0
  0
TEXT
  5
843D
330
AE84
100
AcDbEntity
  8
0
 62
     7
100
AcDbText
 10
672.022362644796
 20
-142.118442172743
 30
0.0
 40
25.0
  1
: Scale
 41
1.167301397240683
  7
SIMPLEX
 72
     5
 11
826.2729044230292
 21
-142.118442172743
 31
0.0
100
AcDbText
  0
TEXT
  5
843E
330
AE84
100
AcDbEntity
  8
0
 62
     7
100
AcDbText
 10
-181.4384294404465
 20
-40.90476287105332
 30
0.0
 40
25.0
  1
Drawing No.
  7
SIMPLEX
 72
     2
 11
36.4187134166963
 21
-40.90476287105332
 31
0.0
100
AcDbText
  0
LINE
  5
85ED
330
AE84
100
AcDbEntity
  8
0
 62
     7
100
AcDbLine
 10
2271.746184751113
 20
1508.622599002373
 30
0.0
 11
2271.746184751113
 21
1387.173304747926
 31
0.0
1001
ACAD
1000
DSTYLE
1002
{
1070
    41
1040
60.0
1070
    42
1040
40.0
1070
    44
1040
40.0
1070
    73
1070
     0
1070
    74
1070
     0
1070
   140
1040
60.0
1070
   147
1040
40.0
1070
   176
1070
    52
1070
   177
1070
    52
1070
   178
1070
    50
1070
   179
1070
     2
1070
   271
1070
     2
1070
   272
1070
     2
1070
   279
1070
     2
1070
   340
1005
FC6
1002
}
  0
TEXT
  5
85EF
330
AE84
100
AcDbEntity
  8
0
 62
     7
100
AcDbText
 10
2017.123039558956
 20
1524.499697955095
 30
0.0
 40
60.0
  1
AIR
  7
TITLE
100
AcDbText
  0
TEXT
  5
85F0
330
AE84
100
AcDbEntity
  8
0
 62
     7
100
AcDbText
 10
1969.980182416101
 20
1424.499697955095
 30
0.0
 40
60.0
  1
FLOW
  7
TITLE
100
AcDbText
  0
LINE
  5
85F1
330
AE84
100
AcDbEntity
  8
0
 62
     7
100
AcDbLine
 10
2586.904431202138
 20
4674.353082653563
 30
0.0
 11
2586.904431202138
 21
4718.074828585163
 31
0.0
1001
ACAD
1000
DSTYLE
1002
{
1070
    41
1040
60.0
1070
    42
1040
40.0
1070
    44
1040
40.0
1070
    73
1070
     0
1070
    74
1070
     0
1070
   140
1040
60.0
1070
   147
1040
40.0
1070
   176
1070
    52
1070
   177
1070
    52
1070
   178
1070
    50
1070
   179
1070
     2
1070
   271
1070
     2
1070
   272
1070
     2
1070
   279
1070
     2
1070
   340
1005
FC6
1002
}
  0
TEXT
  5
85F4
330
AE84
100
AcDbEntity
  8
0
 62
     7
100
AcDbText
 10
-442.166531476969
 20
300.6041013234358
 30
0.0
 40
31.25
  1
available on request
  7
TITLE3
100
AcDbText
  0
TEXT
  5
85F5
330
AE84
100
AcDbEntity
  8
0
 62
     7
100
AcDbText
 10
-442.166531476969
 20
354.1755298948643
 30
0.0
 40
31.25
  1
Certified dimensions
  7
TITLE3
100
AcDbText
  0
TEXT
  5
85F6
330
AE84
100
AcDbEntity
  8
0
 62
     7
100
AcDbText
 10
-442.166531476969
 20
407.7469584662928
 30
0.0
 40
31.25
  1
without notice or obligation.
  7
TITLE3
100
AcDbText
  0
TEXT
  5
85F7
330
AE84
100
AcDbEntity
  8
0
 62
     7
100
AcDbText
 10
-442.166531476969
 20
461.3183870377214
 30
0.0
 40
31.25
  1
specifications at any time
  7
TITLE3
100
AcDbText
  0
TEXT
  5
85F8
330
AE84
100
AcDbEntity
  8
0
 62
     7
100
AcDbText
 10
-442.166531476969
 20
514.8898156091497
 30
0.0
 40
31.25
  1
the right to change 
  7
TITLE3
100
AcDbText
  0
TEXT
  5
85F9
330
AE84
100
AcDbEntity
  8
0
 62
     7
100
AcDbText
 10
-442.166531476969
 20
622.0326727520061
 30
0.0
 40
31.25
  1
NOTE
  7
TITLE3
100
AcDbText
  0
TEXT
  5
85FA
330
AE84
100
AcDbEntity
  8
0
 62
     7
100
AcDbText
 10
-442.166531476969
 20
568.4612441805779
 30
0.0
 40
31.25
  1
The manufacturer reserves
  7
TITLE3
100
AcDbText
  0
TEXT
  5
862B
330
AE84
100
AcDbEntity
  8
0
 62
     7
100
AcDbText
 10
1673.352705213224
 20
4222.150242010529
 30
0.0
 40
56.25
  1
324RKTGV
  7
TITLE5
 72
     1
 11
1883.620562356081
 21
4222.150242010529
 31
0.0
100
AcDbText
  0
LINE
  5
8666
330
AE84
100
AcDbEntity
  8
0
 62
     7
100
AcDbLine
 10
1522.496205460893
 20
-35.93134345226508
 30
0.0
 11
1496.996205460891
 21
-2.931343452264994
 31
0.0
  0
LINE
  5
8667
330
AE84
100
AcDbEntity
  8
0
 62
     7
100
AcDbLine
 10
1606.496205460891
 20
-35.93134345226508
 30
0.0
 11
1631.996205460891
 21
-2.931343452264994
 31
0.0
  0
LINE
  5
866B
330
AE84
100
AcDbEntity
  8
0
 62
     7
100
AcDbLine
 10
2795.496205460891
 20
-35.93134345226508
 30
0.0
 11
2711.496205460893
 21
-35.93134345226508
 31
0.0
  0
LINE
  5
866F
330
AE84
100
AcDbEntity
  8
0
 62
     7
100
AcDbLine
 10
2795.496205460891
 20
-35.93134345226508
 30
0.0
 11
2820.996205460891
 21
-2.931343452264994
 31
0.0
  0
LINE
  5
8670
330
AE84
100
AcDbEntity
  8
0
 62
     7
100
AcDbLine
 10
2711.496205460893
 20
-35.93134345226508
 30
0.0
 11
2685.996205460891
 21
-2.931343452264994
 31
0.0
  0
LINE
  5
86BB
330
AE84
100
AcDbEntity
  8
0
 62
     7
100
AcDbLine
 10
1360.496205460893
 20
-22.93134345226497
 30
0.0
 11
1360.496205460893
 21
-170.5458262314059
 31
0.0
  0
LINE
  5
86BC
330
AE84
100
AcDbEntity
  8
0
 62
     7
100
AcDbLine
 10
2955.496205460888
 20
-22.9313434522652
 30
0.0
 11
2955.496205460888
 21
-170.5458262314061
 31
0.0
  0
LINE
  5
86BD
330
AE84
100
AcDbEntity
  8
0
 62
     7
100
AcDbLine
 10
1390.496205460893
 20
-150.5458262314057
 30
0.0
 11
2036.454551897195
 21
-150.5458262314059
 31
0.0
  0
LINE
  5
86BE
330
AE84
100
AcDbEntity
  8
0
 62
     7
100
AcDbLine
 10
2925.496205460886
 20
-150.5458262314059
 30
0.0
 11
2273.891878850673
 21
-150.5458262314059
 31
0.0
  0
SOLID
  5
86BF
330
AE84
100
AcDbEntity
  8
0
 62
     7
100
AcDbTrace
 10
1390.496205460893
 20
-145.5458262314059
 30
0.0
 11
1390.496205460893
 21
-155.5458262314058
 31
0.0
 12
1360.496205460893
 22
-150.5458262314057
 32
0.0
 13
1360.496205460893
 23
-150.5458262314057
 33
0.0
  0
SOLID
  5
86C0
330
AE84
100
AcDbEntity
  8
0
 62
     7
100
AcDbTrace
 10
2925.496205460886
 20
-145.5458262314062
 30
0.0
 11
2925.496205460886
 21
-155.5458262314059
 31
0.0
 12
2955.496205460888
 22
-150.5458262314059
 32
0.0
 13
2955.496205460888
 23
-150.5458262314059
 33
0.0
  0
LINE
  5
86C2
330
AE84
100
AcDbEntity
  8
0
 62
     7
100
AcDbLine
 10
1564.496205460892
 20
-65.93134345226499
 30
0.0
 11
1564.496205460892
 21
-108.5583453813052
 31
0.0
  0
LINE
  5
86C3
330
AE84
100
AcDbEntity
  8
0
 62
     7
100
AcDbLine
 10
2753.496205460891
 20
-65.93134345226508
 30
0.0
 11
2753.496205460891
 21
-108.5583453813053
 31
0.0
  0
LINE
  5
86C4
330
AE84
100
AcDbEntity
  8
0
 62
     7
100
AcDbLine
 10
1594.496205460893
 20
-88.55834538130521
 30
0.0
 11
2023.739211725799
 21
-88.55834538130521
 31
0.0
  0
LINE
  5
86C5
330
AE84
100
AcDbEntity
  8
0
 62
     7
100
AcDbLine
 10
2723.496205460891
 20
-88.55834538130528
 30
0.0
 11
2283.739211725799
 21
-88.55834538130521
 31
0.0
  0
SOLID
  5
86C6
330
AE84
100
AcDbEntity
  8
0
 62
     7
100
AcDbTrace
 10
1594.496205460893
 20
-83.55834538130521
 30
0.0
 11
1594.496205460893
 21
-93.55834538130521
 31
0.0
 12
1564.496205460892
 22
-88.55834538130521
 32
0.0
 13
1564.496205460892
 23
-88.55834538130521
 33
0.0
  0
SOLID
  5
86C7
330
AE84
100
AcDbEntity
  8
0
 62
     7
100
AcDbTrace
 10
2723.496205460891
 20
-83.55834538130528
 30
0.0
 11
2723.496205460891
 21
-93.55834538130531
 31
0.0
 12
2753.496205460891
 22
-88.55834538130528
 32
0.0
 13
2753.496205460891
 23
-88.55834538130528
 33
0.0
  0
LINE
  5
86C9
330
AE84
100
AcDbEntity
  8
0
 62
     7
100
AcDbLine
 10
1499.358307432693
 20
1299.868656547736
 30
0.0
 11
1163.103917982818
 21
1299.868656547735
 31
0.0
  0
LINE
  5
86CA
330
AE84
100
AcDbEntity
  8
0
 62
     7
100
AcDbLine
 10
1447.496205460891
 20
-37.13134345226399
 30
0.0
 11
1163.103917982818
 21
-37.13134345226356
 31
0.0
  0
LINE
  5
86CB
330
AE84
100
AcDbEntity
  8
0
 62
     7
100
AcDbLine
 10
1238.10391798282
 20
1271.068656547734
 30
0.0
 11
1238.103917982817
 21
756.3276817130763
 31
0.0
  0
LINE
  5
86CC
330
AE84
100
AcDbEntity
  8
0
 62
     7
100
AcDbLine
 10
1238.103917982817
 20
-5.931343452264652
 30
0.0
 11
1238.103917982817
 21
516.3276817130764
 31
0.0
  0
SOLID
  5
86CD
330
AE84
100
AcDbEntity
  8
0
 62
     7
100
AcDbTrace
 10
1233.10391798282
 20
1271.068656547734
 30
0.0
 11
1243.10391798282
 21
1271.068656547734
 31
0.0
 12
1238.10391798282
 22
1301.068656547734
 32
0.0
 13
1238.10391798282
 23
1301.068656547734
 33
0.0
  0
SOLID
  5
86CE
330
AE84
100
AcDbEntity
  8
0
 62
     7
100
AcDbTrace
 10
1233.103917982816
 20
-5.931343452264652
 30
0.0
 11
1243.10391798282
 21
-5.931343452264652
 31
0.0
 12
1238.103917982817
 22
-35.93134345226465
 32
0.0
 13
1238.103917982817
 23
-35.93134345226465
 33
0.0
  0
CIRCLE
  5
86F4
330
AE84
100
AcDbEntity
  8
0
100
AcDbCircle
 10
1880.496205460891
 20
4222.390952834255
 30
0.0
 40
292.5
  0
CIRCLE
  5
86F5
330
AE84
100
AcDbEntity
  8
0
100
AcDbCircle
 10
2544.496205460891
 20
4222.390952834255
 30
0.0
 40
292.5
  0
LINE
  5
871B
330
AE84
100
AcDbEntity
  8
0
 62
     7
100
AcDbLine
 10
1061.605378889706
 20
4591.190952834255
 30
0.0
 11
1134.667656614904
 21
4591.190952834255
 31
0.0
  0
LINE
  5
871C
330
AE84
100
AcDbEntity
  8
0
 62
     7
100
AcDbLine
 10
1061.605378889706
 20
3808.190952834255
 30
0.0
 11
1134.667656614904
 21
3808.190952834255
 31
0.0
  0
LINE
  5
871D
330
AE84
100
AcDbEntity
  8
0
 62
     7
100
AcDbLine
 10
1104.703799826374
 20
4561.190952834254
 30
0.0
 11
1104.703799826374
 21
4256.38205142201
 31
0.0
  0
LINE
  5
871E
330
AE84
100
AcDbEntity
  8
0
 62
     7
100
AcDbLine
 10
1104.703799826374
 20
3838.190952834255
 30
0.0
 11
1104.703799826374
 21
4159.708331091191
 31
0.0
  0
SOLID
  5
871F
330
AE84
100
AcDbEntity
  8
0
 62
     7
100
AcDbTrace
 10
1099.703799826374
 20
4561.190952834254
 30
0.0
 11
1109.703799826372
 21
4561.190952834254
 31
0.0
 12
1104.703799826374
 22
4591.190952834255
 32
0.0
 13
1104.703799826374
 23
4591.190952834255
 33
0.0
  0
SOLID
  5
8720
330
AE84
100
AcDbEntity
  8
0
 62
     7
100
AcDbTrace
 10
1099.703799826374
 20
3838.190952834255
 30
0.0
 11
1109.703799826372
 21
3838.190952834255
 31
0.0
 12
1104.703799826374
 22
3808.190952834255
 32
0.0
 13
1104.703799826374
 23
3808.190952834255
 33
0.0
  0
LINE
  5
8722
330
AE84
100
AcDbEntity
  8
0
 62
     7
100
AcDbLine
 10
-327.7342695255076
 20
4619.690952834258
 30
0.0
 11
-457.0038069989106
 21
4619.690952834258
 31
0.0
  0
LINE
  5
8723
330
AE84
100
AcDbEntity
  8
0
 62
     7
100
AcDbLine
 10
-327.7342695255072
 20
3779.690952834255
 30
0.0
 11
-457.0038069989106
 21
3779.690952834255
 31
0.0
  0
LINE
  5
8724
330
AE84
100
AcDbEntity
  8
0
 62
     7
100
AcDbLine
 10
-437.0038069989106
 20
4589.690952834257
 30
0.0
 11
-437.0038069989106
 21
4314.75891211588
 31
0.0
  0
LINE
  5
8725
330
AE84
100
AcDbEntity
  8
0
 62
     7
100
AcDbLine
 10
-437.0038069989106
 20
3809.690952834257
 30
0.0
 11
-437.0038069989106
 21
4089.087561608407
 31
0.0
  0
SOLID
  5
8726
330
AE84
100
AcDbEntity
  8
0
 62
     7
100
AcDbTrace
 10
-442.0038069989105
 20
4589.690952834257
 30
0.0
 11
-432.0038069989106
 21
4589.690952834257
 31
0.0
 12
-437.0038069989106
 22
4619.690952834258
 32
0.0
 13
-437.0038069989106
 23
4619.690952834258
 33
0.0
  0
SOLID
  5
8727
330
AE84
100
AcDbEntity
  8
0
 62
     7
100
AcDbTrace
 10
-442.0038069989105
 20
3809.690952834257
 30
0.0
 11
-432.0038069989106
 21
3809.690952834257
 31
0.0
 12
-437.0038069989106
 22
3779.690952834255
 32
0.0
 13
-437.0038069989106
 23
3779.690952834255
 33
0.0
  0
LINE
  5
8754
330
AE84
100
AcDbEntity
  8
0
 62
     7
100
AcDbLine
 10
-312.7342695255076
 20
3799.690952834257
 30
0.0
 11
-292.7342695255069
 21
3799.690952834255
 31
0.0
  0
LINE
  5
8758
330
AE84
100
AcDbEntity
  8
0
 62
     7
100
AcDbLine
 10
-332.9048153334588
 20
4599.690952834253
 30
0.0
 11
-380.4893080177441
 21
4599.690952834253
 31
0.0
  0
LINE
  5
8759
330
AE84
100
AcDbEntity
  8
0
 62
     7
100
AcDbLine
 10
-332.7342695255072
 20
3799.690952834257
 30
0.0
 11
-380.3187622097659
 21
3799.690952834257
 31
0.0
  0
LINE
  5
875A
330
AE84
100
AcDbEntity
  8
0
 62
     7
100
AcDbLine
 10
-360.318762209766
 20
4569.690952834252
 30
0.0
 11
-360.318762209766
 21
4428.707940043633
 31
0.0
  0
LINE
  5
875B
330
AE84
100
AcDbEntity
  8
0
 62
     7
100
AcDbLine
 10
-360.3187622097658
 20
3829.690952834256
 30
0.0
 11
-360.3187622097658
 21
4043.627324598593
 31
0.0
  0
SOLID
  5
875C
330
AE84
100
AcDbEntity
  8
0
 62
     7
100
AcDbTrace
 10
-365.489308017744
 20
4569.690952834252
 30
0.0
 11
-355.489308017744
 21
4569.690952834252
 31
0.0
 12
-360.4893080177443
 22
4599.690952834253
 32
0.0
 13
-360.4893080177443
 23
4599.690952834253
 33
0.0
  0
SOLID
  5
875D
330
AE84
100
AcDbEntity
  8
0
 62
     7
100
AcDbTrace
 10
-365.3187622097655
 20
3829.690952834256
 30
0.0
 11
-355.3187622097659
 21
3829.690952834256
 31
0.0
 12
-360.3187622097658
 22
3799.690952834257
 32
0.0
 13
-360.3187622097658
 23
3799.690952834257
 33
0.0
  0
LINE
  5
875F
330
AE84
100
AcDbEntity
  8
0
 62
     7
100
AcDbLine
 10
1564.496205460892
 20
-45.93134345226508
 30
0.0
 11
1564.496205460892
 21
-25.931343452265
 31
0.0
  0
LINE
  5
8762
330
AE84
100
AcDbEntity
  8
0
 62
     7
100
AcDbLine
 10
2753.496205460891
 20
-45.93134345226519
 30
0.0
 11
2753.496205460891
 21
-25.931343452265
 31
0.0
  0
LINE
  5
8792
330
AE84
100
AcDbEntity
  8
0
 62
     7
100
AcDbLine
 10
-332.9048153334588
 20
4599.690952834253
 30
0.0
 11
-380.3187622097734
 21
4599.690952834253
 31
0.0
  0
LINE
  5
8799
330
AE84
100
AcDbEntity
  8
0
 62
     7
100
AcDbLine
 10
1564.496205460892
 20
-65.93134345226499
 30
0.0
 11
1564.496205460892
 21
-108.4922752610802
 31
0.0
  0
LINE
  5
879A
330
AE84
100
AcDbEntity
  8
0
 62
     7
100
AcDbLine
 10
1360.496205460893
 20
-22.93134345226497
 30
0.0
 11
1360.496205460893
 21
-108.4922752610799
 31
0.0
  0
LINE
  5
879B
330
AE84
100
AcDbEntity
  8
0
 62
     7
100
AcDbLine
 10
1534.496205460891
 20
-88.49227526108021
 30
0.0
 11
1390.496205460893
 21
-88.49227526107993
 31
0.0
  0
LINE
  5
879C
330
AE84
100
AcDbEntity
  8
0
 62
     7
100
AcDbLine
 10
1360.496205460893
 20
-88.49227526107993
 30
0.0
 11
1330.496205460893
 21
-88.49227526107993
 31
0.0
  0
SOLID
  5
879D
330
AE84
100
AcDbEntity
  8
0
 62
     7
100
AcDbTrace
 10
1534.496205460891
 20
-83.4922752610803
 30
0.0
 11
1534.496205460891
 21
-93.49227526108021
 31
0.0
 12
1564.496205460892
 22
-88.49227526108021
 32
0.0
 13
1564.496205460892
 23
-88.49227526108021
 33
0.0
  0
SOLID
  5
879E
330
AE84
100
AcDbEntity
  8
0
 62
     7
100
AcDbTrace
 10
1390.496205460893
 20
-83.49227526107995
 30
0.0
 11
1390.496205460893
 21
-93.49227526107993
 31
0.0
 12
1360.496205460893
 22
-88.49227526107993
 32
0.0
 13
1360.496205460893
 23
-88.49227526107993
 33
0.0
  0
LINE
  5
8942
330
AE84
100
AcDbEntity
  8
0
100
AcDbLine
 10
4051.121982417341
 20
4820.593807197276
 30
0.0
 11
-482.5073820823073
 21
4820.593807197276
 31
0.0
  0
TEXT
  5
8946
330
AE84
100
AcDbEntity
  8
0
 62
     7
100
AcDbText
 10
-345.3187622097666
 20
4063.914893884947
 30
0.0
 40
30.0
  1
800 MTG CTRS
 50
90.0
100
AcDbText
  0
TEXT
  5
8947
330
AE84
100
AcDbEntity
  8
0
 62
     7
100
AcDbText
 10
-422.0038069989112
 20
4102.986990835616
 30
0.0
 40
30.0
  1
841 O/D
 50
90.0
100
AcDbText
  0
TEXT
  5
8948
330
AE84
100
AcDbEntity
  8
0
 62
     7
100
AcDbText
 10
1119.703799826372
 20
4168.438336874387
 30
0.0
 40
30.0
  1
783
 50
90.0
100
AcDbText
  0
TEXT
  5
8949
330
AE84
100
AcDbEntity
  8
0
 62
     7
100
AcDbText
 10
1245.153366580572
 20
-103.4922752610798
 30
0.0
 40
30.0
  1
204
100
AcDbText
  0
TEXT
  5
894A
330
AE84
100
AcDbEntity
  8
0
 62
     7
100
AcDbText
 10
1253.103917982817
 20
529.9384132523949
 30
0.0
 40
30.0
  1
1330 O/A
 50
90.0
100
AcDbText
  0
TEXT
  5
894B
330
AE84
100
AcDbEntity
  8
0
 62
     7
100
AcDbText
 10
2032.180012463859
 20
-103.5583453813052
 30
0.0
 40
30.0
  1
1189 CTRS
100
AcDbText
  0
TEXT
  5
894C
330
AE84
100
AcDbEntity
  8
0
 62
     7
100
AcDbText
 10
2044.501216713949
 20
-165.5458262314061
 30
0.0
 40
30.0
  1
1596 O/D
100
AcDbText
  0
LWPOLYLINE
  5
9073
330
AE84
100
AcDbEntity
  8
0
100
AcDbPolyline
 90
        4
 70
     1
 43
0.0
 10
1034.265730474491
 20
4513.690952834259
 10
1034.265730474491
 20
3928.690952834259
 10
1020.265730474492
 20
3928.690952834259
 10
1020.265730474492
 20
4513.690952834259
  0
LINE
  5
90F2
330
AE84
100
AcDbEntity
  8
0
 62
     7
100
AcDbLine
 10
2813.44620546089
 20
3783.390952834257
 30
0.0
 11
2813.44620546089
 21
3809.390952834258
 31
0.0
  0
LINE
  5
90F3
330
AE84
100
AcDbEntity
  8
0
 62
     7
100
AcDbLine
 10
2683.546205460891
 20
3783.390952834257
 30
0.0
 11
2683.546205460891
 21
3809.390952834256
 31
0.0
  0
LINE
  5
90F4
330
AE84
100
AcDbEntity
  8
0
 62
     7
100
AcDbLine
 10
2683.546205460891
 20
3783.390952834257
 30
0.0
 11
2813.44620546089
 21
3783.390952834257
 31
0.0
  0
LINE
  5
90F6
330
AE84
100
AcDbEntity
  8
0
 62
     7
100
AcDbLine
 10
1636.446205460892
 20
4618.390952834255
 30
0.0
 11
1636.446205460892
 21
4592.390952834254
 31
0.0
  0
LINE
  5
90F7
330
AE84
100
AcDbEntity
  8
0
 62
     7
100
AcDbLine
 10
1506.54620546089
 20
4618.390952834255
 30
0.0
 11
1506.54620546089
 21
4592.390952834255
 31
0.0
  0
LINE
  5
90F8
330
AE84
100
AcDbEntity
  8
0
 62
     7
100
AcDbLine
 10
1506.54620546089
 20
4618.390952834255
 30
0.0
 11
1636.446205460892
 21
4618.390952834255
 31
0.0
  0
LINE
  5
90F9
330
AE84
100
AcDbEntity
  8
0
 62
     7
100
AcDbLine
 10
2813.44620546089
 20
4618.390952834255
 30
0.0
 11
2813.44620546089
 21
4592.390952834254
 31
0.0
  0
LINE
  5
90FA
330
AE84
100
AcDbEntity
  8
0
 62
     7
100
AcDbLine
 10
2683.546205460891
 20
4618.390952834255
 30
0.0
 11
2683.546205460891
 21
4592.390952834255
 31
0.0
  0
LINE
  5
90FB
330
AE84
100
AcDbEntity
  8
0
 62
     7
100
AcDbLine
 10
2683.546205460891
 20
4618.390952834255
 30
0.0
 11
2813.44620546089
 21
4618.390952834255
 31
0.0
  0
LWPOLYLINE
  5
9103
330
AE84
100
AcDbEntity
  8
0
100
AcDbPolyline
 90
        4
 70
     1
 43
0.0
 10
1587.996205460892
 20
1301.068656547735
 10
2172.996205460891
 20
1301.068656547735
 10
2172.996205460891
 20
1287.068656547736
 10
1587.996205460892
 20
1287.068656547736
  0
LWPOLYLINE
  5
910C
330
AE84
100
AcDbEntity
  8
0
100
AcDbPolyline
 90
        4
 70
     1
 43
0.0
 10
2249.996205460891
 20
1301.068656547735
 10
2834.996205460893
 20
1301.068656547735
 10
2834.996205460893
 20
1287.068656547736
 10
2249.996205460891
 20
1287.068656547736
  0
LINE
  5
9181
330
AE84
100
AcDbEntity
  8
0
 62
     7
100
AcDbLine
 10
-302.7342695255072
 20
4619.690952834255
 30
0.0
 11
-301.5342695255084
 21
4619.690952834255
 31
0.0
  0
LINE
  5
9182
330
AE84
100
AcDbEntity
  8
0
 62
     7
100
AcDbLine
 10
-301.5342695255084
 20
4619.690952834255
 30
0.0
 11
-282.7842695255064
 21
4598.440952834255
 31
0.0
  0
LINE
  5
9183
330
AE84
100
AcDbEntity
  8
0
 62
     7
100
AcDbLine
 10
-312.7342695255076
 20
4599.690952834253
 30
0.0
 11
-292.7342695255072
 21
4599.690952834257
 31
0.0
  0
LINE
  5
9189
330
AE84
100
AcDbEntity
  8
0
 62
     7
100
AcDbLine
 10
-373.8783097231929
 20
3779.690952834255
 30
0.0
 11
-421.4628024074782
 21
3779.690952834255
 31
0.0
  0
LINE
  5
918A
330
AE84
100
AcDbEntity
  8
0
 62
     7
100
AcDbLine
 10
-373.7077639152419
 20
3799.690952834257
 30
0.0
 11
-421.2922565995
 21
3799.690952834257
 31
0.0
  0
LINE
  5
918B
330
AE84
100
AcDbEntity
  8
0
 62
     7
100
AcDbLine
 10
-401.2922565995002
 20
3749.690952834255
 30
0.0
 11
-401.2922565995002
 21
3722.884583142838
 31
0.0
  0
SOLID
  5
918D
330
AE84
100
AcDbEntity
  8
0
 62
     7
100
AcDbTrace
 10
-406.462802407478
 20
3749.690952834255
 30
0.0
 11
-396.4628024074782
 21
3749.690952834255
 31
0.0
 12
-401.4628024074782
 22
3779.690952834255
 32
0.0
 13
-401.4628024074782
 23
3779.690952834255
 33
0.0
  0
SOLID
  5
918E
330
AE84
100
AcDbEntity
  8
0
 62
     7
100
AcDbTrace
 10
-406.2922565994996
 20
3829.690952834256
 30
0.0
 11
-396.2922565995003
 21
3829.690952834256
 31
0.0
 12
-401.2922565995002
 22
3799.690952834257
 32
0.0
 13
-401.2922565995002
 23
3799.690952834257
 33
0.0
  0
LINE
  5
918F
330
AE84
100
AcDbEntity
  8
0
 62
     7
100
AcDbLine
 10
-373.8783097231929
 20
3779.690952834255
 30
0.0
 11
-421.2922565995076
 21
3779.690952834255
 31
0.0
  0
TEXT
  5
9190
330
AE84
100
AcDbEntity
  8
0
 62
     7
100
AcDbText
 10
-386.2922565995011
 20
3664.571184482581
 30
0.0
 40
30.0
  1
20
 50
90.0
100
AcDbText
  0
LINE
  5
91A5
330
AE84
100
AcDbEntity
  8
0
 62
     7
100
AcDbLine
 10
-401.2922565994998
 20
3856.497322525675
 30
0.0
 11
-401.2922565994998
 21
3829.690952834256
 31
0.0
  0
LINE
  5
AEBD
330
AE84
100
AcDbEntity
  8
0
  6
PHANTOM2
100
AcDbLine
 10
2957.496205460893
 20
3809.390952834255
 30
0.0
 11
3957.496205460893
 21
3809.390952834255
 31
0.0
  0
LINE
  5
AEBE
330
AE84
100
AcDbEntity
  8
0
  6
PHANTOM2
100
AcDbLine
 10
1359.496205460893
 20
4742.390952834255
 30
0.0
 11
3957.496205460893
 21
4742.390952834258
 31
0.0
  0
LINE
  5
AEBF
330
AE84
100
AcDbEntity
  8
0
  6
PHANTOM2
100
AcDbLine
 10
3957.496205460893
 20
4742.390952834258
 30
0.0
 11
3957.496205460893
 21
3809.390952834255
 31
0.0
  0
LINE
  5
AEC1
330
AE84
100
AcDbEntity
  8
0
  6
PHANTOM2
100
AcDbLine
 10
1209.496205460893
 20
3209.390952834255
 30
0.0
 11
1209.496205460893
 21
4742.390952834255
 31
0.0
  0
LINE
  5
AEC2
330
AE84
100
AcDbEntity
  8
0
  6
PHANTOM2
100
AcDbLine
 10
1209.496205460893
 20
4742.390952834255
 30
0.0
 11
1359.496205460893
 21
4742.390952834255
 31
0.0
  0
TEXT
  5
AEC9
330
AE84
100
AcDbEntity
  8
0
 62
     7
100
AcDbText
 10
1308.266723722652
 20
4074.417345095723
 30
0.0
 40
30.0
  1
CLEARANCE
 50
90.0
  7
TITLE3
100
AcDbText
  0
LINE
  5
AED5
330
AE84
100
AcDbEntity
  8
0
  6
PHANTOM2
100
AcDbLine
 10
1209.496205460893
 20
3209.390952834255
 30
0.0
 11
2957.496205460893
 21
3209.390952834255
 31
0.0
  0
LINE
  5
AED6
330
AE84
100
AcDbEntity
  8
0
  6
PHANTOM2
100
AcDbLine
 10
2957.496205460893
 20
3209.390952834255
 30
0.0
 11
2957.496205460893
 21
3809.390952834255
 31
0.0
  0
MTEXT
  5
AED7
330
AE84
100
AcDbEntity
  8
0
100
AcDbMText
 10
2018.301996290469
 20
3744.594464051387
 30
0.0
 40
30.0
 41
395.0291133867104
 46
0.0
 71
     1
 72
     5
  1
ACCESS PANEL
  7
TITLE3
 73
     1
 44
1.0
101
Embedded Object
 70
     1
 10
1.0
 20
0.0
 30
0.0
 11
2018.301996290469
 21
3744.594464051387
 31
0.0
 40
395.0291133867104
 41
0.0
 42
339.9999999999999
 43
30.00000000000001
 71
     2
 72
     1
 44
395.0291133867104
 45
150.0
 73
     0
 74
     0
 46
0.0
  0
LINE
  5
AED8
330
AE84
100
AcDbEntity
  8
0
  6
PHANTOM2
100
AcDbLine
 10
1360.496205460893
 20
3087.068656547735
 30
0.0
 11
2956.496205460893
 21
3087.068656547735
 31
0.0
  0
VIEWPORT
  5
900C
330
AE80
100
AcDbEntity
 67
     1
  8
0
348
AE44
100
AcDbViewport
 10
5.648750245101807
 20
3.866250083202451
 30
0.0
 40
19.97260784063401
 41
8.747896837850252
 68
     1
 69
     1
 12
5.648750245101807
 22
3.866250083202451
 13
0.0
 23
0.0
 14
10.0
 24
10.0
 15
10.0
 25
10.0
 16
0.0
 26
0.0
 36
1.0
 17
0.0
 27
0.0
 37
0.0
 42
50.0
 43
0.0
 44
0.0
 45
8.747896837850252
 50
0.0
 51
0.0
 72
   100
 90
    32800
  1

281
     0
 71
     0
 74
     0
110
0.0
120
0.0
130
0.0
111
1.0
121
0.0
131
0.0
112
0.0
122
1.0
132
0.0
 79
     0
146
0.0
170
     0
 61
     5
292
     1
282
     1
141
0.0
142
0.0
 63
   250
421
  3355443
1001
GENIUS_GENOBJ-N-SDF_13
1002
{
1000
OWNER
1000
GEN
1002
}
1001
GENIUS_GENODEF_13
1002
{
1000
HIER
1070
     0
1002
}
1002
{
1000
MANEDIT
1070
     0
1002
}
1002
{
1000
NOSEL
1070
     0
1002
}
1002
{
1000
BEHIND
1070
     0
1002
}
1002
{
1000
OTHER
1070
     0
1002
}
1002
{
1000
REACTOR
1002
}
1001
GENIUS_GENSCREG_15
1000
PF
1040
1.0
1000
DF
1040
1.0
1000
MIN
1011
-4.337553675215196
1021
-0.5076983357226759
1031
0.0
1000
MAX
1011
15.63505416541881
1021
8.240198502127576
1031
0.0
1000
FLAGS
1070
     4
  0
VIEWPORT
  5
9010
330
AE80
100
AcDbEntity
 67
     1
  8
0
348
AE44
100
AcDbViewport
 10
5.647083192359744
 20
3.865416838428163
 30
0.0
 40
9.03533310777559
 41
6.184666941485065
 68
     2
 69
     2
 12
2057.543746594443
 22
2332.344441907721
 13
0.0
 23
0.0
 14
10.0
 24
10.0
 15
10.0
 25
10.0
 16
0.0
 26
0.0
 36
1.0
 17
0.0
 27
0.0
 37
0.0
 42
50.0
 43
0.0
 44
0.0
 45
4713.100285012325
 50
0.0
 51
0.0
 72
   100
 90
    32800
  1

281
     0
 71
     0
 74
     0
110
0.0
120
0.0
130
0.0
111
1.0
121
0.0
131
0.0
112
0.0
122
1.0
132
0.0
 79
     0
146
0.0
170
     0
 61
     5
292
     1
282
     1
141
0.0
142
0.0
 63
   250
421
  3355443
1001
GENIUS_GENOBJ-N-SDF_13
1002
{
1000
OWNER
1000
GEN
1002
}
1001
GENIUS_GENODEF_13
1002
{
1000
HIER
1070
     0
1002
}
1002
{
1000
MANEDIT
1070
     0
1002
}
1002
{
1000
NOSEL
1070
     0
1002
}
1002
{
1000
BEHIND
1070
     0
1002
}
1002
{
1000
OTHER
1070
     0
1002
}
1002
{
1000
REACTOR
1002
}
1001
GENIUS_GENSCREG_15
1000
PF
1040
0.0
1000
DF
1040
0.0
1000
MIN
1011
1.129416638471947
1021
0.7730833676856337
1031
0.0
1000
MAX
1011
10.16474974624754
1021
6.957750309170696
1031
0.0
1000
FLAGS
1070
     4
  0
ENDSEC
  0
SECTION
  2
OBJECTS
  0
DICTIONARY
  5
AE21
330
0
100
AcDbDictionary
281
     1
  3
ACAD_CIP_PREVIOUS_PRODUCT_INFO
350
AEB3
  3
ACAD_COLOR
350
AE77
  3
ACAD_DETAILVIEWSTYLE
350
AE7E
  3
ACAD_GROUP
350
AE22
  3
ACAD_LAYOUT
350
AE76
  3
ACAD_MATERIAL
350
AE25
  3
ACAD_MLEADERSTYLE
350
AE7A
  3
ACAD_MLINESTYLE
350
AE73
  3
ACAD_PLOTSETTINGS
350
AE75
  3
ACAD_PLOTSTYLENAME
350
AE23
  3
ACAD_SCALELIST
350
AE57
  3
ACAD_SECTIONVIEWSTYLE
350
AE7C
  3
ACAD_TABLESTYLE
350
AE78
  3
ACAD_VISUALSTYLE
350
AE3E
  3
ACDB_RECOMPOSE_DATA
350
AEF8
  3
AcDbVariableDictionary
350
AEDB
  0
DICTIONARY
  5
AED9
330
AE69
100
AcDbDictionary
280
     1
281
     1
  3
ADSK_XREC_LAYER_RECONCILED
360
AEDA
  0
XRECORD
  5
AEB3
102
{ACAD_REACTORS
330
AE21
102
}
330
AE21
100
AcDbXrecord
280
     1
300
ACAD_E
300
2018
300
PDSU_F_S
  0
DICTIONARY
  5
AE77
102
{ACAD_REACTORS
330
AE21
102
}
330
AE21
100
AcDbDictionary
281
     1
  0
DICTIONARY
  5
AE7E
102
{ACAD_REACTORS
330
AE21
102
}
330
AE21
100
AcDbDictionary
281
     1
  3
Imperial24
350
AE7F
  0
DICTIONARY
  5
AE22
102
{ACAD_REACTORS
330
AE21
102
}
330
AE21
100
AcDbDictionary
281
     1
  0
DICTIONARY
  5
AE76
102
{ACAD_REACTORS
330
AE21
102
}
330
AE21
100
AcDbDictionary
281
     1
  3
Layout1
350
AE83
  3
Model
350
AE87
  0
DICTIONARY
  5
AE25
102
{ACAD_REACTORS
330
AE21
102
}
330
AE21
100
AcDbDictionary
281
     1
  3
ByBlock
350
AE2E
  3
ByLayer
350
AE26
  3
Global
350
AE36
  0
DICTIONARY
  5
AE7A
102
{ACAD_REACTORS
330
AE21
102
}
330
AE21
100
AcDbDictionary
281
     1
  3
Standard
350
AE7B
  0
DICTIONARY
  5
AE73
102
{ACAD_REACTORS
330
AE21
102
}
330
AE21
100
AcDbDictionary
281
     1
  3
Standard
350
AE74
  0
DICTIONARY
  5
AE75
102
{ACAD_REACTORS
330
AE21
102
}
330
AE21
100
AcDbDictionary
281
     1
  0
ACDBDICTIONARYWDFLT
  5
AE23
102
{ACAD_REACTORS
330
AE21
102
}
330
AE21
100
AcDbDictionary
281
     1
  3
Normal
350
AE24
100
AcDbDictionaryWithDefault
340
AE24
  0
DICTIONARY
  5
AE57
102
{ACAD_REACTORS
330
AE21
102
}
330
AE21
100
AcDbDictionary
281
     1
  3
A0
350
AE58
  3
A1
350
AE59
  3
A2
350
AE5A
  3
A3
350
AE5B
  3
A4
350
AE5C
  3
A5
350
AE5D
  3
A6
350
AE5E
  3
A7
350
AE5F
  3
A8
350
AE60
  3
A9
350
AE61
  3
B0
350
AE62
  3
B1
350
AE63
  3
B2
350
AE64
  3
B3
350
AE65
  3
B4
350
AE66
  3
B5
350
AE67
  3
B6
350
AE68
  0
DICTIONARY
  5
AE7C
102
{ACAD_REACTORS
330
AE21
102
}
330
AE21
100
AcDbDictionary
281
     1
  3
Imperial24
350
AE7D
  0
DICTIONARY
  5
AE78
102
{ACAD_REACTORS
330
AE21
102
}
330
AE21
100
AcDbDictionary
281
     1
  3
Standard
350
AE79
  0
DICTIONARY
  5
AE3E
102
{ACAD_REACTORS
330
AE21
102
}
330
AE21
100
AcDbDictionary
281
     1
  3
2dWireframe
350
AE44
  3
Basic
350
AE43
  3
Brighten
350
AE4A
  3
ColorChange
350
AE4E
  3
Conceptual
350
AE47
  3
Dim
350
AE49
  3
EdgeColorOff
350
AE56
  3
Facepattern
350
AE4D
  3
Flat
350
AE3F
  3
FlatWithEdges
350
AE40
  3
Gouraud
350
AE41
  3
GouraudWithEdges
350
AE42
  3
Hidden
350
AE46
  3
JitterOff
350
AE54
  3
Linepattern
350
AE4C
  3
OverhangOff
350
AE55
  3
Realistic
350
AE48
  3
Shaded
350
AE53
  3
Shaded with edges
350
AE52
  3
Shades of Gray
350
AE4F
  3
Sketchy
350
AE50
  3
Thicken
350
AE4B
  3
Wireframe
350
AE45
  3
X-Ray
350
AE51
  0
XRECORD
  5
AEF8
102
{ACAD_REACTORS
330
AE21
102
}
330
AE21
100
AcDbXrecord
280
     1
 90
        1
330
AE79
  0
DICTIONARY
  5
AEDB
102
{ACAD_REACTORS
330
AE21
102
}
330
AE21
100
AcDbDictionary
281
     1
  3
CANNOSCALE
350
AEE1
  3
CMLEADERSTYLE
350
AEDD
  3
CTABLESTYLE
350
AEDC
  3
CVIEWDETAILSTYLE
350
AEDE
  3
CVIEWSECTIONSTYLE
350
AEDF
  3
LAYEREVAL
350
AEE3
  3
LAYERNOTIFY
350
AEE4
  3
LIGHTINGUNITS
350
AEE2
  3
MSLTSCALE
350
AEE0
  0
XRECORD
  5
AEDA
102
{ACAD_REACTORS
330
AED9
102
}
330
AED9
100
AcDbXrecord
280
     1
290
     1
  0
ACDBDETAILVIEWSTYLE
  5
AE7F
102
{ACAD_REACTORS
330
AE7E
102
}
330
AE7E
100
AcDbModelDocViewStyle
 70
     0
  3
Imperial24
290
     0
300
Imperial24
 90
        0
100
AcDbDetailViewStyle
 70
     0
 71
     0
 90
        3
 71
     1
340
AE6A
 62
   256
 40
0.24
340
0
 62
   256
 40
0.24
300

 40
0.36
280
     3
 71
     2
340
AE71
 90
       25
 62
   256
 71
     3
340
AE6A
 62
   256
 40
0.24
 90
        1
 40
0.75
 90
        1
300
%<\AcVar ViewType \f "%tc1">% %<\AcVar ViewDetailId>%\PSCALE %<\AcVar ViewScale \f "%sn">%
 71
     4
340
AE71
 90
       25
 62
   256
340
AE71
 90
       25
 62
   256
280
     0
  0
LAYOUT
  5
AE83
102
{ACAD_REACTORS
330
AE76
102
}
330
AE76
100
AcDbPlotSettings
  1

  2
\\TZ-AKL-PRT1\TZ-AKL-CUS2
  4

  6

 40
0.0
 41
0.0
 42
0.0
 43
0.0
 44
0.0
 45
0.0
 46
0.0
 47
0.0
 48
0.0
 49
0.0
140
0.0
141
0.0
142
1.0
143
1.0
 70
   688
 72
     0
 73
     0
 74
     5
  7

 75
    16
147
1.0
 76
     0
 77
     2
 78
   300
148
0.0
149
0.0
100
AcDbLayout
  1
Layout1
 70
     0
 71
     1
 10
-0.1979161059762549
 20
-0.2679166643638311
 11
11.49541659617987
 21
8.000416830768735
 12
0.0
 22
0.0
 32
0.0
 14
1.129416638471947
 24
0.7730833676856337
 34
0.0
 15
10.16474974624754
 25
6.957750309170696
 35
0.0
146
0.0
 13
0.0
 23
0.0
 33
0.0
 16
1.0
 26
0.0
 36
0.0
 17
0.0
 27
1.0
 37
0.0
 76
     0
330
AE80
331
900C
  0
LAYOUT
  5
AE87
102
{ACAD_REACTORS
330
AE76
102
}
330
AE76
100
AcDbPlotSettings
  1

  2
\\TZ-AKL-PRT1\TZ-AKL-CUS2
  4

  6

 40
0.0
 41
0.0
 42
0.0
 43
0.0
 44
0.0
 45
0.0
 46
0.0
 47
0.0
 48
0.0
 49
0.0
140
0.0
141
0.0
142
1.0
143
1.0
 70
  1712
 72
     0
 73
     0
 74
     0
  7

 75
     0
147
1.0
 76
     0
 77
     2
 78
   300
148
0.0
149
0.0
100
AcDbLayout
  1
Model
 70
     1
 71
     0
 10
0.0
 20
0.0
 11
12.0
 21
9.0
 12
0.0
 22
0.0
 32
0.0
 14
0.0
 24
0.0
 34
0.0
 15
0.0
 25
0.0
 35
0.0
146
0.0
 13
0.0
 23
0.0
 33
0.0
 16
1.0
 26
0.0
 36
0.0
 17
0.0
 27
1.0
 37
0.0
 76
     0
330
AE84
331
AE89
  0
MATERIAL
  5
AE2E
102
{ACAD_XDICTIONARY
360
AE2F
102
}
102
{ACAD_REACTORS
330
AE25
102
}
330
AE25
100
AcDbMaterial
  1
ByBlock
 72
     0
 43
0.0208333333333333
 43
0.0
 43
0.0
 43
0.0
 43
0.0
 43
0.0208333333333333
 43
0.0
 43
0.0
 43
0.0
 43
0.0
 43
1.0
 43
0.0
 43
0.0
 43
0.0
 43
0.0
 43
1.0
 77
     0
 47
0.0208333333333333
 47
0.0
 47
0.0
 47
0.0
 47
0.0
 47
0.0208333333333333
 47
0.0
 47
0.0
 47
0.0
 47
0.0
 47
1.0
 47
0.0
 47
0.0
 47
0.0
 47
0.0
 47
1.0
171
     0
 49
0.0208333333333333
 49
0.0
 49
0.0
 49
0.0
 49
0.0
 49
0.0208333333333333
 49
0.0
 49
0.0
 49
0.0
 49
0.0
 49
1.0
 49
0.0
 49
0.0
 49
0.0
 49
0.0
 49
1.0
175
     0
142
0.0208333333333333
142
0.0
142
0.0
142
0.0
142
0.0
142
0.0208333333333333
142
0.0
142
0.0
142
0.0
142
0.0
142
1.0
142
0.0
142
0.0
142
0.0
142
0.0
142
1.0
179
     0
144
0.0208333333333333
144
0.0
144
0.0
144
0.0
144
0.0
144
0.0208333333333333
144
0.0
144
0.0
144
0.0
144
0.0
144
1.0
144
0.0
144
0.0
144
0.0
144
0.0
144
1.0
147
0.0208333333333333
147
0.0
147
0.0
147
0.0
147
0.0
147
0.0208333333333333
147
0.0
147
0.0
147
0.0
147
0.0
147
1.0
147
0.0
147
0.0
147
0.0
147
0.0
147
1.0
  0
MATERIAL
  5
AE26
102
{ACAD_XDICTIONARY
360
AE27
102
}
102
{ACAD_REACTORS
330
AE25
102
}
330
AE25
100
AcDbMaterial
  1
ByLayer
 72
     0
 43
0.0208333333333333
 43
0.0
 43
0.0
 43
0.0
 43
0.0
 43
0.0208333333333333
 43
0.0
 43
0.0
 43
0.0
 43
0.0
 43
1.0
 43
0.0
 43
0.0
 43
0.0
 43
0.0
 43
1.0
 77
     0
 47
0.0208333333333333
 47
0.0
 47
0.0
 47
0.0
 47
0.0
 47
0.0208333333333333
 47
0.0
 47
0.0
 47
0.0
 47
0.0
 47
1.0
 47
0.0
 47
0.0
 47
0.0
 47
0.0
 47
1.0
171
     0
 49
0.0208333333333333
 49
0.0
 49
0.0
 49
0.0
 49
0.0
 49
0.0208333333333333
 49
0.0
 49
0.0
 49
0.0
 49
0.0
 49
1.0
 49
0.0
 49
0.0
 49
0.0
 49
0.0
 49
1.0
175
     0
142
0.0208333333333333
142
0.0
142
0.0
142
0.0
142
0.0
142
0.0208333333333333
142
0.0
142
0.0
142
0.0
142
0.0
142
1.0
142
0.0
142
0.0
142
0.0
142
0.0
142
1.0
179
     0
144
0.0208333333333333
144
0.0
144
0.0
144
0.0
144
0.0
144
0.0208333333333333
144
0.0
144
0.0
144
0.0
144
0.0
144
1.0
144
0.0
144
0.0
144
0.0
144
0.0
144
1.0
147
0.0208333333333333
147
0.0
147
0.0
147
0.0
147
0.0
147
0.0208333333333333
147
0.0
147
0.0
147
0.0
147
0.0
147
1.0
147
0.0
147
0.0
147
0.0
147
0.0
147
1.0
  0
MATERIAL
  5
AE36
102
{ACAD_XDICTIONARY
360
AE37
102
}
102
{ACAD_REACTORS
330
AE25
102
}
330
AE25
100
AcDbMaterial
  1
Global
 72
     0
 43
0.0208333333333333
 43
0.0
 43
0.0
 43
0.0
 43
0.0
 43
0.0208333333333333
 43
0.0
 43
0.0
 43
0.0
 43
0.0
 43
1.0
 43
0.0
 43
0.0
 43
0.0
 43
0.0
 43
1.0
 77
     0
 47
0.0208333333333333
 47
0.0
 47
0.0
 47
0.0
 47
0.0
 47
0.0208333333333333
 47
0.0
 47
0.0
 47
0.0
 47
0.0
 47
1.0
 47
0.0
 47
0.0
 47
0.0
 47
0.0
 47
1.0
171
     0
 49
0.0208333333333333
 49
0.0
 49
0.0
 49
0.0
 49
0.0
 49
0.0208333333333333
 49
0.0
 49
0.0
 49
0.0
 49
0.0
 49
1.0
 49
0.0
 49
0.0
 49
0.0
 49
0.0
 49
1.0
175
     0
142
0.0208333333333333
142
0.0
142
0.0
142
0.0
142
0.0
142
0.0208333333333333
142
0.0
142
0.0
142
0.0
142
0.0
142
1.0
142
0.0
142
0.0
142
0.0
142
0.0
142
1.0
179
     0
144
0.0208333333333333
144
0.0
144
0.0
144
0.0
144
0.0
144
0.0208333333333333
144
0.0
144
0.0
144
0.0
144
0.0
144
1.0
144
0.0
144
0.0
144
0.0
144
0.0
144
1.0
147
0.0208333333333333
147
0.0
147
0.0
147
0.0
147
0.0
147
0.0208333333333333
147
0.0
147
0.0
147
0.0
147
0.0
147
1.0
147
0.0
147
0.0
147
0.0
147
0.0
147
1.0
  0
MLEADERSTYLE
  5
AE7B
102
{ACAD_REACTORS
330
AE7A
102
}
330
AE7A
100
AcDbMLeaderStyle
179
     2
170
     2
171
     1
172
     0
 90
        2
 40
0.0
 41
0.0
173
     1
 91
-1056964608
340
AE6F
 92
       -2
290
     1
 42
0.09
291
     1
 43
0.36
  3
Standard
 44
0.18
300

342
AE6A
174
     1
178
     6
175
     1
176
     0
 93
-1056964608
 45
0.18
292
     0
297
     0
 46
0.18
 94
-1056964608
 47
1.0
 49
1.0
140
1.0
293
     1
141
0.0
294
     1
177
     0
142
1.0
295
     0
296
     0
143
0.125
271
     0
272
     9
273
     9
298
     0
  0
MLINESTYLE
  5
AE74
102
{ACAD_REACTORS
330
AE73
102
}
330
AE73
100
AcDbMlineStyle
  2
STANDARD
 70
     0
  3

 62
   256
 51
90.0
 52
90.0
 71
     2
 49
0.5
 62
   256
  6
BYLAYER
 49
-0.5
 62
   256
  6
BYLAYER
  0
ACDBPLACEHOLDER
  5
AE24
102
{ACAD_REACTORS
330
AE23
102
}
330
AE23
  0
SCALE
  5
AE58
102
{ACAD_REACTORS
330
AE57
102
}
330
AE57
100
AcDbScale
 70
     0
300
1:1
140
1.0
141
1.0
290
     1
  0
SCALE
  5
AE59
102
{ACAD_REACTORS
330
AE57
102
}
330
AE57
100
AcDbScale
 70
     0
300
1/128" = 1'-0"
140
0.0078125
141
12.0
290
     0
  0
SCALE
  5
AE5A
102
{ACAD_REACTORS
330
AE57
102
}
330
AE57
100
AcDbScale
 70
     0
300
1/64" = 1'-0"
140
0.015625
141
12.0
290
     0
  0
SCALE
  5
AE5B
102
{ACAD_REACTORS
330
AE57
102
}
330
AE57
100
AcDbScale
 70
     0
300
1/32" = 1'-0"
140
0.03125
141
12.0
290
     0
  0
SCALE
  5
AE5C
102
{ACAD_REACTORS
330
AE57
102
}
330
AE57
100
AcDbScale
 70
     0
300
1/16" = 1'-0"
140
0.0625
141
12.0
290
     0
  0
SCALE
  5
AE5D
102
{ACAD_REACTORS
330
AE57
102
}
330
AE57
100
AcDbScale
 70
     0
300
3/32" = 1'-0"
140
0.09375
141
12.0
290
     0
  0
SCALE
  5
AE5E
102
{ACAD_REACTORS
330
AE57
102
}
330
AE57
100
AcDbScale
 70
     0
300
1/8" = 1'-0"
140
0.125
141
12.0
290
     0
  0
SCALE
  5
AE5F
102
{ACAD_REACTORS
330
AE57
102
}
330
AE57
100
AcDbScale
 70
     0
300
3/16" = 1'-0"
140
0.1875
141
12.0
290
     0
  0
SCALE
  5
AE60
102
{ACAD_REACTORS
330
AE57
102
}
330
AE57
100
AcDbScale
 70
     0
300
1/4" = 1'-0"
140
0.25
141
12.0
290
     0
  0
SCALE
  5
AE61
102
{ACAD_REACTORS
330
AE57
102
}
330
AE57
100
AcDbScale
 70
     0
300
3/8" = 1'-0"
140
0.375
141
12.0
290
     0
  0
SCALE
  5
AE62
102
{ACAD_REACTORS
330
AE57
102
}
330
AE57
100
AcDbScale
 70
     0
300
1/2" = 1'-0"
140
0.5
141
12.0
290
     0
  0
SCALE
  5
AE63
102
{ACAD_REACTORS
330
AE57
102
}
330
AE57
100
AcDbScale
 70
     0
300
3/4" = 1'-0"
140
0.75
141
12.0
290
     0
  0
SCALE
  5
AE64
102
{ACAD_REACTORS
330
AE57
102
}
330
AE57
100
AcDbScale
 70
     0
300
1" = 1'-0"
140
1.0
141
12.0
290
     0
  0
SCALE
  5
AE65
102
{ACAD_REACTORS
330
AE57
102
}
330
AE57
100
AcDbScale
 70
     0
300
1-1/2" = 1'-0"
140
1.5
141
12.0
290
     0
  0
SCALE
  5
AE66
102
{ACAD_REACTORS
330
AE57
102
}
330
AE57
100
AcDbScale
 70
     0
300
3" = 1'-0"
140
3.0
141
12.0
290
     0
  0
SCALE
  5
AE67
102
{ACAD_REACTORS
330
AE57
102
}
330
AE57
100
AcDbScale
 70
     0
300
6" = 1'-0"
140
6.0
141
12.0
290
     0
  0
SCALE
  5
AE68
102
{ACAD_REACTORS
330
AE57
102
}
330
AE57
100
AcDbScale
 70
     0
300
1'-0" = 1'-0"
140
12.0
141
12.0
290
     0
  0
ACDBSECTIONVIEWSTYLE
  5
AE7D
102
{ACAD_REACTORS
330
AE7C
102
}
330
AE7C
100
AcDbModelDocViewStyle
 70
     0
  3
Imperial24
290
     0
300
Imperial24
 90
        0
100
AcDbSectionViewStyle
 70
     0
 71
     0
 90
       78
 71
     1
340
AE6A
 62
   256
 40
0.24
340
0
340
0
 62
   256
 40
0.24
300
I, O, Q, S, X, Z
 40
0.48
 90
        3
 40
0.18
 90
        1
 71
     2
340
AE71
 90
       25
 62
   256
340
AE71
 90
       50
 62
   256
 40
0.24
 40
0.0
 40
0.24
 71
     3
340
AE6A
 62
   256
 40
0.24
 90
        1
 40
0.75
 90
        1
300
%<\AcVar ViewType \f "%tc1">% %<\AcVar ViewSectionStartId>%-%<\AcVar ViewSectionEndId>%\PSCALE %<\AcVar ViewScale \f "%sn">%
 71
     4
 62
   256
 62
   257
300
ANSI31
 40
1.0
 90
        0
290
     0
290
     0
 90
        6
 40
0.0
 40
1.570796326794896
 40
0.2617993877991494
 40
1.308996938995747
 40
-0.2617993877991494
 40
1.832595714594045
  0
TABLESTYLE
  5
AE79
102
{ACAD_XDICTIONARY
360
AEE5
102
}
102
{ACAD_REACTORS
330
AE78
102
}
330
AE78
100
AcDbTableStyle
280
     0
  3
Standard
 70
     0
 71
     0
 40
0.06
 41
0.06
280
     0
281
     0
  7
STANDARD
140
0.18
170
     2
 62
     0
 63
     7
283
     0
 90
      512
 91
        0
  1

274
    -2
284
     1
 64
     0
275
    -2
285
     1
 65
     0
276
    -2
286
     1
 66
     0
277
    -2
287
     1
 67
     0
278
    -2
288
     1
 68
     0
279
    -2
289
     1
 69
     0
  7
STANDARD
140
0.25
170
     5
 62
     0
 63
     7
283
     0
 90
      512
 91
        0
  1

274
    -2
284
     1
 64
     0
275
    -2
285
     1
 65
     0
276
    -2
286
     1
 66
     0
277
    -2
287
     1
 67
     0
278
    -2
288
     1
 68
     0
279
    -2
289
     1
 69
     0
  7
STANDARD
140
0.18
170
     5
 62
     0
 63
     7
283
     0
 90
      512
 91
        0
  1

274
    -2
284
     1
 64
     0
275
    -2
285
     1
 65
     0
276
    -2
286
     1
 66
     0
277
    -2
287
     1
 67
     0
278
    -2
288
     1
 68
     0
279
    -2
289
     1
 69
     0
  0
VISUALSTYLE
  5
AE44
102
{ACAD_REACTORS
330
AE3E
102
}
330
AE3E
100
AcDbVisualStyle
  2
2dWireframe
 70
     4
177
     3
291
     0
 70
    58
 90
        0
176
     1
 90
        2
176
     1
 90
        0
176
     1
 90
        0
176
     1
 40
0.6
176
     1
 40
30.0
176
     1
 62
     7
420
 16777215
176
     1
 90
        1
176
     1
 90
        4
176
     1
 62
     7
176
     1
 62
   257
176
     1
 90
        1
176
     1
 90
        1
176
     1
 40
1.0
176
     1
 90
        0
176
     1
 62
   257
176
     1
 40
1.0
176
     1
 90
        1
176
     1
 90
        6
176
     1
 90
        2
176
     1
 62
     7
176
     1
 90
        5
176
     1
 90
        0
176
     1
 90
        0
176
     1
290
     0
176
     1
 90
        1
176
     1
 40
0.0
176
     1
 90
        0
176
     1
290
     1
176
     1
290
     1
176
     1
290
     0
176
     1
290
     0
176
     1
290
     0
176
     1
290
     0
176
     1
290
     0
176
     1
290
     0
176
     1
290
     0
176
     1
 90
       50
176
     1
 40
0.0
176
     1
 40
1.0
176
     1
 90
        0
176
     1
 62
    18
176
     1
 90
       50
176
     1
 90
        3
176
     1
 62
     5
420
      255
176
     1
290
     0
176
     1
 90
       50
176
     1
 90
       50
176
     1
 90
       50
176
     1
290
     0
176
     1
 90
       50
176
     1
 62
   256
176
     0
 40
1.0
176
     0
 90
        2
176
     1
  1
strokes_ogs.tif
176
     1
290
     0
176
     1
 40
1.0
176
     1
 40
1.0
176
     1
  0
VISUALSTYLE
  5
AE43
102
{ACAD_REACTORS
330
AE3E
102
}
330
AE3E
100
AcDbVisualStyle
  2
Basic
 70
     7
177
     3
291
     1
 70
    58
 90
        1
176
     1
 90
        0
176
     1
 90
        1
176
     1
 90
        0
176
     1
 40
0.6
176
     1
 40
30.0
176
     1
 62
     7
420
 16777215
176
     1
 90
        0
176
     1
 90
        4
176
     1
 62
     7
176
     1
 62
   257
176
     1
 90
        1
176
     1
 90
        1
176
     1
 40
1.0
176
     1
 90
        8
176
     1
 62
     7
176
     1
 40
1.0
176
     1
 90
        1
176
     1
 90
        6
176
     1
 90
        2
176
     1
 62
     7
176
     1
 90
        5
176
     1
 90
        0
176
     1
 90
        0
176
     1
290
     0
176
     1
 90
        1
176
     1
 40
0.0
176
     1
 90
        0
176
     1
290
     0
176
     1
290
     1
176
     1
290
     1
176
     1
290
     0
176
     1
290
     0
176
     1
290
     0
176
     1
290
     0
176
     1
290
     0
176
     1
290
     0
176
     1
 90
       50
176
     1
 40
0.0
176
     1
 40
1.0
176
     1
 90
        0
176
     1
 62
    18
176
     1
 90
       50
176
     1
 90
        3
176
     1
 62
     5
420
      255
176
     1
290
     0
176
     1
 90
       50
176
     1
 90
       50
176
     1
 90
       50
176
     1
290
     0
176
     1
 90
       50
176
     1
 62
   256
176
     0
 40
1.0
176
     0
 90
        2
176
     1
  1
strokes_ogs.tif
176
     1
290
     0
176
     1
 40
1.0
176
     1
 40
1.0
176
     1
  0
VISUALSTYLE
  5
AE4A
102
{ACAD_REACTORS
330
AE3E
102
}
330
AE3E
100
AcDbVisualStyle
  2
Brighten
 70
    12
177
     3
291
     1
 70
    58
 90
        2
176
     1
 90
        2
176
     1
 90
        0
176
     1
 90
        0
176
     1
 40
0.6
176
     1
 40
30.0
176
     1
 62
     7
420
 16777215
176
     1
 90
        1
176
     1
 90
        4
176
     1
 62
     7
176
     1
 62
   257
176
     1
 90
        1
176
     1
 90
        1
176
     1
 40
1.0
176
     1
 90
        8
176
     1
 62
     7
176
     1
 40
1.0
176
     1
 90
        1
176
     1
 90
        6
176
     1
 90
        2
176
     1
 62
     7
176
     1
 90
        5
176
     1
 90
        0
176
     1
 90
        0
176
     1
290
     0
176
     1
 90
        1
176
     1
 40
50.0
176
     1
 90
        0
176
     1
290
     0
176
     1
290
     1
176
     1
290
     1
176
     1
290
     0
176
     1
290
     0
176
     1
290
     0
176
     1
290
     0
176
     1
290
     0
176
     1
290
     0
176
     1
 90
       50
176
     1
 40
0.0
176
     1
 40
1.0
176
     1
 90
        0
176
     1
 62
    18
176
     1
 90
       50
176
     1
 90
        3
176
     1
 62
     5
420
      255
176
     1
290
     0
176
     1
 90
       50
176
     1
 90
       50
176
     1
 90
       50
176
     1
290
     0
176
     1
 90
       50
176
     1
 62
   256
176
     0
 40
1.0
176
     0
 90
        2
176
     1
  1
strokes_ogs.tif
176
     1
290
     0
176
     1
 40
1.0
176
     1
 40
1.0
176
     1
  0
VISUALSTYLE
  5
AE4E
102
{ACAD_REACTORS
330
AE3E
102
}
330
AE3E
100
AcDbVisualStyle
  2
ColorChange
 70
    16
177
     3
291
     1
 70
    58
 90
        2
176
     1
 90
        2
176
     1
 90
        3
176
     1
 90
        0
176
     1
 40
0.6
176
     1
 40
30.0
176
     1
 62
     8
420
  8421504
176
     1
 90
        1
176
     1
 90
        4
176
     1
 62
     7
176
     1
 62
   257
176
     1
 90
        1
176
     1
 90
        1
176
     1
 40
1.0
176
     1
 90
        8
176
     1
 62
     8
420
  8421504
176
     1
 40
1.0
176
     1
 90
        1
176
     1
 90
        6
176
     1
 90
        2
176
     1
 62
     7
176
     1
 90
        5
176
     1
 90
        0
176
     1
 90
        0
176
     1
290
     0
176
     1
 90
        1
176
     1
 40
0.0
176
     1
 90
        0
176
     1
290
     0
176
     1
290
     1
176
     1
290
     1
176
     1
290
     0
176
     1
290
     0
176
     1
290
     0
176
     1
290
     0
176
     1
290
     0
176
     1
290
     0
176
     1
 90
       50
176
     1
 40
0.0
176
     1
 40
1.0
176
     1
 90
        0
176
     1
 62
    18
176
     1
 90
       50
176
     1
 90
        3
176
     1
 62
     5
420
      255
176
     1
290
     0
176
     1
 90
       50
176
     1
 90
       50
176
     1
 90
       50
176
     1
290
     0
176
     1
 90
       50
176
     1
 62
   256
176
     0
 40
1.0
176
     0
 90
        2
176
     1
  1
strokes_ogs.tif
176
     1
290
     0
176
     1
 40
1.0
176
     1
 40
1.0
176
     1
  0
VISUALSTYLE
  5
AE47
102
{ACAD_REACTORS
330
AE3E
102
}
330
AE3E
100
AcDbVisualStyle
  2
Conceptual
 70
     9
177
     3
291
     0
 70
    58
 90
        3
176
     1
 90
        2
176
     1
 90
        0
176
     1
 90
        0
176
     1
 40
0.6
176
     1
 40
30.0
176
     1
 62
     7
420
 16777215
176
     1
 90
        2
176
     1
 90
        2
176
     1
 62
     7
176
     1
 62
   257
176
     1
 90
        1
176
     1
 90
        1
176
     1
 40
179.0
176
     1
 90
        8
176
     1
 62
     7
176
     1
 40
1.0
176
     1
 90
        1
176
     1
 90
        6
176
     1
 90
        2
176
     1
 62
     7
176
     1
 90
        3
176
     1
 90
        0
176
     1
 90
        0
176
     1
290
     0
176
     1
 90
        1
176
     1
 40
0.0
176
     1
 90
        0
176
     1
290
     0
176
     1
290
     1
176
     1
290
     1
176
     1
290
     0
176
     1
290
     0
176
     1
290
     0
176
     1
290
     0
176
     1
290
     0
176
     1
290
     0
176
     1
 90
       50
176
     1
 40
0.0
176
     1
 40
1.0
176
     1
 90
        0
176
     1
 62
    18
176
     1
 90
       50
176
     1
 90
        3
176
     1
 62
     5
420
      255
176
     1
290
     0
176
     1
 90
       50
176
     1
 90
       50
176
     1
 90
       50
176
     1
290
     0
176
     1
 90
       50
176
     1
 62
   256
176
     0
 40
1.0
176
     0
 90
        2
176
     1
  1
strokes_ogs.tif
176
     1
290
     0
176
     1
 40
1.0
176
     1
 40
1.0
176
     1
  0
VISUALSTYLE
  5
AE49
102
{ACAD_REACTORS
330
AE3E
102
}
330
AE3E
100
AcDbVisualStyle
  2
Dim
 70
    11
177
     3
291
     1
 70
    58
 90
        2
176
     1
 90
        2
176
     1
 90
        0
176
     1
 90
        0
176
     1
 40
0.6
176
     1
 40
30.0
176
     1
 62
     7
420
 16777215
176
     1
 90
        1
176
     1
 90
        4
176
     1
 62
     7
176
     1
 62
   257
176
     1
 90
        1
176
     1
 90
        1
176
     1
 40
1.0
176
     1
 90
        8
176
     1
 62
     7
176
     1
 40
1.0
176
     1
 90
        1
176
     1
 90
        6
176
     1
 90
        2
176
     1
 62
     7
176
     1
 90
        5
176
     1
 90
        0
176
     1
 90
        0
176
     1
290
     0
176
     1
 90
        1
176
     1
 40
-50.0
176
     1
 90
        0
176
     1
290
     0
176
     1
290
     1
176
     1
290
     1
176
     1
290
     0
176
     1
290
     0
176
     1
290
     0
176
     1
290
     0
176
     1
290
     0
176
     1
290
     0
176
     1
 90
       50
176
     1
 40
0.0
176
     1
 40
1.0
176
     1
 90
        0
176
     1
 62
    18
176
     1
 90
       50
176
     1
 90
        3
176
     1
 62
     5
420
      255
176
     1
290
     0
176
     1
 90
       50
176
     1
 90
       50
176
     1
 90
       50
176
     1
290
     0
176
     1
 90
       50
176
     1
 62
   256
176
     0
 40
1.0
176
     0
 90
        2
176
     1
  1
strokes_ogs.tif
176
     1
290
     0
176
     1
 40
1.0
176
     1
 40
1.0
176
     1
  0
VISUALSTYLE
  5
AE56
102
{ACAD_REACTORS
330
AE3E
102
}
330
AE3E
100
AcDbVisualStyle
  2
EdgeColorOff
 70
    22
177
     3
291
     1
 70
    58
 90
        2
176
     0
 90
        2
176
     0
 90
        0
176
     0
 90
        0
176
     0
 40
0.6
176
     0
 40
30.0
176
     0
 62
     7
420
 16777215
176
     0
 90
        1
176
     0
 90
        4
176
     0
 62
     7
176
     0
 62
   257
176
     0
 90
        1
176
     0
 90
        1
176
     0
 40
1.0
176
     0
 90
        8
176
     2
 62
     7
176
     0
 40
1.0
176
     0
 90
        1
176
     0
 90
        6
176
     0
 90
        2
176
     0
 62
     7
176
     0
 90
        5
176
     0
 90
        0
176
     0
 90
        0
176
     0
290
     0
176
     0
 90
        1
176
     0
 40
0.0
176
     0
 90
        0
176
     0
290
     0
176
     1
290
     1
176
     1
290
     1
176
     1
290
     0
176
     1
290
     0
176
     1
290
     0
176
     1
290
     0
176
     1
290
     0
176
     1
290
     0
176
     1
 90
       50
176
     0
 40
0.0
176
     0
 40
1.0
176
     0
 90
        0
176
     0
 62
    18
176
     0
 90
       50
176
     0
 90
        3
176
     0
 62
     5
420
      255
176
     0
290
     0
176
     1
 90
       50
176
     0
 90
       50
176
     0
 90
       50
176
     0
290
     0
176
     1
 90
       50
176
     0
 62
   256
176
     0
 40
1.0
176
     0
 90
        2
176
     0
  1
strokes_ogs.tif
176
     0
290
     0
176
     1
 40
1.0
176
     0
 40
1.0
176
     0
  0
VISUALSTYLE
  5
AE4D
102
{ACAD_REACTORS
330
AE3E
102
}
330
AE3E
100
AcDbVisualStyle
  2
Facepattern
 70
    15
177
     3
291
     1
 70
    58
 90
        2
176
     1
 90
        2
176
     1
 90
        0
176
     1
 90
        0
176
     1
 40
0.6
176
     1
 40
30.0
176
     1
 62
     7
420
 16777215
176
     1
 90
        1
176
     1
 90
        4
176
     1
 62
     7
176
     1
 62
   257
176
     1
 90
        1
176
     1
 90
        1
176
     1
 40
1.0
176
     1
 90
        8
176
     1
 62
     7
176
     1
 40
1.0
176
     1
 90
        1
176
     1
 90
        6
176
     1
 90
        2
176
     1
 62
     7
176
     1
 90
        5
176
     1
 90
        0
176
     1
 90
        0
176
     1
290
     0
176
     1
 90
        1
176
     1
 40
0.0
176
     1
 90
        0
176
     1
290
     0
176
     1
290
     1
176
     1
290
     1
176
     1
290
     0
176
     1
290
     0
176
     1
290
     0
176
     1
290
     0
176
     1
290
     0
176
     1
290
     0
176
     1
 90
       50
176
     1
 40
0.0
176
     1
 40
1.0
176
     1
 90
        0
176
     1
 62
    18
176
     1
 90
       50
176
     1
 90
        3
176
     1
 62
     5
420
      255
176
     1
290
     0
176
     1
 90
       50
176
     1
 90
       50
176
     1
 90
       50
176
     1
290
     0
176
     1
 90
       50
176
     1
 62
   256
176
     0
 40
1.0
176
     0
 90
        2
176
     1
  1
strokes_ogs.tif
176
     1
290
     0
176
     1
 40
1.0
176
     1
 40
1.0
176
     1
  0
VISUALSTYLE
  5
AE3F
102
{ACAD_REACTORS
330
AE3E
102
}
330
AE3E
100
AcDbVisualStyle
  2
Flat
 70
     0
177
     3
291
     1
 70
    58
 90
        2
176
     1
 90
        1
176
     1
 90
        1
176
     1
 90
        2
176
     1
 40
0.6
176
     1
 40
30.0
176
     1
 62
     7
420
 16777215
176
     1
 90
        0
176
     1
 90
        0
176
     1
 62
     7
176
     1
 62
   257
176
     1
 90
        1
176
     1
 90
        1
176
     1
 40
1.0
176
     1
 90
        8
176
     1
 62
     7
176
     1
 40
1.0
176
     1
 90
        1
176
     1
 90
        6
176
     1
 90
        2
176
     1
 62
     7
176
     1
 90
        5
176
     1
 90
        0
176
     1
 90
        0
176
     1
290
     0
176
     1
 90
       13
176
     1
 40
0.0
176
     1
 90
        0
176
     1
290
     0
176
     1
290
     1
176
     1
290
     1
176
     1
290
     0
176
     1
290
     0
176
     1
290
     0
176
     1
290
     0
176
     1
290
     0
176
     1
290
     0
176
     1
 90
       50
176
     1
 40
0.0
176
     1
 40
1.0
176
     1
 90
        0
176
     1
 62
    18
176
     1
 90
       50
176
     1
 90
        3
176
     1
 62
     5
420
      255
176
     1
290
     0
176
     1
 90
       50
176
     1
 90
       50
176
     1
 90
       50
176
     1
290
     0
176
     1
 90
       50
176
     1
 62
   256
176
     0
 40
1.0
176
     0
 90
        2
176
     1
  1
strokes_ogs.tif
176
     1
290
     0
176
     1
 40
1.0
176
     1
 40
1.0
176
     1
  0
VISUALSTYLE
  5
AE40
102
{ACAD_REACTORS
330
AE3E
102
}
330
AE3E
100
AcDbVisualStyle
  2
FlatWithEdges
 70
     1
177
     3
291
     1
 70
    58
 90
        2
176
     1
 90
        1
176
     1
 90
        1
176
     1
 90
        2
176
     1
 40
0.6
176
     1
 40
30.0
176
     1
 62
     7
420
 16777215
176
     1
 90
        1
176
     1
 90
        0
176
     1
 62
     7
176
     1
 62
   257
176
     1
 90
        1
176
     1
 90
        1
176
     1
 40
1.0
176
     1
 90
        0
176
     1
 62
   257
176
     1
 40
1.0
176
     1
 90
        1
176
     1
 90
        6
176
     1
 90
        2
176
     1
 62
     7
176
     1
 90
        5
176
     1
 90
        0
176
     1
 90
        0
176
     1
290
     0
176
     1
 90
       13
176
     1
 40
0.0
176
     1
 90
        0
176
     1
290
     0
176
     1
290
     1
176
     1
290
     1
176
     1
290
     0
176
     1
290
     0
176
     1
290
     0
176
     1
290
     0
176
     1
290
     0
176
     1
290
     0
176
     1
 90
       50
176
     1
 40
0.0
176
     1
 40
1.0
176
     1
 90
        0
176
     1
 62
    18
176
     1
 90
       50
176
     1
 90
        3
176
     1
 62
     5
420
      255
176
     1
290
     0
176
     1
 90
       50
176
     1
 90
       50
176
     1
 90
       50
176
     1
290
     0
176
     1
 90
       50
176
     1
 62
   256
176
     0
 40
1.0
176
     0
 90
        2
176
     1
  1
strokes_ogs.tif
176
     1
290
     0
176
     1
 40
1.0
176
     1
 40
1.0
176
     1
  0
VISUALSTYLE
  5
AE41
102
{ACAD_REACTORS
330
AE3E
102
}
330
AE3E
100
AcDbVisualStyle
  2
Gouraud
 70
     2
177
     3
291
     1
 70
    58
 90
        2
176
     1
 90
        2
176
     1
 90
        1
176
     1
 90
        2
176
     1
 40
0.6
176
     1
 40
30.0
176
     1
 62
     7
420
 16777215
176
     1
 90
        0
176
     1
 90
        0
176
     1
 62
     7
176
     1
 62
   257
176
     1
 90
        1
176
     1
 90
        1
176
     1
 40
1.0
176
     1
 90
        0
176
     1
 62
     7
176
     1
 40
1.0
176
     1
 90
        1
176
     1
 90
        6
176
     1
 90
        2
176
     1
 62
     7
176
     1
 90
        5
176
     1
 90
        0
176
     1
 90
        0
176
     1
290
     0
176
     1
 90
       13
176
     1
 40
0.0
176
     1
 90
        0
176
     1
290
     0
176
     1
290
     1
176
     1
290
     1
176
     1
290
     0
176
     1
290
     0
176
     1
290
     0
176
     1
290
     0
176
     1
290
     0
176
     1
290
     0
176
     1
 90
       50
176
     1
 40
0.0
176
     1
 40
1.0
176
     1
 90
        0
176
     1
 62
    18
176
     1
 90
       50
176
     1
 90
        3
176
     1
 62
     5
420
      255
176
     1
290
     0
176
     1
 90
       50
176
     1
 90
       50
176
     1
 90
       50
176
     1
290
     0
176
     1
 90
       50
176
     1
 62
   256
176
     0
 40
1.0
176
     0
 90
        2
176
     1
  1
strokes_ogs.tif
176
     1
290
     0
176
     1
 40
1.0
176
     1
 40
1.0
176
     1
  0
VISUALSTYLE
  5
AE42
102
{ACAD_REACTORS
330
AE3E
102
}
330
AE3E
100
AcDbVisualStyle
  2
GouraudWithEdges
 70
     3
177
     3
291
     1
 70
    58
 90
        2
176
     1
 90
        2
176
     1
 90
        1
176
     1
 90
        2
176
     1
 40
0.6
176
     1
 40
30.0
176
     1
 62
     7
420
 16777215
176
     1
 90
        1
176
     1
 90
        0
176
     1
 62
     7
176
     1
 62
   257
176
     1
 90
        1
176
     1
 90
        1
176
     1
 40
1.0
176
     1
 90
        0
176
     1
 62
   257
176
     1
 40
1.0
176
     1
 90
        1
176
     1
 90
        6
176
     1
 90
        2
176
     1
 62
     7
176
     1
 90
        5
176
     1
 90
        0
176
     1
 90
        0
176
     1
290
     0
176
     1
 90
       13
176
     1
 40
0.0
176
     1
 90
        0
176
     1
290
     0
176
     1
290
     1
176
     1
290
     1
176
     1
290
     0
176
     1
290
     0
176
     1
290
     0
176
     1
290
     0
176
     1
290
     0
176
     1
290
     0
176
     1
 90
       50
176
     1
 40
0.0
176
     1
 40
1.0
176
     1
 90
        0
176
     1
 62
    18
176
     1
 90
       50
176
     1
 90
        3
176
     1
 62
     5
420
      255
176
     1
290
     0
176
     1
 90
       50
176
     1
 90
       50
176
     1
 90
       50
176
     1
290
     0
176
     1
 90
       50
176
     1
 62
   256
176
     0
 40
1.0
176
     0
 90
        2
176
     1
  1
strokes_ogs.tif
176
     1
290
     0
176
     1
 40
1.0
176
     1
 40
1.0
176
     1
  0
VISUALSTYLE
  5
AE46
102
{ACAD_REACTORS
330
AE3E
102
}
330
AE3E
100
AcDbVisualStyle
  2
Hidden
 70
     6
177
     3
291
     0
 70
    58
 90
        1
176
     1
 90
        2
176
     1
 90
        2
176
     1
 90
        0
176
     1
 40
0.6
176
     1
 40
30.0
176
     1
 62
     7
420
 16777215
176
     1
 90
        2
176
     1
 90
        2
176
     1
 62
     7
176
     1
 62
   257
176
     1
 90
        2
176
     1
 90
        1
176
     1
 40
40.0
176
     1
 90
        0
176
     1
 62
   257
176
     1
 40
1.0
176
     1
 90
        1
176
     1
 90
        6
176
     1
 90
        2
176
     1
 62
     7
176
     1
 90
        3
176
     1
 90
        0
176
     1
 90
        0
176
     1
290
     0
176
     1
 90
        1
176
     1
 40
0.0
176
     1
 90
        0
176
     1
290
     0
176
     1
290
     1
176
     1
290
     1
176
     1
290
     0
176
     1
290
     0
176
     1
290
     0
176
     1
290
     0
176
     1
290
     0
176
     1
290
     0
176
     1
 90
       50
176
     1
 40
0.0
176
     1
 40
1.0
176
     1
 90
        0
176
     1
 62
    18
176
     1
 90
       50
176
     1
 90
        3
176
     1
 62
     5
420
      255
176
     1
290
     0
176
     1
 90
       50
176
     1
 90
       50
176
     1
 90
       50
176
     1
290
     0
176
     1
 90
       50
176
     1
 62
   256
176
     0
 40
1.0
176
     0
 90
        2
176
     1
  1
strokes_ogs.tif
176
     1
290
     0
176
     1
 40
1.0
176
     1
 40
1.0
176
     1
  0
VISUALSTYLE
  5
AE54
102
{ACAD_REACTORS
330
AE3E
102
}
330
AE3E
100
AcDbVisualStyle
  2
JitterOff
 70
    20
177
     3
291
     1
 70
    58
 90
        2
176
     0
 90
        2
176
     0
 90
        0
176
     0
 90
        0
176
     0
 40
0.6
176
     0
 40
30.0
176
     0
 62
     7
420
 16777215
176
     0
 90
        1
176
     0
 90
        4
176
     0
 62
     7
176
     0
 62
   257
176
     0
 90
        1
176
     0
 90
        1
176
     0
 40
1.0
176
     0
 90
       10
176
     2
 62
     7
176
     0
 40
1.0
176
     0
 90
        1
176
     0
 90
        6
176
     0
 90
        2
176
     0
 62
     7
176
     0
 90
        5
176
     0
 90
        0
176
     0
 90
        0
176
     0
290
     0
176
     0
 90
        1
176
     0
 40
0.0
176
     0
 90
        0
176
     0
290
     0
176
     1
290
     1
176
     1
290
     1
176
     1
290
     0
176
     1
290
     0
176
     1
290
     0
176
     1
290
     0
176
     1
290
     0
176
     1
290
     0
176
     1
 90
       50
176
     0
 40
0.0
176
     0
 40
1.0
176
     0
 90
        0
176
     0
 62
    18
176
     0
 90
       50
176
     0
 90
        3
176
     0
 62
     5
420
      255
176
     0
290
     0
176
     1
 90
       50
176
     0
 90
       50
176
     0
 90
       50
176
     0
290
     0
176
     1
 90
       50
176
     0
 62
   256
176
     0
 40
1.0
176
     0
 90
        2
176
     0
  1
strokes_ogs.tif
176
     0
290
     0
176
     1
 40
1.0
176
     0
 40
1.0
176
     0
  0
VISUALSTYLE
  5
AE4C
102
{ACAD_REACTORS
330
AE3E
102
}
330
AE3E
100
AcDbVisualStyle
  2
Linepattern
 70
    14
177
     3
291
     1
 70
    58
 90
        2
176
     1
 90
        2
176
     1
 90
        0
176
     1
 90
        0
176
     1
 40
0.6
176
     1
 40
30.0
176
     1
 62
     7
420
 16777215
176
     1
 90
        1
176
     1
 90
        4
176
     1
 62
     7
176
     1
 62
   257
176
     1
 90
        7
176
     1
 90
        7
176
     1
 40
1.0
176
     1
 90
        8
176
     1
 62
     7
176
     1
 40
1.0
176
     1
 90
        1
176
     1
 90
        6
176
     1
 90
        2
176
     1
 62
     7
176
     1
 90
        5
176
     1
 90
        0
176
     1
 90
        0
176
     1
290
     0
176
     1
 90
        1
176
     1
 40
0.0
176
     1
 90
        0
176
     1
290
     0
176
     1
290
     1
176
     1
290
     1
176
     1
290
     0
176
     1
290
     0
176
     1
290
     0
176
     1
290
     0
176
     1
290
     0
176
     1
290
     0
176
     1
 90
       50
176
     1
 40
0.0
176
     1
 40
1.0
176
     1
 90
        0
176
     1
 62
    18
176
     1
 90
       50
176
     1
 90
        3
176
     1
 62
     5
420
      255
176
     1
290
     0
176
     1
 90
       50
176
     1
 90
       50
176
     1
 90
       50
176
     1
290
     0
176
     1
 90
       50
176
     1
 62
   256
176
     0
 40
1.0
176
     0
 90
        2
176
     1
  1
strokes_ogs.tif
176
     1
290
     0
176
     1
 40
1.0
176
     1
 40
1.0
176
     1
  0
VISUALSTYLE
  5
AE55
102
{ACAD_REACTORS
330
AE3E
102
}
330
AE3E
100
AcDbVisualStyle
  2
OverhangOff
 70
    21
177
     3
291
     1
 70
    58
 90
        2
176
     0
 90
        2
176
     0
 90
        0
176
     0
 90
        0
176
     0
 40
0.6
176
     0
 40
30.0
176
     0
 62
     7
420
 16777215
176
     0
 90
        1
176
     0
 90
        4
176
     0
 62
     7
176
     0
 62
   257
176
     0
 90
        1
176
     0
 90
        1
176
     0
 40
1.0
176
     0
 90
        9
176
     2
 62
     7
176
     0
 40
1.0
176
     0
 90
        1
176
     0
 90
        6
176
     0
 90
        2
176
     0
 62
     7
176
     0
 90
        5
176
     0
 90
        0
176
     0
 90
        0
176
     0
290
     0
176
     0
 90
        1
176
     0
 40
0.0
176
     0
 90
        0
176
     0
290
     0
176
     1
290
     1
176
     1
290
     1
176
     1
290
     0
176
     1
290
     0
176
     1
290
     0
176
     1
290
     0
176
     1
290
     0
176
     1
290
     0
176
     1
 90
       50
176
     0
 40
0.0
176
     0
 40
1.0
176
     0
 90
        0
176
     0
 62
    18
176
     0
 90
       50
176
     0
 90
        3
176
     0
 62
     5
420
      255
176
     0
290
     0
176
     1
 90
       50
176
     0
 90
       50
176
     0
 90
       50
176
     0
290
     0
176
     1
 90
       50
176
     0
 62
   256
176
     0
 40
1.0
176
     0
 90
        2
176
     0
  1
strokes_ogs.tif
176
     0
290
     0
176
     1
 40
1.0
176
     0
 40
1.0
176
     0
  0
VISUALSTYLE
  5
AE48
102
{ACAD_REACTORS
330
AE3E
102
}
330
AE3E
100
AcDbVisualStyle
  2
Realistic
 70
     8
177
     3
291
     0
 70
    58
 90
        2
176
     1
 90
        3
176
     1
 90
        0
176
     1
 90
        2
176
     1
 40
0.6
176
     1
 40
30.0
176
     1
 62
     7
420
 16777215
176
     1
 90
        0
176
     1
 90
        0
176
     1
 62
     7
176
     1
 62
   257
176
     1
 90
        1
176
     1
 90
        1
176
     1
 40
1.0
176
     1
 90
        8
176
     1
 62
   257
176
     1
 40
1.0
176
     1
 90
        1
176
     1
 90
        6
176
     1
 90
        2
176
     1
 62
     7
176
     1
 90
        3
176
     1
 90
        0
176
     1
 90
        0
176
     1
290
     0
176
     1
 90
       13
176
     1
 40
0.0
176
     1
 90
        0
176
     1
290
     0
176
     1
290
     1
176
     1
290
     1
176
     1
290
     0
176
     1
290
     0
176
     1
290
     0
176
     1
290
     0
176
     1
290
     0
176
     1
290
     0
176
     1
 90
       50
176
     1
 40
0.0
176
     1
 40
1.0
176
     1
 90
        0
176
     1
 62
    18
176
     1
 90
       50
176
     1
 90
        3
176
     1
 62
     5
420
      255
176
     1
290
     0
176
     1
 90
       50
176
     1
 90
       50
176
     1
 90
       50
176
     1
290
     0
176
     1
 90
       50
176
     1
 62
   256
176
     0
 40
1.0
176
     0
 90
        2
176
     1
  1
strokes_ogs.tif
176
     1
290
     0
176
     1
 40
1.0
176
     1
 40
1.0
176
     1
  0
VISUALSTYLE
  5
AE53
102
{ACAD_REACTORS
330
AE3E
102
}
330
AE3E
100
AcDbVisualStyle
  2
Shaded
 70
    27
177
     3
291
     0
 70
    58
 90
        2
176
     1
 90
        2
176
     1
 90
        1
176
     1
 90
        2
176
     1
 40
0.6
176
     1
 40
30.0
176
     1
 62
     7
420
 16777215
176
     1
 90
        0
176
     1
 90
        4
176
     1
 62
     7
176
     1
 62
   257
176
     1
 90
        1
176
     1
 90
        1
176
     1
 40
1.0
176
     1
 90
        8
176
     1
 62
   257
176
     1
 40
1.0
176
     1
 90
        1
176
     1
 90
        6
176
     1
 90
        2
176
     1
 62
     8
420
  7895160
176
     1
 90
        3
176
     1
 90
        0
176
     1
 90
        0
176
     1
290
     0
176
     1
 90
        5
176
     1
 40
0.0
176
     1
 90
        0
176
     1
290
     0
176
     1
290
     1
176
     1
290
     1
176
     1
290
     0
176
     1
290
     0
176
     1
290
     0
176
     1
290
     0
176
     1
290
     0
176
     1
290
     0
176
     1
 90
       50
176
     1
 40
0.0
176
     1
 40
1.0
176
     1
 90
        0
176
     1
 62
    18
176
     1
 90
       50
176
     1
 90
        3
176
     1
 62
     5
420
      255
176
     1
290
     0
176
     1
 90
       50
176
     1
 90
       50
176
     1
 90
       50
176
     1
290
     0
176
     1
 90
       50
176
     1
 62
   256
176
     0
 40
1.0
176
     0
 90
        2
176
     1
  1
strokes_ogs.tif
176
     1
290
     0
176
     1
 40
1.0
176
     1
 40
1.0
176
     1
  0
VISUALSTYLE
  5
AE52
102
{ACAD_REACTORS
330
AE3E
102
}
330
AE3E
100
AcDbVisualStyle
  2
Shaded with edges
 70
    26
177
     3
291
     0
 70
    58
 90
        2
176
     1
 90
        2
176
     1
 90
        1
176
     1
 90
        2
176
     1
 40
0.6
176
     1
 40
30.0
176
     1
 62
     7
420
 16777215
176
     1
 90
        1
176
     1
 90
        2
176
     1
 62
     7
176
     1
 62
   257
176
     1
 90
        2
176
     1
 90
        1
176
     1
 40
1.0
176
     1
 90
        8
176
     1
 62
   257
176
     1
 40
1.0
176
     1
 90
        1
176
     1
 90
        6
176
     1
 90
        2
176
     1
 62
     7
176
     1
 90
        3
176
     1
 90
        0
176
     1
 90
        0
176
     1
290
     0
176
     1
 90
        5
176
     1
 40
0.0
176
     1
 90
        0
176
     1
290
     0
176
     1
290
     1
176
     1
290
     1
176
     1
290
     0
176
     1
290
     0
176
     1
290
     0
176
     1
290
     0
176
     1
290
     0
176
     1
290
     0
176
     1
 90
       50
176
     1
 40
0.0
176
     1
 40
1.0
176
     1
 90
        0
176
     1
 62
    18
176
     1
 90
       50
176
     1
 90
        3
176
     1
 62
     5
420
      255
176
     1
290
     0
176
     1
 90
       50
176
     1
 90
       50
176
     1
 90
       50
176
     1
290
     0
176
     1
 90
       50
176
     1
 62
   256
176
     0
 40
1.0
176
     0
 90
        2
176
     1
  1
strokes_ogs.tif
176
     1
290
     0
176
     1
 40
1.0
176
     1
 40
1.0
176
     1
  0
VISUALSTYLE
  5
AE4F
102
{ACAD_REACTORS
330
AE3E
102
}
330
AE3E
100
AcDbVisualStyle
  2
Shades of Gray
 70
    23
177
     3
291
     0
 70
    58
 90
        2
176
     1
 90
        2
176
     1
 90
        3
176
     1
 90
        0
176
     1
 40
0.6
176
     1
 40
30.0
176
     1
 62
     7
420
 16777215
176
     1
 90
        2
176
     1
 90
        2
176
     1
 62
     7
176
     1
 62
     7
176
     1
 90
        1
176
     1
 90
        1
176
     1
 40
40.0
176
     1
 90
        8
176
     1
 62
     7
176
     1
 40
1.0
176
     1
 90
        1
176
     1
 90
        6
176
     1
 90
        2
176
     1
 62
     7
176
     1
 90
        3
176
     1
 90
        0
176
     1
 90
        0
176
     1
290
     0
176
     1
 90
        1
176
     1
 40
0.0
176
     1
 90
        0
176
     1
290
     0
176
     1
290
     1
176
     1
290
     1
176
     1
290
     0
176
     1
290
     0
176
     1
290
     0
176
     1
290
     0
176
     1
290
     0
176
     1
290
     0
176
     1
 90
       50
176
     1
 40
0.0
176
     1
 40
1.0
176
     1
 90
        0
176
     1
 62
    18
176
     1
 90
       50
176
     1
 90
        3
176
     1
 62
     5
420
      255
176
     1
290
     0
176
     1
 90
       50
176
     1
 90
       50
176
     1
 90
       50
176
     1
290
     0
176
     1
 90
       50
176
     1
 62
   256
176
     0
 40
1.0
176
     0
 90
        2
176
     1
  1
strokes_ogs.tif
176
     1
290
     0
176
     1
 40
1.0
176
     1
 40
1.0
176
     1
  0
VISUALSTYLE
  5
AE50
102
{ACAD_REACTORS
330
AE3E
102
}
330
AE3E
100
AcDbVisualStyle
  2
Sketchy
 70
    24
177
     3
291
     0
 70
    58
 90
        1
176
     1
 90
        2
176
     1
 90
        2
176
     1
 90
        0
176
     1
 40
0.6
176
     1
 40
30.0
176
     1
 62
     7
420
 16777215
176
     1
 90
        2
176
     1
 90
        2
176
     1
 62
     7
176
     1
 62
     7
176
     1
 90
        1
176
     1
 90
        1
176
     1
 40
40.0
176
     1
 90
       11
176
     1
 62
     7
176
     1
 40
1.0
176
     1
 90
        1
176
     1
 90
        6
176
     1
 90
        2
176
     1
 62
     7
176
     1
 90
        6
176
     1
 90
        0
176
     1
 90
        0
176
     1
290
     0
176
     1
 90
        1
176
     1
 40
0.0
176
     1
 90
        0
176
     1
290
     0
176
     1
290
     1
176
     1
290
     1
176
     1
290
     0
176
     1
290
     0
176
     1
290
     0
176
     1
290
     0
176
     1
290
     0
176
     1
290
     0
176
     1
 90
       50
176
     1
 40
0.0
176
     1
 40
1.0
176
     1
 90
        0
176
     1
 62
    18
176
     1
 90
       50
176
     1
 90
        3
176
     1
 62
     5
420
      255
176
     1
290
     0
176
     1
 90
       50
176
     1
 90
       50
176
     1
 90
       50
176
     1
290
     0
176
     1
 90
       50
176
     1
 62
   256
176
     0
 40
1.0
176
     0
 90
        2
176
     1
  1
strokes_ogs.tif
176
     1
290
     0
176
     1
 40
1.0
176
     1
 40
1.0
176
     1
  0
VISUALSTYLE
  5
AE4B
102
{ACAD_REACTORS
330
AE3E
102
}
330
AE3E
100
AcDbVisualStyle
  2
Thicken
 70
    13
177
     3
291
     1
 70
    58
 90
        2
176
     1
 90
        2
176
     1
 90
        0
176
     1
 90
        0
176
     1
 40
0.6
176
     1
 40
30.0
176
     1
 62
     7
420
 16777215
176
     1
 90
        1
176
     1
 90
        4
176
     1
 62
     7
176
     1
 62
   257
176
     1
 90
        1
176
     1
 90
        1
176
     1
 40
1.0
176
     1
 90
       12
176
     1
 62
     7
176
     1
 40
1.0
176
     1
 90
        1
176
     1
 90
        6
176
     1
 90
        2
176
     1
 62
     7
176
     1
 90
        5
176
     1
 90
        0
176
     1
 90
        0
176
     1
290
     0
176
     1
 90
        1
176
     1
 40
0.0
176
     1
 90
        0
176
     1
290
     0
176
     1
290
     1
176
     1
290
     1
176
     1
290
     0
176
     1
290
     0
176
     1
290
     0
176
     1
290
     0
176
     1
290
     0
176
     1
290
     0
176
     1
 90
       50
176
     1
 40
0.0
176
     1
 40
1.0
176
     1
 90
        0
176
     1
 62
    18
176
     1
 90
       50
176
     1
 90
        3
176
     1
 62
     5
420
      255
176
     1
290
     0
176
     1
 90
       50
176
     1
 90
       50
176
     1
 90
       50
176
     1
290
     0
176
     1
 90
       50
176
     1
 62
   256
176
     0
 40
1.0
176
     0
 90
        2
176
     1
  1
strokes_ogs.tif
176
     1
290
     0
176
     1
 40
1.0
176
     1
 40
1.0
176
     1
  0
VISUALSTYLE
  5
AE45
102
{ACAD_REACTORS
330
AE3E
102
}
330
AE3E
100
AcDbVisualStyle
  2
Wireframe
 70
     5
177
     3
291
     0
 70
    58
 90
        0
176
     1
 90
        2
176
     1
 90
        0
176
     1
 90
        0
176
     1
 40
0.6
176
     1
 40
30.0
176
     1
 62
     7
420
 16777215
176
     1
 90
        1
176
     1
 90
        4
176
     1
 62
     7
176
     1
 62
   257
176
     1
 90
        1
176
     1
 90
        1
176
     1
 40
1.0
176
     1
 90
        0
176
     1
 62
   257
176
     1
 40
1.0
176
     1
 90
        1
176
     1
 90
        6
176
     1
 90
        2
176
     1
 62
     7
176
     1
 90
        3
176
     1
 90
        0
176
     1
 90
        0
176
     1
290
     0
176
     1
 90
        1
176
     1
 40
0.0
176
     1
 90
        0
176
     1
290
     0
176
     1
290
     1
176
     1
290
     1
176
     1
290
     0
176
     1
290
     0
176
     1
290
     0
176
     1
290
     0
176
     1
290
     0
176
     1
290
     0
176
     1
 90
       50
176
     1
 40
0.0
176
     1
 40
1.0
176
     1
 90
        0
176
     1
 62
    18
176
     1
 90
       50
176
     1
 90
        3
176
     1
 62
     5
420
      255
176
     1
290
     0
176
     1
 90
       50
176
     1
 90
       50
176
     1
 90
       50
176
     1
290
     0
176
     1
 90
       50
176
     1
 62
   256
176
     0
 40
1.0
176
     0
 90
        2
176
     1
  1
strokes_ogs.tif
176
     1
290
     0
176
     1
 40
1.0
176
     1
 40
1.0
176
     1
  0
VISUALSTYLE
  5
AE51
102
{ACAD_REACTORS
330
AE3E
102
}
330
AE3E
100
AcDbVisualStyle
  2
X-Ray
 70
    25
177
     3
291
     0
 70
    58
 90
        2
176
     1
 90
        2
176
     1
 90
        1
176
     1
 90
        1
176
     1
 40
0.5
176
     1
 40
30.0
176
     1
 62
     7
420
 16777215
176
     1
 90
        1
176
     1
 90
        0
176
     1
 62
     7
176
     1
 62
   257
176
     1
 90
        1
176
     1
 90
        1
176
     1
 40
1.0
176
     1
 90
        8
176
     1
 62
     7
176
     1
 40
1.0
176
     1
 90
        1
176
     1
 90
        6
176
     1
 90
        2
176
     1
 62
     7
176
     1
 90
        3
176
     1
 90
        0
176
     1
 90
        0
176
     1
290
     0
176
     1
 90
       13
176
     1
 40
0.0
176
     1
 90
        0
176
     1
290
     0
176
     1
290
     1
176
     1
290
     1
176
     1
290
     0
176
     1
290
     0
176
     1
290
     0
176
     1
290
     0
176
     1
290
     0
176
     1
290
     0
176
     1
 90
       50
176
     1
 40
0.0
176
     1
 40
1.0
176
     1
 90
        0
176
     1
 62
    18
176
     1
 90
       50
176
     1
 90
        3
176
     1
 62
     5
420
      255
176
     1
290
     0
176
     1
 90
       50
176
     1
 90
       50
176
     1
 90
       50
176
     1
290
     0
176
     1
 90
       50
176
     1
 62
   256
176
     0
 40
1.0
176
     0
 90
        2
176
     1
  1
strokes_ogs.tif
176
     1
290
     0
176
     1
 40
1.0
176
     1
 40
1.0
176
     1
  0
DICTIONARYVAR
  5
AEE1
102
{ACAD_REACTORS
330
AEDB
102
}
330
AEDB
100
DictionaryVariables
280
     0
  1
1:1
  0
DICTIONARYVAR
  5
AEDD
102
{ACAD_REACTORS
330
AEDB
102
}
330
AEDB
100
DictionaryVariables
280
     0
  1
STANDARD
  0
DICTIONARYVAR
  5
AEDC
102
{ACAD_REACTORS
330
AEDB
102
}
330
AEDB
100
DictionaryVariables
280
     0
  1
STANDARD
  0
DICTIONARYVAR
  5
AEDE
102
{ACAD_REACTORS
330
AEDB
102
}
330
AEDB
100
DictionaryVariables
280
     0
  1
Imperial24
  0
DICTIONARYVAR
  5
AEDF
102
{ACAD_REACTORS
330
AEDB
102
}
330
AEDB
100
DictionaryVariables
280
     0
  1
Imperial24
  0
DICTIONARYVAR
  5
AEE3
102
{ACAD_REACTORS
330
AEDB
102
}
330
AEDB
100
DictionaryVariables
280
     0
  1
1
  0
DICTIONARYVAR
  5
AEE4
102
{ACAD_REACTORS
330
AEDB
102
}
330
AEDB
100
DictionaryVariables
280
     0
  1
15
  0
DICTIONARYVAR
  5
AEE2
102
{ACAD_REACTORS
330
AEDB
102
}
330
AEDB
100
DictionaryVariables
280
     0
  1
0
  0
DICTIONARYVAR
  5
AEE0
102
{ACAD_REACTORS
330
AEDB
102
}
330
AEDB
100
DictionaryVariables
280
     0
  1
0
  0
DICTIONARY
  5
AE2F
330
AE2E
100
AcDbDictionary
280
     1
281
     1
  3
BUMPTILE
360
AE31
  3
DIFFUSETILE
360
AE30
  3
OPACITYTILE
360
AE34
  3
REFLECTIONTILE
360
AE33
  3
REFRACTIONTILE
360
AE35
  3
SPECULARTILE
360
AE32
  0
DICTIONARY
  5
AE27
330
AE26
100
AcDbDictionary
280
     1
281
     1
  3
BUMPTILE
360
AE29
  3
DIFFUSETILE
360
AE28
  3
OPACITYTILE
360
AE2C
  3
REFLECTIONTILE
360
AE2B
  3
REFRACTIONTILE
360
AE2D
  3
SPECULARTILE
360
AE2A
  0
DICTIONARY
  5
AE37
330
AE36
100
AcDbDictionary
280
     1
281
     1
  3
BUMPTILE
360
AE39
  3
DIFFUSETILE
360
AE38
  3
OPACITYTILE
360
AE3C
  3
REFLECTIONTILE
360
AE3B
  3
REFRACTIONTILE
360
AE3D
  3
SPECULARTILE
360
AE3A
  0
DICTIONARY
  5
AEE5
330
AE79
100
AcDbDictionary
280
     1
281
     1
  3
ACAD_ROUNDTRIP_2008_TABLESTYLE_CELLSTYLEMAP
360
AEF7
  0
XRECORD
  5
AE31
102
{ACAD_REACTORS
330
AE2F
102
}
330
AE2F
100
AcDbXrecord
280
     1
270
     1
271
     1
  0
XRECORD
  5
AE30
102
{ACAD_REACTORS
330
AE2F
102
}
330
AE2F
100
AcDbXrecord
280
     1
270
     1
271
     1
  0
XRECORD
  5
AE34
102
{ACAD_REACTORS
330
AE2F
102
}
330
AE2F
100
AcDbXrecord
280
     1
270
     1
271
     1
  0
XRECORD
  5
AE33
102
{ACAD_REACTORS
330
AE2F
102
}
330
AE2F
100
AcDbXrecord
280
     1
270
     1
271
     1
  0
XRECORD
  5
AE35
102
{ACAD_REACTORS
330
AE2F
102
}
330
AE2F
100
AcDbXrecord
280
     1
270
     1
271
     1
  0
XRECORD
  5
AE32
102
{ACAD_REACTORS
330
AE2F
102
}
330
AE2F
100
AcDbXrecord
280
     1
270
     1
271
     1
  0
XRECORD
  5
AE29
102
{ACAD_REACTORS
330
AE27
102
}
330
AE27
100
AcDbXrecord
280
     1
270
     1
271
     1
  0
XRECORD
  5
AE28
102
{ACAD_REACTORS
330
AE27
102
}
330
AE27
100
AcDbXrecord
280
     1
270
     1
271
     1
  0
XRECORD
  5
AE2C
102
{ACAD_REACTORS
330
AE27
102
}
330
AE27
100
AcDbXrecord
280
     1
270
     1
271
     1
  0
XRECORD
  5
AE2B
102
{ACAD_REACTORS
330
AE27
102
}
330
AE27
100
AcDbXrecord
280
     1
270
     1
271
     1
  0
XRECORD
  5
AE2D
102
{ACAD_REACTORS
330
AE27
102
}
330
AE27
100
AcDbXrecord
280
     1
270
     1
271
     1
  0
XRECORD
  5
AE2A
102
{ACAD_REACTORS
330
AE27
102
}
330
AE27
100
AcDbXrecord
280
     1
270
     1
271
     1
  0
XRECORD
  5
AE39
102
{ACAD_REACTORS
330
AE37
102
}
330
AE37
100
AcDbXrecord
280
     1
270
     1
271
     1
  0
XRECORD
  5
AE38
102
{ACAD_REACTORS
330
AE37
102
}
330
AE37
100
AcDbXrecord
280
     1
270
     1
271
     1
  0
XRECORD
  5
AE3C
102
{ACAD_REACTORS
330
AE37
102
}
330
AE37
100
AcDbXrecord
280
     1
270
     1
271
     1
  0
XRECORD
  5
AE3B
102
{ACAD_REACTORS
330
AE37
102
}
330
AE37
100
AcDbXrecord
280
     1
270
     1
271
     1
  0
XRECORD
  5
AE3D
102
{ACAD_REACTORS
330
AE37
102
}
330
AE37
100
AcDbXrecord
280
     1
270
     1
271
     1
  0
XRECORD
  5
AE3A
102
{ACAD_REACTORS
330
AE37
102
}
330
AE37
100
AcDbXrecord
280
     1
270
     1
271
     1
  0
CELLSTYLEMAP
  5
AEF7
102
{ACAD_REACTORS
330
AEE5
102
}
330
AEE5
100
AcDbCellStyleMap
 90
        3
300
CELLSTYLE
  1
TABLEFORMAT_BEGIN
 90
        5
170
     1
 91
        0
 92
    32768
 62
   257
 93
        1
300
CONTENTFORMAT
  1
CONTENTFORMAT_BEGIN
 90
        0
 91
        0
 92
      512
 93
        0
300

 40
0.0
140
1.0
 94
        5
 62
     0
340
AE6A
144
0.25
309
CONTENTFORMAT_END
171
     1
301
MARGIN
  1
CELLMARGIN_BEGIN
 40
0.06
 40
0.06
 40
0.06
 40
0.06
 40
0.18
 40
0.18
309
CELLMARGIN_END
 94
        6
 95
        1
302
GRIDFORMAT
  1
GRIDFORMAT_BEGIN
 90
        0
 91
        1
 62
     0
 92
       -2
340
0
 93
        0
 40
0.045
309
GRIDFORMAT_END
 95
        2
302
GRIDFORMAT
  1
GRIDFORMAT_BEGIN
 90
        0
 91
        1
 62
     0
 92
       -2
340
0
 93
        0
 40
0.045
309
GRIDFORMAT_END
 95
        4
302
GRIDFORMAT
  1
GRIDFORMAT_BEGIN
 90
        0
 91
        1
 62
     0
 92
       -2
340
0
 93
        0
 40
0.045
309
GRIDFORMAT_END
 95
        8
302
GRIDFORMAT
  1
GRIDFORMAT_BEGIN
 90
        0
 91
        1
 62
     0
 92
       -2
340
0
 93
        0
 40
0.045
309
GRIDFORMAT_END
 95
       16
302
GRIDFORMAT
  1
GRIDFORMAT_BEGIN
 90
        0
 91
        1
 62
     0
 92
       -2
340
0
 93
        0
 40
0.045
309
GRIDFORMAT_END
 95
       32
302
GRIDFORMAT
  1
GRIDFORMAT_BEGIN
 90
        0
 91
        1
 62
     0
 92
       -2
340
0
 93
        0
 40
0.045
309
GRIDFORMAT_END
309
TABLEFORMAT_END
  1
CELLSTYLE_BEGIN
 90
        1
 91
        1
300
_TITLE
309
CELLSTYLE_END
300
CELLSTYLE
  1
TABLEFORMAT_BEGIN
 90
        5
170
     1
 91
        0
 92
        0
 62
   257
 93
        1
300
CONTENTFORMAT
  1
CONTENTFORMAT_BEGIN
 90
        0
 91
        0
 92
      512
 93
        0
300

 40
0.0
140
1.0
 94
        5
 62
     0
340
AE6A
144
0.18
309
CONTENTFORMAT_END
171
     1
301
MARGIN
  1
CELLMARGIN_BEGIN
 40
0.06
 40
0.06
 40
0.06
 40
0.06
 40
0.18
 40
0.18
309
CELLMARGIN_END
 94
        6
 95
        1
302
GRIDFORMAT
  1
GRIDFORMAT_BEGIN
 90
        0
 91
        1
 62
     0
 92
       -2
340
0
 93
        0
 40
0.045
309
GRIDFORMAT_END
 95
        2
302
GRIDFORMAT
  1
GRIDFORMAT_BEGIN
 90
        0
 91
        1
 62
     0
 92
       -2
340
0
 93
        0
 40
0.045
309
GRIDFORMAT_END
 95
        4
302
GRIDFORMAT
  1
GRIDFORMAT_BEGIN
 90
        0
 91
        1
 62
     0
 92
       -2
340
0
 93
        0
 40
0.045
309
GRIDFORMAT_END
 95
        8
302
GRIDFORMAT
  1
GRIDFORMAT_BEGIN
 90
        0
 91
        1
 62
     0
 92
       -2
340
0
 93
        0
 40
0.045
309
GRIDFORMAT_END
 95
       16
302
GRIDFORMAT
  1
GRIDFORMAT_BEGIN
 90
        0
 91
        1
 62
     0
 92
       -2
340
0
 93
        0
 40
0.045
309
GRIDFORMAT_END
 95
       32
302
GRIDFORMAT
  1
GRIDFORMAT_BEGIN
 90
        0
 91
        1
 62
     0
 92
       -2
340
0
 93
        0
 40
0.045
309
GRIDFORMAT_END
309
TABLEFORMAT_END
  1
CELLSTYLE_BEGIN
 90
        2
 91
        1
300
_HEADER
309
CELLSTYLE_END
300
CELLSTYLE
  1
TABLEFORMAT_BEGIN
 90
        5
170
     1
 91
        0
 92
        0
 62
   257
 93
        1
300
CONTENTFORMAT
  1
CONTENTFORMAT_BEGIN
 90
        0
 91
        0
 92
      512
 93
        0
300

 40
0.0
140
1.0
 94
        2
 62
     0
340
AE6A
144
0.18
309
CONTENTFORMAT_END
171
     1
301
MARGIN
  1
CELLMARGIN_BEGIN
 40
0.06
 40
0.06
 40
0.06
 40
0.06
 40
0.18
 40
0.18
309
CELLMARGIN_END
 94
        6
 95
        1
302
GRIDFORMAT
  1
GRIDFORMAT_BEGIN
 90
        0
 91
        1
 62
     0
 92
       -2
340
0
 93
        0
 40
0.045
309
GRIDFORMAT_END
 95
        2
302
GRIDFORMAT
  1
GRIDFORMAT_BEGIN
 90
        0
 91
        1
 62
     0
 92
       -2
340
0
 93
        0
 40
0.045
309
GRIDFORMAT_END
 95
        4
302
GRIDFORMAT
  1
GRIDFORMAT_BEGIN
 90
        0
 91
        1
 62
     0
 92
       -2
340
0
 93
        0
 40
0.045
309
GRIDFORMAT_END
 95
        8
302
GRIDFORMAT
  1
GRIDFORMAT_BEGIN
 90
        0
 91
        1
 62
     0
 92
       -2
340
0
 93
        0
 40
0.045
309
GRIDFORMAT_END
 95
       16
302
GRIDFORMAT
  1
GRIDFORMAT_BEGIN
 90
        0
 91
        1
 62
     0
 92
       -2
340
0
 93
        0
 40
0.045
309
GRIDFORMAT_END
 95
       32
302
GRIDFORMAT
  1
GRIDFORMAT_BEGIN
 90
        0
 91
        1
 62
     0
 92
       -2
340
0
 93
        0
 40
0.045
309
GRIDFORMAT_END
309
TABLEFORMAT_END
  1
CELLSTYLE_BEGIN
 90
        3
 91
        2
300
_DATA
309
CELLSTYLE_END
  0
ENDSEC
  0
EOF
