  0
SECTION
  2
HEADER
  9
$ACADVER
  1
AC1009
  9
$INSBASE
 10
0.0
 20
0.0
 30
0.0
  9
$EXTMIN
 10
134.0342016094737119
 20
-101.3246814172597965
 30
-0.0000000349181948
  9
$EXTMAX
 10
3192.9529097977479069
 20
2539.6375495515871989
 30
0.0000000814935746
  9
$LIMMIN
 10
0.0
 20
0.0
  9
$LIMMAX
 10
3000.0
 20
2121.4285714285711038
  9
$ORTHOMODE
 70
     1
  9
$REGENMODE
 70
     1
  9
$FILLMODE
 70
     1
  9
$QTEXTMODE
 70
     0
  9
$MIRRTEXT
 70
     0
  9
$DRAGMODE
 70
     2
  9
$LTSCALE
 40
7.1428571428571423
  9
$OSMODE
 70
  4095
  9
$ATTMODE
 70
     1
  9
$TEXTSIZE
 40
0.2
  9
$TRACEWID
 40
0.05
  9
$TEXTSTYLE
  7
STANDARD
  9
$CLAYER
  8
0
  9
$CELTYPE
  6
BYLAYER
  9
$CECOLOR
 62
   256
  9
$DIMSCALE
 40
1.0
  9
$DIMASZ
 40
0.18
  9
$DIMEXO
 40
0.0625
  9
$DIMDLI
 40
0.38
  9
$DIMRND
 40
0.0
  9
$DIMDLE
 40
0.0
  9
$DIMEXE
 40
0.18
  9
$DIMTP
 40
0.0
  9
$DIMTM
 40
0.0
  9
$DIMTXT
 40
0.18
  9
$DIMCEN
 40
0.09
  9
$DIMTSZ
 40
0.0
  9
$DIMTOL
 70
     0
  9
$DIMLIM
 70
     0
  9
$DIMTIH
 70
     1
  9
$DIMTOH
 70
     1
  9
$DIMSE1
 70
     0
  9
$DIMSE2
 70
     0
  9
$DIMTAD
 70
     0
  9
$DIMZIN
 70
     0
  9
$DIMBLK
  1

  9
$DIMASO
 70
     1
  9
$DIMSHO
 70
     1
  9
$DIMPOST
  1

  9
$DIMAPOST
  1

  9
$DIMALT
 70
     0
  9
$DIMALTD
 70
     2
  9
$DIMALTF
 40
25.3999999999999986
  9
$DIMLFAC
 40
1.0
  9
$DIMTOFL
 70
     0
  9
$DIMTVP
 40
0.0
  9
$DIMTIX
 70
     0
  9
$DIMSOXD
 70
     0
  9
$DIMSAH
 70
     0
  9
$DIMBLK1
  1

  9
$DIMBLK2
  1

  9
$DIMSTYLE
  2
STANDARD
  9
$DIMCLRD
 70
     0
  9
$DIMCLRE
 70
     0
  9
$DIMCLRT
 70
     0
  9
$DIMTFAC
 40
1.0
  9
$DIMGAP
 40
0.09
  9
$LUNITS
 70
     2
  9
$LUPREC
 70
     4
  9
$SKETCHINC
 40
0.1
  9
$FILLETRAD
 40
0.0
  9
$AUNITS
 70
     0
  9
$AUPREC
 70
     0
  9
$MENU
  1
.
  9
$ELEVATION
 40
0.0
  9
$PELEVATION
 40
0.0
  9
$THICKNESS
 40
0.0
  9
$LIMCHECK
 70
     0
  9
$BLIPMODE
 70
     0
  9
$CHAMFERA
 40
0.0
  9
$CHAMFERB
 40
0.0
  9
$SKPOLY
 70
     0
  9
$TDCREATE
 40
2458866.5273032411932945
  9
$TDUPDATE
 40
2458869.6374884261749685
  9
$TDINDWG
 40
0.4204050926
  9
$TDUSRTIMER
 40
0.4204050926
  9
$USRTIMER
 70
     1
  9
$ANGBASE
 50
0.0
  9
$ANGDIR
 70
     0
  9
$PDMODE
 70
     0
  9
$PDSIZE
 40
0.0
  9
$PLINEWID
 40
0.0
  9
$COORDS
 70
     1
  9
$SPLFRAME
 70
     0
  9
$SPLINETYPE
 70
     6
  9
$SPLINESEGS
 70
     8
  9
$ATTDIA
 70
     1
  9
$ATTREQ
 70
     1
  9
$HANDLING
 70
     1
  9
$HANDSEED
  5
234E
  9
$SURFTAB1
 70
     6
  9
$SURFTAB2
 70
     6
  9
$SURFTYPE
 70
     6
  9
$SURFU
 70
     6
  9
$SURFV
 70
     6
  9
$UCSNAME
  2

  9
$UCSORG
 10
0.0
 20
0.0
 30
0.0
  9
$UCSXDIR
 10
1.0
 20
0.0
 30
0.0
  9
$UCSYDIR
 10
0.0
 20
1.0
 30
0.0
  9
$PUCSNAME
  2

  9
$PUCSORG
 10
0.0
 20
0.0
 30
0.0
  9
$PUCSXDIR
 10
1.0
 20
0.0
 30
0.0
  9
$PUCSYDIR
 10
0.0
 20
1.0
 30
0.0
  9
$USERI1
 70
     0
  9
$USERI2
 70
     0
  9
$USERI3
 70
     0
  9
$USERI4
 70
     0
  9
$USERI5
 70
     0
  9
$USERR1
 40
0.0
  9
$USERR2
 40
0.0
  9
$USERR3
 40
0.0
  9
$USERR4
 40
0.0
  9
$USERR5
 40
0.0
  9
$WORLDVIEW
 70
     1
  9
$SHADEDGE
 70
     3
  9
$SHADEDIF
 70
    70
  9
$TILEMODE
 70
     1
  9
$MAXACTVP
 70
    64
  9
$PLIMCHECK
 70
     0
  9
$PEXTMIN
 10
0.0
 20
0.0
 30
0.0
  9
$PEXTMAX
 10
3000.0
 20
2121.4285714285711038
 30
0.0
  9
$PLIMMIN
 10
0.0
 20
0.0
  9
$PLIMMAX
 10
3000.0
 20
2121.4285714285711038
  9
$UNITMODE
 70
     0
  9
$VISRETAIN
 70
     1
  9
$PLINEGEN
 70
     0
  9
$PSLTSCALE
 70
     1
  0
ENDSEC
  0
SECTION
  2
TABLES
  0
TABLE
  2
VPORT
 70
     1
  0
VPORT
  2
*ACTIVE
 70
     0
 10
0.0
 20
0.0
 11
1.0
 21
1.0
 12
1663.4935557036110367
 22
1219.1564340671629907
 13
0.0
 23
0.0
 14
1.0
 24
1.0
 15
0.0
 25
0.0
 16
0.0
 26
0.0
 36
1.0
 17
0.0
 27
0.0
 37
0.0
 40
2658.0006969750970711
 41
2.0
 42
50.0
 43
0.0
 44
0.0
 50
0.0
 51
0.0
 71
     0
 72
 10000
 73
     1
 74
     1
 75
     0
 76
     0
 77
     0
 78
     0
  0
ENDTAB
  0
TABLE
  2
LTYPE
 70
    60
  0
LTYPE
  2
CONTINUOUS
 70
     0
  3
Solid line
 72
    65
 73
     0
 40
0.0
  0
LTYPE
  2
BY_STANDARD
 70
     0
  3
By Standard ____________    ____    ____   _
 72
    65
 73
     6
 40
1.2402999999999991
 49
0.6614
 49
-0.0827
 49
0.1654
 49
-0.0827
 49
0.1654
 49
-0.0827
  0
LTYPE
  2
CHAIN
 70
     0
  3
Chain ____ _ ____ _ ____ _ ____ _ ____ _ ____
 72
    65
 73
     4
 40
0.7087
 49
0.4724000000000001
 49
-0.0591
 49
0.1181
 49
-0.0591
  0
LTYPE
  2
DASH_DOT
 70
     0
  3
Dash dot __ . __ . __ . __ . __ . __ . __ . __
 72
    65
 73
     4
 40
0.37
 49
0.24
 49
-0.06
 49
0.01
 49
-0.06
  0
LTYPE
  2
DOUBLE_DASH_DOT
 70
     0
  3
Double-Dash Dot __ __ . __ __ . __ __ . __ _
 72
    65
 73
     6
 40
0.4398
 49
0.24
 49
-0.06
 49
0.0098
 49
-0.06
 49
0.01
 49
-0.06
  0
LTYPE
  2
DASH_TRIPLE_DOT
 70
     0
  3
Dash Triple-Dot _ . . . _ . . . _ . . . _
 72
    65
 73
     8
 40
0.51
 49
0.24
 49
-0.06
 49
0.01
 49
-0.06
 49
0.01
 49
-0.06
 49
0.01
 49
-0.06
  0
LTYPE
  2
DASHED
 70
     0
  3
Dashed __ __ __ __ __ __ __ __ __ __ __ __ __ _
 72
    65
 73
     2
 40
0.2067
 49
0.1654
 49
-0.0413
  0
LTYPE
  2
DASH_DOUBLE_DOT
 70
     0
  3
Dash Double-Dot __ . . __ . . __ . . __ . .
 72
    65
 73
     6
 40
0.4398
 49
0.24
 49
-0.06
 49
0.0098
 49
-0.06
 49
0.01
 49
-0.06
  0
LTYPE
  2
DASHED_SPACE
 70
     0
  3
Dashed Space __ __ __ __ __ __ __ __ __ __ __ _
 72
    65
 73
     2
 40
0.2067
 49
0.1654
 49
-0.0413
  0
LTYPE
  2
DOTTED
 70
     0
  3
Dotted . . . . . . . . . . . . . . . . . . . . 
 72
    65
 73
     2
 40
0.0482
 49
0.0069
 49
-0.0413
  0
LTYPE
  2
DOUBLE_DASH_CHAIN
 70
     0
  3
Double-Dash Chain ______  __  __  ______  __  _
 72
    65
 73
     6
 40
1.2402999999999991
 49
0.6614
 49
-0.0827
 49
0.1654
 49
-0.0827
 49
0.1654
 49
-0.0827
  0
LTYPE
  2
DOUBLE_DASH_DOUBLE_DOT
 70
     0
  3
Double-Dash Double-dot _ _ . . _ _ . . _
 72
    65
 73
     8
 40
0.7400000000000001
 49
0.24
 49
-0.06
 49
0.24
 49
-0.06
 49
0.01
 49
-0.06
 49
0.01
 49
-0.06
  0
LTYPE
  2
DOUBLE_DASH_TRIPLE_DOT
 70
     0
  3
Double Dash Triple Dot __ __ . . . __ __ . .
 72
    65
 73
    10
 40
0.8100000000000001
 49
0.24
 49
-0.06
 49
0.24
 49
-0.06
 49
0.01
 49
-0.06
 49
0.01
 49
-0.06
 49
0.01
 49
-0.06
  0
LTYPE
  2
LONG_DASH_DOTTED
 70
     0
  3
Long Dash Dotted ____ . ____ . ____ . ____ . _
 72
    65
 73
     4
 40
0.3543
 49
0.2362
 49
-0.0295
 49
0.0591
 49
-0.0295
  0
LTYPE
  2
LONG_DASH_DOUBLE_DOT
 70
     0
  3
Long Dash Double Dot ________  .  .  ________  
 72
    65
 73
     6
 40
0.6799999999999999
 49
0.48
 49
-0.06
 49
0.01
 49
-0.06
 49
0.01
 49
-0.06
  0
LTYPE
  2
LONG_DASH_TRIPLE_DOT
 70
     0
  3
Long Dash Triple Dot ____ ... ____ ... ____
 72
    65
 73
     8
 40
0.3689
 49
0.2362
 49
-0.0295
 49
0.0049
 49
-0.0295
 49
0.0049
 49
-0.0295
 49
0.0049
 49
-0.0295
  0
LTYPE
  2
BORDER
 70
     0
  3
Border __ __ . __ __ . __ __ . __ __ . __ __ .
 72
    65
 73
     6
 40
1.75
 49
0.5
 49
-0.25
 49
0.5
 49
-0.25
 49
0.0
 49
-0.25
  0
LTYPE
  2
BORDER2
 70
     0
  3
Border (.5x) __.__.__.__.__.__.__.__.__.__.__.
 72
    65
 73
     6
 40
0.875
 49
0.25
 49
-0.125
 49
0.25
 49
-0.125
 49
0.0
 49
-0.125
  0
LTYPE
  2
BORDERX2
 70
     0
  3
Border (2x) ____  ____  .  ____  ____  .  ___
 72
    65
 73
     6
 40
3.5
 49
1.0
 49
-0.5
 49
1.0
 49
-0.5
 49
0.0
 49
-0.5
  0
LTYPE
  2
CENTER
 70
     0
  3
Center ____ _ ____ _ ____ _ ____ _ ____ _ ____
 72
    65
 73
     4
 40
2.0
 49
1.25
 49
-0.25
 49
0.25
 49
-0.25
  0
LTYPE
  2
CENTER2
 70
     0
  3
Center (.5x) ___ _ ___ _ ___ _ ___ _ ___ _ ___
 72
    65
 73
     4
 40
1.125
 49
0.75
 49
-0.125
 49
0.125
 49
-0.125
  0
LTYPE
  2
CENTERX2
 70
     0
  3
Center (2x) ________  __  ________  __  _____
 72
    65
 73
     4
 40
4.0
 49
2.5
 49
-0.5
 49
0.5
 49
-0.5
  0
LTYPE
  2
DASHDOT2
 70
     0
  3
Dash dot (.5x) _._._._._._._._._._._._._._._.
 72
    65
 73
     4
 40
0.5
 49
0.25
 49
-0.125
 49
0.0
 49
-0.125
  0
LTYPE
  2
DASHDOTX2
 70
     0
  3
Dash dot (2x) ____  .  ____  .  ____  .  ___
 72
    65
 73
     4
 40
2.0
 49
1.0
 49
-0.5
 49
0.0
 49
-0.5
  0
LTYPE
  2
DASHED2
 70
     0
  3
Dashed (.5x) _ _ _ _ _ _ _ _ _ _ _ _ _ _ _ _ _
 72
    65
 73
     2
 40
0.375
 49
0.25
 49
-0.125
  0
LTYPE
  2
DASHEDX2
 70
     0
  3
Dashed (2x) ____  ____  ____  ____  ____  ___
 72
    65
 73
     2
 40
1.5
 49
1.0
 49
-0.5
  0
LTYPE
  2
DIVIDE
 70
     0
  3
Divide ____ . . ____ . . ____ . . ____ . . ____
 72
    65
 73
     6
 40
1.25
 49
0.5
 49
-0.25
 49
0.0
 49
-0.25
 49
0.0
 49
-0.25
  0
LTYPE
  2
DIVIDE2
 70
     0
  3
Divide (.5x) __..__..__..__..__..__..__..__.._
 72
    65
 73
     6
 40
0.625
 49
0.25
 49
-0.125
 49
0.0
 49
-0.125
 49
0.0
 49
-0.125
  0
LTYPE
  2
DIVIDEX2
 70
     0
  3
Divide (2x) ________  .  .  ________  .  .  _
 72
    65
 73
     6
 40
2.5
 49
1.0
 49
-0.5
 49
0.0
 49
-0.5
 49
0.0
 49
-0.5
  0
LTYPE
  2
DOT
 70
     0
  3
Dot . . . . . . . . . . . . . . . . . . . . . .
 72
    65
 73
     2
 40
0.25
 49
0.0
 49
-0.25
  0
LTYPE
  2
DOT2
 70
     0
  3
Dot (.5x) .....................................
 72
    65
 73
     2
 40
0.125
 49
0.0
 49
-0.125
  0
LTYPE
  2
DOTX2
 70
     0
  3
Dot (2x) .  .  .  .  .  .  .  .  .  .  .  .  . 
 72
    65
 73
     2
 40
0.5
 49
0.0
 49
-0.5
  0
LTYPE
  2
HIDDEN
 70
     0
  3
Hidden __ __ __ __ __ __ __ __ __ __ __ __ __ _
 72
    65
 73
     2
 40
0.375
 49
0.25
 49
-0.125
  0
LTYPE
  2
HIDDEN2
 70
     0
  3
Hidden (.5x) _ _ _ _ _ _ _ _ _ _ _ _ _ _ _ _ _
 72
    65
 73
     2
 40
0.1875
 49
0.125
 49
-0.0625
  0
LTYPE
  2
HIDDENX2
 70
     0
  3
Hidden (2x) ____ ____ ____ ____ ____ ____ ____
 72
    65
 73
     2
 40
0.75
 49
0.5
 49
-0.25
  0
LTYPE
  2
PHANTOM
 70
     0
  3
Phantom ______  __  __  ______  __  __  ______
 72
    65
 73
     6
 40
2.5
 49
1.25
 49
-0.25
 49
0.25
 49
-0.25
 49
0.25
 49
-0.25
  0
LTYPE
  2
PHANTOM2
 70
     0
  3
Phantom (.5x) ___ _ _ ___ _ _ ___ _ _ ___ _ _
 72
    65
 73
     6
 40
1.25
 49
0.625
 49
-0.125
 49
0.125
 49
-0.125
 49
0.125
 49
-0.125
  0
LTYPE
  2
PHANTOMX2
 70
     0
  3
Phantom (2x) ____________    ____    ____   _
 72
    65
 73
     6
 40
5.0
 49
2.5
 49
-0.5
 49
0.5
 49
-0.5
 49
0.5
 49
-0.5
  0
LTYPE
  2
ACAD_ISO02W100
 70
     0
  3
ISO dash __ __ __ __ __ __ __ __ __ __ __ __ __
 72
    65
 73
     2
 40
0.59
 49
0.47
 49
-0.12
  0
LTYPE
  2
ACAD_ISO03W100
 70
     0
  3
ISO dash space __    __    __    __    __    __
 72
    65
 73
     2
 40
1.179999999999999
 49
0.47
 49
-0.71
  0
LTYPE
  2
ACAD_ISO04W100
 70
     0
  3
ISO long-dash dot ____ . ____ . ____ . ____ . _
 72
    65
 73
     4
 40
1.179999999999999
 49
0.9399999999999998
 49
-0.12
 49
0.0
 49
-0.12
  0
LTYPE
  2
ACAD_ISO05W100
 70
     0
  3
ISO long-dash double-dot ____ .. ____ .. ____ .
 72
    65
 73
     6
 40
1.2999999999999989
 49
0.9399999999999998
 49
-0.12
 49
0.0
 49
-0.12
 49
0.0
 49
-0.12
  0
LTYPE
  2
ACAD_ISO06W100
 70
     0
  3
ISO long-dash triple-dot ____ ... ____ ... ____
 72
    65
 73
     8
 40
1.419999999999999
 49
0.9399999999999998
 49
-0.12
 49
0.0
 49
-0.12
 49
0.0
 49
-0.12
 49
0.0
 49
-0.12
  0
LTYPE
  2
ACAD_ISO07W100
 70
     0
  3
ISO dot . . . . . . . . . . . . . . . . . . . .
 72
    65
 73
     2
 40
0.12
 49
0.0
 49
-0.12
  0
LTYPE
  2
ACAD_ISO08W100
 70
     0
  3
ISO long-dash short-dash ____ __ ____ __ ____ _
 72
    65
 73
     4
 40
0.95
 49
0.47
 49
-0.12
 49
0.24
 49
-0.12
  0
LTYPE
  2
ACAD_ISO09W100
 70
     0
  3
ISO long-dash double-short-dash ____ __ __ ____
 72
    65
 73
     6
 40
1.3100000000000001
 49
0.47
 49
-0.12
 49
0.24
 49
-0.12
 49
0.24
 49
-0.12
  0
LTYPE
  2
ACAD_ISO10W100
 70
     0
  3
ISO dash dot __ . __ . __ . __ . __ . __ . __ .
 72
    65
 73
     4
 40
0.71
 49
0.47
 49
-0.12
 49
0.0
 49
-0.12
  0
LTYPE
  2
ACAD_ISO11W100
 70
     0
  3
ISO double-dash dot __ __ . __ __ . __ __ . __ 
 72
    65
 73
     6
 40
1.2999999999999989
 49
0.47
 49
-0.12
 49
0.47
 49
-0.12
 49
0.0
 49
-0.12
  0
LTYPE
  2
ACAD_ISO12W100
 70
     0
  3
ISO dash double-dot __ . . __ . . __ . . __ . .
 72
    65
 73
     6
 40
0.8299999999999998
 49
0.47
 49
-0.12
 49
0.0
 49
-0.12
 49
0.0
 49
-0.12
  0
LTYPE
  2
ACAD_ISO13W100
 70
     0
  3
ISO double-dash double-dot __ __ . . __ __ . . 
 72
    65
 73
     8
 40
1.419999999999999
 49
0.47
 49
-0.12
 49
0.47
 49
-0.12
 49
0.0
 49
-0.12
 49
0.0
 49
-0.12
  0
LTYPE
  2
ACAD_ISO14W100
 70
     0
  3
ISO dash triple-dot __ . . . __ . . . __ . . . 
 72
    65
 73
     8
 40
0.95
 49
0.47
 49
-0.12
 49
0.0
 49
-0.12
 49
0.0
 49
-0.12
 49
0.0
 49
-0.12
  0
LTYPE
  2
ACAD_ISO15W100
 70
     0
  3
ISO double-dash triple-dot __ __ . . . __ __ . 
 72
    65
 73
    10
 40
1.5399999999999989
 49
0.47
 49
-0.12
 49
0.47
 49
-0.12
 49
0.0
 49
-0.12
 49
0.0
 49
-0.12
 49
0.0
 49
-0.12
  0
LTYPE
  2
FENCELINE1
 70
     0
  3
Fenceline circle ----0-----0----0-----0----0---
 72
    65
 73
     4
 40
1.45
 49
0.25
 49
-0.1
 49
-0.1
 49
1.0
  0
LTYPE
  2
FENCELINE2
 70
     0
  3
Fenceline square ----[]-----[]----[]-----[]----
 72
    65
 73
     4
 40
1.45
 49
0.25
 49
-0.1
 49
-0.1
 49
1.0
  0
LTYPE
  2
TRACKS
 70
     0
  3
Tracks -|-|-|-|-|-|-|-|-|-|-|-|-|-|-|-|-|-|-|-|
 72
    65
 73
     2
 40
0.3
 49
0.15
 49
0.15
  0
LTYPE
  2
BATTING
 70
     0
  3
Batting SSSSSSSSSSSSSSSSSSSSSSSSSSSSSSSSSSSSSSS
 72
    65
 73
     4
 40
0.4001000000000001
 49
0.0001
 49
-0.1
 49
-0.2
 49
-0.1
  0
LTYPE
  2
HOT_WATER_SUPPLY
 70
     0
  3
Hot water supply ---- HW ---- HW ---- HW ----
 72
    65
 73
     3
 40
0.9
 49
0.5
 49
-0.2
 49
-0.2
  0
LTYPE
  2
GAS_LINE
 70
     0
  3
Gas line ----GAS----GAS----GAS----GAS----GAS---
 72
    65
 73
     3
 40
0.95
 49
0.5
 49
-0.2
 49
-0.25
  0
LTYPE
  2
ZIGZAG
 70
     0
  3
Zig zag /\/\/\/\/\/\/\/\/\/\/\/\/\/\/\/\/\/\/\/
 72
    65
 73
     4
 40
0.8001000000000001
 49
0.0001
 49
-0.2
 49
-0.4
 49
-0.2
  0
ENDTAB
  0
TABLE
  2
LAYER
 70
     8
  0
LAYER
  2
0
 70
     0
 62
     7
  6
CONTINUOUS
  0
LAYER
  2
OUTLINE
 70
     0
 62
     7
  6
CONTINUOUS
  0
LAYER
  2
SKETCH_GEOMETRY__ANSI_
 70
     0
 62
     7
  6
CONTINUOUS
  0
LAYER
  2
DIMENSION
 70
     0
 62
     7
  6
CONTINUOUS
  0
LAYER
  2
SYMBOL
 70
     0
 62
     7
  6
CONTINUOUS
  0
LAYER
  2
VISIBLE
 70
     0
 62
     7
  6
CONTINUOUS
  0
LAYER
  2
DEFPOINTS
 70
     0
 62
     7
  6
CONTINUOUS
  0
LAYER
  2
CLEAR
 70
     0
 62
     1
  6
PHANTOM
  0
ENDTAB
  0
TABLE
  2
STYLE
 70
    17
  0
STYLE
  2
STANDARD
 70
     0
 40
0.0
 41
1.0
 50
0.0
 71
     0
 42
0.2
  3
txt
  4

  0
STYLE
  2
ANNOTATIVE
 70
     0
 40
0.0
 41
1.0
 50
0.0
 71
     0
 42
0.2
  3
txt
  4

  0
STYLE
  2

 70
     1
 40
0.0
 41
1.0
 50
0.0
 71
     0
 42
0.2
  3
ltypeshp.shx
  4

  0
STYLE
  2
BEND_NUMBERS
 70
     0
 40
0.0
 41
1.0
 50
0.0
 71
     0
 42
0.2
  3
txt
  4

  0
STYLE
  2
COLUMN_HEADER_TEXT
 70
     0
 40
0.0
 41
1.0
 50
0.0
 71
     0
 42
0.2
  3
txt
  4

  0
STYLE
  2
COPY_OF_COPY_OF_NOTE_TEXT
 70
     0
 40
0.0
 41
1.0
 50
0.0
 71
     0
 42
0.2
  3
txt
  4

  0
STYLE
  2
COPY_OF_NOTE_TEXT
 70
     0
 40
0.0
 41
1.0
 50
0.0
 71
     0
 42
0.2
  3
txt
  4

  0
STYLE
  2
LABEL_TEXT
 70
     0
 40
0.0
 41
1.0
 50
0.0
 71
     0
 42
0.2
  3
txt
  4

  0
STYLE
  2
LABEL_TEXT__ISO_
 70
     0
 40
0.0
 41
1.0
 50
0.0
 71
     0
 42
0.2
  3
txt
  4

  0
STYLE
  2
NOTE_TEXT
 70
     0
 40
0.0
 41
1.0
 50
0.0
 71
     0
 42
0.2
  3
txt
  4

  0
STYLE
  2
NOTE_TEXT__ISO_
 70
     0
 40
0.0
 41
1.0
 50
0.0
 71
     0
 42
0.2
  3
txt
  4

  0
STYLE
  2
TITLEBLOCK_1
 70
     0
 40
0.0
 41
1.0
 50
0.0
 71
     0
 42
0.2
  3
txt
  4

  0
STYLE
  2
TITLEBLOCK_2
 70
     0
 40
0.0
 41
1.0
 50
0.0
 71
     0
 42
0.2
  3
txt
  4

  0
STYLE
  2
TITLE3
 70
     0
 40
40.0
 41
1.0
 50
0.0
 71
     0
 42
40.0
  3
SIMPLEX.shx
  4

  0
STYLE
  2
SIMPLEX
 70
     0
 40
40.0
 41
1.0
 50
0.0
 71
     0
 42
25.0
  3
SIMPLEX
  4

  0
STYLE
  2
TITLE5
 70
     0
 40
50.0
 41
1.0
 50
0.0
 71
     0
 42
50.0
  3
SIMPLEX.shx
  4

  0
STYLE
  2
MTXPL_TAHOMA
 70
     0
 40
0.0
 41
1.0
 50
0.0
 71
     0
 42
0.2
  3
txt
  4

  0
ENDTAB
  0
TABLE
  2
VIEW
 70
    20
  0
ENDTAB
  0
TABLE
  2
UCS
 70
     0
  0
ENDTAB
  0
TABLE
  2
APPID
 70
     7
  0
APPID
  2
ACAD
 70
     0
  0
APPID
  2
ACADANNOTATIVE
 70
     0
  0
APPID
  2
ACAD_NAV_VCDISPLAY
 70
     0
  0
APPID
  2
ACAD_PSEXT
 70
     0
  0
APPID
  2
ACAD_EXEMPT_FROM_CAD_STANDARDS
 70
     0
  0
APPID
  2
ACADANNOMONITORALERTICONDI
 70
     0
  0
APPID
  2
ACAD_MLEADERVER
 70
     0
  0
ENDTAB
  0
TABLE
  2
DIMSTYLE
 70
    33
  0
DIMSTYLE
  2
STANDARD
 70
     0
  3

  4

  5

  6

  7

 40
1.0
 41
0.18
 42
0.0625
 43
0.38
 44
0.18
 45
0.0
 46
0.0
 47
0.0
 48
0.0
140
0.18
141
0.09
142
0.0
143
25.3999999999999986
144
1.0
145
0.0
146
1.0
147
0.09
 71
     0
 72
     0
 73
     1
 74
     1
 75
     0
 76
     0
 77
     0
 78
     0
170
     0
171
     2
172
     0
173
     0
174
     0
175
     0
176
     0
177
     0
178
     0
  0
DIMSTYLE
  2
ANNOTATIVE
 70
     0
  3

  4

  5

  6

  7

 40
1.0
 41
0.18
 42
0.0625
 43
0.38
 44
0.18
 45
0.0
 46
0.0
 47
0.0
 48
0.0
140
0.18
141
0.09
142
0.0
143
25.3999999999999986
144
1.0
145
0.0
146
1.0
147
0.09
 71
     0
 72
     0
 73
     1
 74
     1
 75
     0
 76
     0
 77
     0
 78
     0
170
     0
171
     2
172
     0
173
     0
174
     0
175
     0
176
     0
177
     0
178
     0
  0
DIMSTYLE
  2
BEND_NOTES_NO_RAD
 70
     0
  3

  4

  5

  6

  7

 40
7.1428571428571423
 41
2.5
 42
1.600199999999999
 43
5.9999999999999991
 44
3.1749999999999989
 45
0.00000001
 46
10.0
 47
0.0
 48
0.0
140
3.0500001907348628
141
0.09
142
0.0
143
1.0
144
1.0
145
0.0
146
0.9993442296981812
147
0.8
 71
     0
 72
     0
 73
     0
 74
     1
 75
     0
 76
     0
 77
     0
 78
     8
170
     0
171
     1
172
     0
173
     0
174
     0
175
     0
176
   256
177
   256
178
   256
  0
DIMSTYLE
  2
BEND_NOTES_NO_RAD$7
 70
     0
  3

  4

  5

  6

  7

 40
7.1428571428571423
 41
2.5
 42
1.600199999999999
 43
5.9999999999999991
 44
3.1749999999999989
 45
0.00000001
 46
10.0
 47
0.0
 48
0.0
140
3.0500001907348628
141
0.09
142
0.0
143
1.0
144
1.0
145
0.0
146
0.9993442296981812
147
0.8
 71
     0
 72
     0
 73
     0
 74
     1
 75
     0
 76
     0
 77
     0
 78
     8
170
     0
171
     1
172
     0
173
     0
174
     0
175
     0
176
   256
177
   256
178
   256
  0
DIMSTYLE
  2
BEND_NOTES_WITH_RAD
 70
     0
  3

  4

  5

  6

  7

 40
7.1428571428571423
 41
2.5
 42
1.600199999999999
 43
5.9999999999999991
 44
3.1749999999999989
 45
0.00000001
 46
10.0
 47
0.0
 48
0.0
140
3.0500001907348628
141
0.09
142
0.0
143
1.0
144
1.0
145
0.0
146
0.9993442296981812
147
0.8
 71
     0
 72
     0
 73
     0
 74
     1
 75
     0
 76
     0
 77
     0
 78
     8
170
     0
171
     1
172
     0
173
     0
174
     0
175
     0
176
   256
177
   256
178
   256
  0
DIMSTYLE
  2
BEND_NOTES_WITH_RAD$7
 70
     0
  3

  4

  5

  6

  7

 40
7.1428571428571423
 41
2.5
 42
1.600199999999999
 43
5.9999999999999991
 44
3.1749999999999989
 45
0.00000001
 46
10.0
 47
0.0
 48
0.0
140
3.0500001907348628
141
0.09
142
0.0
143
1.0
144
1.0
145
0.0
146
0.9993442296981812
147
0.8
 71
     0
 72
     0
 73
     0
 74
     1
 75
     0
 76
     0
 77
     0
 78
     8
170
     0
171
     1
172
     0
173
     0
174
     0
175
     0
176
   256
177
   256
178
   256
  0
DIMSTYLE
  2
BEND_NUMBERS
 70
     0
  3

  4

  5

  6

  7

 40
7.1428571428571423
 41
2.5
 42
1.600199999999999
 43
5.9999999999999991
 44
3.1749999999999989
 45
0.00000001
 46
10.0
 47
0.0
 48
0.0
140
3.0480000972747798
141
0.09
142
0.0
143
1.0
144
1.0
145
0.0
146
1.0
147
0.8
 71
     0
 72
     0
 73
     0
 74
     1
 75
     0
 76
     0
 77
     0
 78
     8
170
     0
171
     1
172
     0
173
     0
174
     0
175
     0
176
   256
177
   256
178
     5
  0
DIMSTYLE
  2
BEND_NUMBERS$7
 70
     0
  3

  4

  5

  6

  7

 40
7.1428571428571423
 41
2.5
 42
1.600199999999999
 43
5.9999999999999991
 44
3.1749999999999989
 45
0.00000001
 46
10.0
 47
0.0
 48
0.0
140
3.0480000972747798
141
0.09
142
0.0
143
1.0
144
1.0
145
0.0
146
1.0
147
0.8
 71
     0
 72
     0
 73
     0
 74
     1
 75
     0
 76
     0
 77
     0
 78
     8
170
     0
171
     1
172
     0
173
     0
174
     0
175
     0
176
   256
177
   256
178
     5
  0
DIMSTYLE
  2
DEFAULT
 70
     0
  3

  4

  5

  6

  7

 40
7.1428571428571423
 41
2.5
 42
1.600199999999999
 43
5.9999999999999991
 44
3.1749999999999989
 45
0.00000001
 46
10.0
 47
0.0
 48
0.0
140
3.0500001907348628
141
0.09
142
0.0
143
1.0
144
1.0
145
0.0
146
0.9993442296981812
147
0.8
 71
     0
 72
     0
 73
     0
 74
     1
 75
     0
 76
     0
 77
     0
 78
     0
170
     0
171
     1
172
     0
173
     0
174
     0
175
     0
176
   256
177
   256
178
   256
  0
DIMSTYLE
  2
DEFAULT$7
 70
     0
  3

  4

  5

  6

  7

 40
7.1428571428571423
 41
2.5
 42
1.600199999999999
 43
5.9999999999999991
 44
3.1749999999999989
 45
0.00000001
 46
10.0
 47
0.0
 48
0.0
140
3.0500001907348628
141
0.09
142
0.0
143
1.0
144
1.0
145
0.0
146
0.9993442296981812
147
0.8
 71
     0
 72
     0
 73
     0
 74
     1
 75
     0
 76
     0
 77
     0
 78
     0
170
     0
171
     1
172
     0
173
     0
174
     0
175
     0
176
   256
177
   256
178
   256
  0
DIMSTYLE
  2
DEFAULT_-_METHOD_1B__ISO_
 70
     0
  3

  4

  5

  6

  7

 40
7.1428571428571423
 41
2.5
 42
0.0
 43
5.9999999999999991
 44
3.1749999999999989
 45
0.00000001
 46
10.0
 47
0.0
 48
0.0
140
3.5
141
0.09
142
0.0
143
0.03937
144
1.0
145
0.0
146
1.0
147
0.762
 71
     0
 72
     0
 73
     0
 74
     1
 75
     0
 76
     0
 77
     1
 78
     8
170
     0
171
     3
172
     1
173
     0
174
     0
175
     0
176
   256
177
   256
178
   256
  0
DIMSTYLE
  2
DEFAULT_-_METHOD_1B__ISO_$
 70
     0
  3

  4

  5

  6

  7

 40
7.1428571428571423
 41
2.5
 42
0.0
 43
5.9999999999999991
 44
3.1749999999999989
 45
0.00000001
 46
10.0
 47
0.0
 48
0.0
140
3.5
141
0.09
142
0.0
143
0.03937
144
1.0
145
0.0
146
1.0
147
0.762
 71
     0
 72
     0
 73
     0
 74
     1
 75
     0
 76
     0
 77
     1
 78
     8
170
     0
171
     3
172
     1
173
     0
174
     0
175
     0
176
   256
177
   256
178
   256
  0
DIMSTYLE
  2
DEFAULT_-_METHOD_2A__ISO_
 70
     0
  3

  4

  5

  6

  7

 40
7.1428571428571423
 41
2.5
 42
0.0
 43
5.9999999999999991
 44
3.1749999999999989
 45
0.00000001
 46
10.0
 47
0.0
 48
0.0
140
3.5
141
0.09
142
0.0
143
0.03937
144
1.0
145
0.0
146
1.0
147
0.762
 71
     0
 72
     0
 73
     1
 74
     1
 75
     0
 76
     0
 77
     1
 78
     8
170
     0
171
     3
172
     1
173
     0
174
     0
175
     0
176
   256
177
   256
178
   256
  0
DIMSTYLE
  2
DEFAULT_-_METHOD_2A__ISO_$
 70
     0
  3

  4

  5

  6

  7

 40
7.1428571428571423
 41
2.5
 42
0.0
 43
5.9999999999999991
 44
3.1749999999999989
 45
0.00000001
 46
10.0
 47
0.0
 48
0.0
140
3.5
141
0.09
142
0.0
143
0.03937
144
1.0
145
0.0
146
1.0
147
0.762
 71
     0
 72
     0
 73
     1
 74
     1
 75
     0
 76
     0
 77
     1
 78
     8
170
     0
171
     3
172
     1
173
     0
174
     0
175
     0
176
   256
177
   256
178
   256
  0
DIMSTYLE
  2
DEFAULT_-_METHOD_2B__ISO_
 70
     0
  3

  4

  5

  6

  7

 40
7.1428571428571423
 41
2.5
 42
0.0
 43
5.9999999999999991
 44
3.1749999999999989
 45
0.00000001
 46
10.0
 47
0.0
 48
0.0
140
3.5
141
0.09
142
0.0
143
0.03937
144
1.0
145
0.0
146
1.0
147
0.762
 71
     0
 72
     0
 73
     1
 74
     1
 75
     0
 76
     0
 77
     1
 78
     8
170
     0
171
     3
172
     1
173
     0
174
     0
175
     0
176
   256
177
   256
178
   256
  0
DIMSTYLE
  2
DEFAULT_-_METHOD_2B__ISO_$
 70
     0
  3

  4

  5

  6

  7

 40
7.1428571428571423
 41
2.5
 42
0.0
 43
5.9999999999999991
 44
3.1749999999999989
 45
0.00000001
 46
10.0
 47
0.0
 48
0.0
140
3.5
141
0.09
142
0.0
143
0.03937
144
1.0
145
0.0
146
1.0
147
0.762
 71
     0
 72
     0
 73
     1
 74
     1
 75
     0
 76
     0
 77
     1
 78
     8
170
     0
171
     3
172
     1
173
     0
174
     0
175
     0
176
   256
177
   256
178
   256
  0
DIMSTYLE
  2
DEFAULT_-_MM__IN___ISO_
 70
     0
  3

  4
 in
  5

  6

  7

 40
7.1428571428571423
 41
2.5
 42
0.0
 43
5.9999999999999991
 44
3.1749999999999989
 45
0.00000001
 46
10.0
 47
0.0
 48
0.0
140
3.5
141
0.09
142
0.0
143
0.03937
144
1.0
145
0.0
146
1.0
147
0.762
 71
     0
 72
     0
 73
     0
 74
     0
 75
     0
 76
     0
 77
     1
 78
     8
170
     1
171
     3
172
     1
173
     0
174
     0
175
     0
176
   256
177
   256
178
   256
  0
DIMSTYLE
  2
DEFAULT_-_MM__IN___ISO_$7
 70
     0
  3

  4
 in
  5

  6

  7

 40
7.1428571428571423
 41
2.5
 42
0.0
 43
5.9999999999999991
 44
3.1749999999999989
 45
0.00000001
 46
10.0
 47
0.0
 48
0.0
140
3.5
141
0.09
142
0.0
143
0.03937
144
1.0
145
0.0
146
1.0
147
0.762
 71
     0
 72
     0
 73
     0
 74
     0
 75
     0
 76
     0
 77
     1
 78
     8
170
     1
171
     3
172
     1
173
     0
174
     0
175
     0
176
   256
177
   256
178
   256
  0
DIMSTYLE
  2
DEFAULT__ISO_
 70
     0
  3

  4

  5

  6

  7

 40
7.1428571428571423
 41
2.5
 42
0.0
 43
5.9999999999999991
 44
3.1749999999999989
 45
0.00000001
 46
10.0
 47
0.0
 48
0.0
140
3.5
141
0.09
142
0.0
143
0.03937
144
1.0
145
0.0
146
1.0014857053756709
147
0.762
 71
     0
 72
     0
 73
     0
 74
     0
 75
     0
 76
     0
 77
     1
 78
     0
170
     0
171
     3
172
     1
173
     0
174
     0
175
     0
176
   256
177
   256
178
   256
  0
DIMSTYLE
  2
DEFAULT__ISO_$7
 70
     0
  3

  4

  5

  6

  7

 40
7.1428571428571423
 41
2.5
 42
0.0
 43
5.9999999999999991
 44
3.1749999999999989
 45
0.00000001
 46
10.0
 47
0.0
 48
0.0
140
3.5
141
0.09
142
0.0
143
0.03937
144
1.0
145
0.0
146
1.0014857053756709
147
0.762
 71
     0
 72
     0
 73
     0
 74
     0
 75
     0
 76
     0
 77
     1
 78
     0
170
     0
171
     3
172
     1
173
     0
174
     0
175
     0
176
   256
177
   256
178
   256
  0
DIMSTYLE
  2
FOLDED
 70
     0
  3

  4

  5

  6

  7

 40
7.1428571428571423
 41
2.5
 42
1.600199999999999
 43
5.9999999999999991
 44
3.1749999999999989
 45
0.00000001
 46
10.0
 47
0.0
 48
0.0
140
3.0500001907348628
141
0.09
142
0.0
143
1.0
144
1.0
145
0.0
146
0.9993442296981812
147
-0.8
 71
     0
 72
     0
 73
     0
 74
     1
 75
     0
 76
     0
 77
     0
 78
     0
170
     0
171
     1
172
     0
173
     0
174
     0
175
     0
176
   256
177
   256
178
   256
  0
DIMSTYLE
  2
FOLDED$7
 70
     0
  3

  4

  5

  6

  7

 40
7.1428571428571423
 41
2.5
 42
1.600199999999999
 43
5.9999999999999991
 44
3.1749999999999989
 45
0.00000001
 46
10.0
 47
0.0
 48
0.0
140
3.0500001907348628
141
0.09
142
0.0
143
1.0
144
1.0
145
0.0
146
0.9993442296981812
147
-0.8
 71
     0
 72
     0
 73
     0
 74
     1
 75
     0
 76
     0
 77
     0
 78
     0
170
     0
171
     1
172
     0
173
     0
174
     0
175
     0
176
   256
177
   256
178
   256
  0
DIMSTYLE
  2
MISCELLANEOUS_OBJECT__ISO_
 70
     0
  3

  4

  5

  6

  7

 40
7.1428571428571423
 41
2.5
 42
0.0
 43
5.9999999999999991
 44
3.1749999999999989
 45
0.00000001
 46
10.0
 47
0.0
 48
0.0
140
5.25
141
0.09
142
0.0
143
0.03937
144
1.0
145
0.0
146
0.6676571965217591
147
0.762
 71
     0
 72
     0
 73
     0
 74
     0
 75
     0
 76
     0
 77
     1
 78
     0
170
     0
171
     3
172
     1
173
     0
174
     0
175
     0
176
   256
177
   256
178
   256
  0
DIMSTYLE
  2
MISCELLANEOUS_OBJECT__ISO0
 70
     0
  3

  4

  5

  6

  7

 40
7.1428571428571423
 41
5.0
 42
0.0
 43
5.9999999999999991
 44
3.1749999999999989
 45
0.00000001
 46
10.0
 47
0.0
 48
0.0
140
5.25
141
0.09
142
0.0
143
0.03937
144
1.0
145
0.0
146
0.6676571965217591
147
0.762
 71
     0
 72
     0
 73
     0
 74
     0
 75
     0
 76
     0
 77
     1
 78
     0
170
     0
171
     3
172
     1
173
     0
174
     0
175
     0
176
   256
177
   256
178
   256
  0
DIMSTYLE
  2
OUTSIDE_DIMENSION
 70
     0
  3

  4

  5

  6

  7

 40
7.1428571428571423
 41
2.5
 42
1.600199999999999
 43
5.9999999999999991
 44
3.1749999999999989
 45
0.00000001
 46
10.0
 47
0.0
 48
0.0
140
3.0500001907348628
141
0.09
142
0.0
143
1.0
144
1.0
145
0.0
146
0.9993442296981812
147
0.8
 71
     0
 72
     0
 73
     0
 74
     1
 75
     0
 76
     0
 77
     0
 78
     0
170
     0
171
     1
172
     0
173
     0
174
     0
175
     0
176
   256
177
   256
178
   256
  0
DIMSTYLE
  2
OUTSIDE_DIMENSION$7
 70
     0
  3

  4

  5

  6

  7

 40
7.1428571428571423
 41
2.5
 42
1.600199999999999
 43
5.9999999999999991
 44
3.1749999999999989
 45
0.00000001
 46
10.0
 47
0.0
 48
0.0
140
3.0500001907348628
141
0.09
142
0.0
143
1.0
144
1.0
145
0.0
146
0.9993442296981812
147
0.8
 71
     0
 72
     0
 73
     0
 74
     1
 75
     0
 76
     0
 77
     0
 78
     0
170
     0
171
     1
172
     0
173
     0
174
     0
175
     0
176
   256
177
   256
178
   256
  0
DIMSTYLE
  2
PIPEWORK
 70
     0
  3

  4

  5

  6

  7

 40
7.1428571428571423
 41
2.5
 42
1.600199999999999
 43
5.9999999999999991
 44
3.1749999999999989
 45
0.00000001
 46
10.0
 47
0.0
 48
0.0
140
3.0500001907348628
141
0.09
142
0.0
143
1.0
144
1.0
145
0.0
146
0.9993442296981812
147
0.8
 71
     0
 72
     0
 73
     0
 74
     1
 75
     0
 76
     0
 77
     0
 78
     8
170
     0
171
     1
172
     0
173
     0
174
     0
175
     0
176
   256
177
   256
178
   256
  0
DIMSTYLE
  2
PIPEWORK$7
 70
     0
  3

  4

  5

  6

  7

 40
7.1428571428571423
 41
2.5
 42
1.600199999999999
 43
5.9999999999999991
 44
3.1749999999999989
 45
0.00000001
 46
10.0
 47
0.0
 48
0.0
140
3.0500001907348628
141
0.09
142
0.0
143
1.0
144
1.0
145
0.0
146
0.9993442296981812
147
0.8
 71
     0
 72
     0
 73
     0
 74
     1
 75
     0
 76
     0
 77
     0
 78
     8
170
     0
171
     1
172
     0
173
     0
174
     0
175
     0
176
   256
177
   256
178
   256
  0
DIMSTYLE
  2
ALTERNATE
 70
     0
  3

  4

  5
CLOSED
  6

  7

 40
7.1428571428571423
 41
2.489200115203857
 42
0.0625
 43
0.38
 44
0.18
 45
0.0
 46
0.0
 47
0.0
 48
0.0
140
0.18
141
0.09
142
0.0
143
25.3999999999999986
144
1.0
145
0.0
146
1.0
147
0.09
 71
     0
 72
     0
 73
     1
 74
     1
 75
     0
 76
     0
 77
     0
 78
     0
170
     0
171
     2
172
     0
173
     0
174
     0
175
     0
176
     0
177
     0
178
     0
  0
DIMSTYLE
  2
ALTERNATE__ISO_
 70
     0
  3

  4

  5
CLOSED
  6

  7

 40
7.1428571428571423
 41
2.5
 42
0.0625
 43
0.38
 44
0.18
 45
0.0
 46
0.0
 47
0.0
 48
0.0
140
0.18
141
0.09
142
0.0
143
25.3999999999999986
144
1.0
145
0.0
146
1.0
147
0.09
 71
     0
 72
     0
 73
     1
 74
     1
 75
     0
 76
     0
 77
     0
 78
     0
170
     0
171
     2
172
     0
173
     0
174
     0
175
     0
176
     0
177
     0
178
     0
  0
DIMSTYLE
  2
DATUM
 70
     0
  3

  4

  5
CLOSED
  6

  7

 40
7.1428571428571423
 41
2.489200115203857
 42
0.0625
 43
0.38
 44
0.18
 45
0.0
 46
0.0
 47
0.0
 48
0.0
140
0.18
141
0.09
142
0.0
143
25.3999999999999986
144
1.0
145
0.0
146
1.0
147
0.09
 71
     0
 72
     0
 73
     1
 74
     1
 75
     0
 76
     0
 77
     0
 78
     0
170
     0
171
     2
172
     0
173
     0
174
     0
175
     0
176
     0
177
     0
178
     0
  0
DIMSTYLE
  2
DATUM__ISO_
 70
     0
  3

  4

  5
CLOSED
  6

  7

 40
7.1428571428571423
 41
2.5
 42
0.0625
 43
0.38
 44
0.18
 45
0.0
 46
0.0
 47
0.0
 48
0.0
140
0.18
141
0.09
142
0.0
143
25.3999999999999986
144
1.0
145
0.0
146
1.0
147
0.09
 71
     0
 72
     0
 73
     1
 74
     1
 75
     0
 76
     0
 77
     0
 78
     0
170
     0
171
     2
172
     0
173
     0
174
     0
175
     0
176
     0
177
     0
178
     0
  0
DIMSTYLE
  2
LARGE
 70
     0
  3

  4

  5
CLOSED
  6

  7

 40
7.1428571428571423
 41
4.978400230407714
 42
0.0625
 43
0.38
 44
0.18
 45
0.0
 46
0.0
 47
0.0
 48
0.0
140
0.18
141
0.09
142
0.0
143
25.3999999999999986
144
1.0
145
0.0
146
1.0
147
0.09
 71
     0
 72
     0
 73
     1
 74
     1
 75
     0
 76
     0
 77
     0
 78
     0
170
     0
171
     2
172
     0
173
     0
174
     0
175
     0
176
     0
177
     0
178
     0
  0
ENDTAB
  0
ENDSEC
  0
SECTION
  2
BLOCKS
  0
BLOCK
  8
0
  2
$MODEL_SPACE
 70
     0
 10
0.0
 20
0.0
 30
0.0
  3
$MODEL_SPACE
  1

  0
ENDBLK
  5
72
  8
0
  0
BLOCK
 67
     1
  8
0
  2
$PAPER_SPACE
 70
     0
 10
0.0
 20
0.0
 30
0.0
  3
$PAPER_SPACE
  1

  0
ENDBLK
  5
6E
 67
     1
  8
0
  0
BLOCK
  8
0
  2
AIR_FLOW_ARROW
 70
     0
 10
0.0
 20
0.0
 30
0.0
  3
AIR_FLOW_ARROW
  1

  0
INSERT
  5
7D
  8
OUTLINE
  6
CONTINUOUS
  2
*U28
 10
0.0
 20
0.0
 30
0.0
1001
ACAD
1002
{
1000
R14_HATCH_DATA
1000
7D
1011
1.0
1021
0.0
1031
0.0
1021
0.0
1031
0.0
1011
0.0
1021
0.0
1031
0.0
1021
1.0
1031
0.0
1011
0.0
1021
0.0
1031
0.0
1021
0.0
1031
1.0
1040
0.0
1010
0.0
1020
0.0
1030
1.0
1000
SOLID
1070
     1
1070
     0
1071
        1
1071
        1
1071
        3
1070
     1
1040
0.0
1040
-5.8677570360447362
1040
-1.171875
1040
1.1634929639552629
1070
     1
1040
-1.171875
1040
1.1634929639552629
1040
1.171875
1040
1.1634929639552629
1070
     1
1040
1.171875
1040
1.1634929639552629
1040
0.0
1040
-5.8677570360447362
1071
        0
1070
     0
1070
     1
1071
        1
1040
0.0
1040
0.0
1040
0.0
1002
}
  0
LINE
  5
7F
  8
SKETCH_GEOMETRY__ANSI_
 10
1.171875
 20
1.1634929639552629
 30
0.0
 11
0.0
 21
-5.8677570360447362
 31
0.0
  0
LINE
  5
81
  8
SKETCH_GEOMETRY__ANSI_
 10
0.0
 20
-5.8677570360447362
 30
0.0
 11
-1.171875
 21
1.1634929639552629
 31
0.0
  0
LINE
  5
82
  8
SKETCH_GEOMETRY__ANSI_
 10
-1.171875
 20
1.1634929639552629
 30
0.0
 11
1.171875
 21
1.1634929639552629
 31
0.0
  0
LINE
  5
83
  8
OUTLINE
 10
0.0
 20
1.157503906667898
 30
0.0
 11
0.0
 21
5.8677570360447362
 31
0.0
  0
ENDBLK
  5
84
  8
0
  0
BLOCK
  8
0
  2
FILLED-1
 70
     0
 10
0.0
 20
0.0
 30
0.0
  3
FILLED-1
  1

  0
LINE
  5
125
  8
0
 62
     0
 10
-1.0
 20
0.0
 30
0.0
 11
0.0
 21
0.0
 31
0.0
  0
POLYLINE
  5
127
  8
0
 62
     0
 66
     1
 10
0.0
 20
0.0
 30
0.0
 70
   128
  0
VERTEX
  5
128
  8
0
 62
     0
 10
-1.0
 20
-0.1
 30
0.0
  0
VERTEX
  5
129
  8
0
 62
     0
 10
0.0
 20
0.0
 30
0.0
  0
VERTEX
  5
12B
  8
0
 62
     0
 10
-1.0
 20
0.1
 30
0.0
  0
VERTEX
  5
12C
  8
0
 62
     0
 10
-1.0
 20
-0.1
 30
0.0
  0
SEQEND
  5
12A
  8
0
 62
     0
  0
SOLID
  5
12D
  8
0
 62
     0
 10
-1.0
 20
-0.1
 30
0.0
 11
0.0
 21
0.0
 31
0.0
 12
-1.0
 22
0.1
 32
0.0
 13
-1.0
 23
-0.1
 33
0.0
  0
LINE
  5
12E
  8
0
 62
     0
 10
-1.0
 20
-0.1
 30
0.0
 11
0.0
 21
0.0
 31
0.0
  0
LINE
  5
12F
  8
0
 62
     0
 10
0.0
 20
0.0
 30
0.0
 11
-1.0
 21
0.1
 31
0.0
  0
LINE
  5
130
  8
0
 62
     0
 10
-1.0
 20
0.1
 30
0.0
 11
-1.0
 21
-0.1
 31
0.0
  0
ENDBLK
  5
124
  8
0
  0
BLOCK
  8
0
  2
_CLOSED
 70
     0
 10
0.0
 20
0.0
 30
0.0
  3
_CLOSED
  1

  0
LINE
  5
139
  8
0
  6
BYBLOCK
 62
     0
 10
-1.0
 20
0.1666666666666666
 30
0.0
 11
0.0
 21
0.0
 31
0.0
  0
LINE
  5
13A
  8
0
  6
BYBLOCK
 62
     0
 10
0.0
 20
0.0
 30
0.0
 11
-1.0
 21
-0.1666666666666666
 31
0.0
  0
LINE
  5
13B
  8
0
  6
BYBLOCK
 62
     0
 10
-1.0
 20
0.1666666666666666
 30
0.0
 11
-1.0
 21
-0.1666666666666666
 31
0.0
  0
LINE
  5
13C
  8
0
  6
BYBLOCK
 62
     0
 10
0.0
 20
0.0
 30
0.0
 11
-1.0
 21
0.0
 31
0.0
  0
ENDBLK
  5
13E
  8
0
  0
BLOCK
  8
0
  2
DATUMFILLED45
 70
     0
 10
0.0
 20
0.0
 30
0.0
  3
DATUMFILLED45
  1

  0
POLYLINE
  5
143
  8
0
 62
     0
 66
     1
 10
0.0
 20
0.0
 30
0.0
 70
   128
  0
VERTEX
  5
144
  8
0
 62
     0
 10
0.0
 20
1.0
 30
0.0
  0
VERTEX
  5
145
  8
0
 62
     0
 10
0.0
 20
-1.0
 30
0.0
  0
VERTEX
  5
147
  8
0
 62
     0
 10
-1.0
 20
0.0
 30
0.0
  0
VERTEX
  5
148
  8
0
 62
     0
 10
0.0
 20
1.0
 30
0.0
  0
SEQEND
  5
146
  8
0
 62
     0
  0
SOLID
  5
149
  8
0
 62
     0
 10
0.0
 20
1.0
 30
0.0
 11
0.0
 21
-1.0
 31
0.0
 12
-1.0
 22
0.0
 32
0.0
 13
0.0
 23
1.0
 33
0.0
  0
ENDBLK
  5
142
  8
0
  0
BLOCK
  8
0
  2
*D5
 70
     1
 10
0.0
 20
0.0
 30
0.0
  3
*D5
  1

  0
LINE
  5
1D29
  8
DIMENSION
 10
686.6560587391298895
 20
130.8798393976784951
 30
0.0
 11
686.6560587391298895
 21
58.5809054114737293
 31
0.0
  0
LINE
  5
1D2A
  8
DIMENSION
 10
1131.5560587391280478
 20
130.8798393976776993
 30
0.0
 11
1131.5560587391280478
 21
58.5809054114737293
 31
0.0
  0
LINE
  5
1D2B
  8
DIMENSION
 10
704.5132015962727792
 20
81.259476840045167
 30
0.0
 11
772.6047707750127529
 21
81.259476840045167
 31
0.0
  0
LINE
  5
1D2C
  8
DIMENSION
 10
1113.6989158819849308
 20
81.259476840045167
 30
0.0
 11
1025.607346703247913
 21
81.259476840045167
 31
0.0
  0
SOLID
  5
1D2D
  8
DIMENSION
 10
704.5132015962727792
 20
84.2356673162356344
 30
0.0
 11
704.5132015962727792
 21
78.2832863638546854
 31
0.0
 12
686.6560587391298895
 22
81.259476840045167
 32
0.0
 13
686.6560587391298895
 23
81.259476840045167
 33
0.0
  0
SOLID
  5
1D2E
  8
DIMENSION
 10
1113.6989158819849308
 20
84.2356673162356344
 30
0.0
 11
1113.6989158819849308
 21
78.2832863638546854
 31
0.0
 12
1131.5560587391280478
 22
81.259476840045167
 32
0.0
 13
1131.5560587391280478
 23
81.259476840045167
 33
0.0
  0
INSERT
  5
1D2F
  8
0
  2
*U54
 10
0.0
 20
0.0
 30
0.0
  0
POINT
  5
1D30
  8
DEFPOINTS
 62
     0
 10
686.6560587391298895
 20
142.3098393976785871
 30
0.0
  0
POINT
  5
1D31
  8
DEFPOINTS
 62
     0
 10
1131.5560587391280478
 20
142.3098393976777061
 30
0.0
  0
POINT
  5
1D32
  8
DEFPOINTS
 62
     0
 10
1131.5560587391280478
 20
81.259476840045167
 30
0.0
  0
ENDBLK
  5
A57
  8
0
  0
BLOCK
  8
0
  2
*D6
 70
     1
 10
0.0
 20
0.0
 30
0.0
  3
*D6
  1

  0
LINE
  5
1CA4
  8
0
 10
1801.8444514311729563
 20
130.8798393976776993
 30
0.0
 11
1801.8444514311729563
 21
58.580905411475463
 31
0.0
  0
LINE
  5
1CA5
  8
0
 10
2331.7444514311728199
 20
130.8798393976776993
 30
0.0
 11
2331.7444514311728199
 21
58.580905411475463
 31
0.0
  0
LINE
  5
1CA6
  8
0
 10
1819.7015942883160733
 20
81.2594768400468865
 30
0.0
 11
1940.9076694442210282
 21
81.2594768400468865
 31
0.0
  0
LINE
  5
1CA7
  8
0
 10
2313.8873085740310671
 20
81.2594768400468865
 30
0.0
 11
2192.6812334181249753
 21
81.2594768400468865
 31
0.0
  0
SOLID
  5
1CA8
  8
0
 10
1819.7015942883160733
 20
84.2356673162373539
 30
0.0
 11
1819.7015942883160733
 21
78.2832863638564049
 31
0.0
 12
1801.8444514311729563
 22
81.2594768400468865
 32
0.0
 13
1801.8444514311729563
 23
81.2594768400468865
 33
0.0
  0
SOLID
  5
1CA9
  8
0
 10
2313.8873085740310671
 20
84.2356673162373539
 30
0.0
 11
2313.8873085740310671
 21
78.2832863638564049
 31
0.0
 12
2331.7444514311728199
 22
81.2594768400468865
 32
0.0
 13
2331.7444514311728199
 23
81.2594768400468865
 33
0.0
  0
INSERT
  5
1CAA
  8
0
  2
*U44
 10
0.0
 20
0.0
 30
0.0
  0
POINT
  5
1CAB
  8
DEFPOINTS
 62
     0
 10
1801.8444514311729563
 20
142.3098393976777061
 30
0.0
  0
POINT
  5
1CAC
  8
DEFPOINTS
 62
     0
 10
2331.7444514311728199
 20
142.3098393976777061
 30
0.0
  0
POINT
  5
1CAD
  8
DEFPOINTS
 62
     0
 10
2331.7444514311728199
 20
81.2594768400468865
 30
0.0
  0
ENDBLK
  5
B4C
  8
0
  0
BLOCK
  8
0
  2
*D7
 70
     1
 10
0.0
 20
0.0
 30
0.0
  3
*D7
  1

  0
LINE
  5
D27
  8
DIMENSION
 10
1798.2944514311850526
 20
1231.9898393976779971
 30
0.0
 11
1798.2944514311850526
 21
1314.6669822548210504
 31
0.0
  0
LINE
  5
D28
  8
DIMENSION
 10
1873.2944514311709554
 20
1267.9898393976779971
 30
0.0
 11
1873.2944514311709554
 21
1314.6669822548210504
 31
0.0
  0
LINE
  5
D29
  8
DIMENSION
 10
1855.4373085740280658
 20
1291.9884108262499467
 30
0.0
 11
1816.1515942883279422
 21
1291.9884108262499467
 31
0.0
  0
LINE
  5
D2A
  8
DIMENSION
 10
1798.2944514311850526
 20
1291.9884108262499467
 30
0.0
 11
1777.2103628098529953
 21
1291.9884108262499467
 31
0.0
  0
SOLID
  5
D2B
  8
DIMENSION
 10
1855.4373085740280658
 20
1294.9646013024400872
 30
0.0
 11
1855.4373085740280658
 21
1289.0122203500588967
 31
0.0
 12
1873.2944514311709554
 22
1291.9884108262499467
 32
0.0
 13
1873.2944514311709554
 23
1291.9884108262499467
 33
0.0
  0
SOLID
  5
D2C
  8
DIMENSION
 10
1816.1515942883279422
 20
1294.9646013024400872
 30
0.0
 11
1816.1515942883279422
 21
1289.0122203500588967
 31
0.0
 12
1798.2944514311850526
 22
1291.9884108262499467
 32
0.0
 13
1798.2944514311850526
 23
1291.9884108262499467
 33
0.0
  0
INSERT
  5
D2D
  8
0
  2
*U29
 10
0.0
 20
0.0
 30
0.0
  0
POINT
  5
D2E
  8
DEFPOINTS
 62
     0
 10
1798.2944514311850526
 20
1220.5598393976779334
 30
0.0
  0
POINT
  5
D2F
  8
DEFPOINTS
 62
     0
 10
1873.2944514311709554
 20
1256.5598393976779334
 30
0.0
  0
POINT
  5
D30
  8
DEFPOINTS
 62
     0
 10
1873.2944514311709554
 20
1291.9884108262499467
 30
0.0
  0
ENDBLK
  5
C40
  8
0
  0
BLOCK
  8
0
  2
*D8
 70
     1
 10
0.0
 20
0.0
 30
0.0
  3
*D8
  1

  0
LINE
  5
E1B
  8
DIMENSION
 10
1948.2944514311709554
 20
1267.9898393976779971
 30
0.0
 11
1948.2944514311709554
 21
1351.6169822548019965
 31
0.0
  0
LINE
  5
E1C
  8
DIMENSION
 10
1798.2944514311850526
 20
1231.9898393976779971
 30
0.0
 11
1798.2944514311850526
 21
1351.6169822548019965
 31
0.0
  0
LINE
  5
E1D
  8
DIMENSION
 10
1930.4373085740280658
 20
1328.9384108262308928
 30
0.0
 11
1901.2845946739639658
 21
1328.9384108262308928
 31
0.0
  0
LINE
  5
E1E
  8
DIMENSION
 10
1816.1515942883279422
 20
1328.9384108262308928
 30
0.0
 11
1845.3043081883920422
 21
1328.9384108262308928
 31
0.0
  0
SOLID
  5
E1F
  8
DIMENSION
 10
1930.4373085740280658
 20
1331.9146013024219428
 30
0.0
 11
1930.4373085740280658
 21
1325.9622203500409796
 31
0.0
 12
1948.2944514311709554
 22
1328.9384108262308928
 32
0.0
 13
1948.2944514311709554
 23
1328.9384108262308928
 33
0.0
  0
SOLID
  5
E20
  8
DIMENSION
 10
1816.1515942883279422
 20
1331.9146013024219428
 30
0.0
 11
1816.1515942883279422
 21
1325.9622203500409796
 31
0.0
 12
1798.2944514311850526
 22
1328.9384108262308928
 32
0.0
 13
1798.2944514311850526
 23
1328.9384108262308928
 33
0.0
  0
INSERT
  5
E21
  8
0
  2
*U30
 10
0.0
 20
0.0
 30
0.0
  0
POINT
  5
E22
  8
DEFPOINTS
 62
     0
 10
1948.2944514311709554
 20
1256.5598393976779334
 30
0.0
  0
POINT
  5
E23
  8
DEFPOINTS
 62
     0
 10
1798.2944514311850526
 20
1220.5598393976779334
 30
0.0
  0
POINT
  5
E24
  8
DEFPOINTS
 62
     0
 10
1798.2944514311850526
 20
1328.9384108262308928
 30
0.0
  0
ENDBLK
  5
D34
  8
0
  0
BLOCK
  8
0
  2
*D9
 70
     1
 10
0.0
 20
0.0
 30
0.0
  3
*D9
  1

  0
LINE
  5
1CDB
  8
DIMENSION
 10
2335.2944514311861894
 20
1231.9898393976779971
 30
0.0
 11
2335.2944514311861894
 21
1350.716982254821005
 31
0.0
  0
LINE
  5
1CDC
  8
DIMENSION
 10
2308.0944514311418061
 20
1269.1398393976780881
 30
0.0
 11
2308.0944514311418061
 21
1350.716982254821005
 31
0.0
  0
LINE
  5
1CDD
  8
DIMENSION
 10
2290.2373085739991438
 20
1328.0384108262489917
 30
0.0
 11
2272.3801657168560268
 21
1328.0384108262489917
 31
0.0
  0
LINE
  5
1CDE
  8
DIMENSION
 10
2353.1515942883288517
 20
1328.0384108262489917
 30
0.0
 11
2374.0674251038699367
 21
1328.0384108262489917
 31
0.0
  0
SOLID
  5
1CDF
  8
DIMENSION
 10
2290.2373085739991438
 20
1331.0146013024400418
 30
0.0
 11
2290.2373085739991438
 21
1325.0622203500590786
 31
0.0
 12
2308.0944514311418061
 22
1328.0384108262489917
 32
0.0
 13
2308.0944514311418061
 23
1328.0384108262489917
 33
0.0
  0
SOLID
  5
1CE0
  8
DIMENSION
 10
2353.1515942883288517
 20
1331.0146013024400418
 30
0.0
 11
2353.1515942883288517
 21
1325.0622203500590786
 31
0.0
 12
2335.2944514311861894
 22
1328.0384108262489917
 32
0.0
 13
2335.2944514311861894
 23
1328.0384108262489917
 33
0.0
  0
INSERT
  5
1CE1
  8
0
  2
*U46
 10
0.0
 20
0.0
 30
0.0
  0
POINT
  5
1CE2
  8
DEFPOINTS
 62
     0
 10
2335.2944514311861894
 20
1220.559839397677024
 30
0.0
  0
POINT
  5
1CE3
  8
DEFPOINTS
 62
     0
 10
2308.0944514311418061
 20
1257.7098393976780244
 30
0.0
  0
POINT
  5
1CE4
  8
DEFPOINTS
 62
     0
 10
2308.0944514311418061
 20
1328.0384108262489917
 30
0.0
  0
ENDBLK
  5
E28
  8
0
  0
BLOCK
  8
0
  2
*D10
 70
     1
 10
0.0
 20
0.0
 30
0.0
  3
*D10
  1

  0
LINE
  5
1003
  8
DIMENSION
 10
2308.0944514311418061
 20
1269.1398393976780881
 30
0.0
 11
2308.0944514311418061
 21
1350.716982254821005
 31
0.0
  0
LINE
  5
1004
  8
DIMENSION
 10
2096.1944514311421699
 20
1269.1398393976780881
 30
0.0
 11
2096.1944514311421699
 21
1350.716982254821005
 31
0.0
  0
LINE
  5
1005
  8
DIMENSION
 10
2290.2373085739991438
 20
1328.0384108262489917
 30
0.0
 11
2230.9393054549250337
 21
1328.0384108262489917
 31
0.0
  0
LINE
  5
1006
  8
DIMENSION
 10
2114.0515942882848321
 20
1328.0384108262489917
 30
0.0
 11
2173.3495974073598518
 21
1328.0384108262489917
 31
0.0
  0
SOLID
  5
1007
  8
DIMENSION
 10
2290.2373085739991438
 20
1331.0146013024400418
 30
0.0
 11
2290.2373085739991438
 21
1325.0622203500590786
 31
0.0
 12
2308.0944514311418061
 22
1328.0384108262489917
 32
0.0
 13
2308.0944514311418061
 23
1328.0384108262489917
 33
0.0
  0
SOLID
  5
1008
  8
DIMENSION
 10
2114.0515942882848321
 20
1331.0146013024400418
 30
0.0
 11
2114.0515942882848321
 21
1325.0622203500590786
 31
0.0
 12
2096.1944514311421699
 22
1328.0384108262489917
 32
0.0
 13
2096.1944514311421699
 23
1328.0384108262489917
 33
0.0
  0
INSERT
  5
1009
  8
0
  2
*U31
 10
0.0
 20
0.0
 30
0.0
  0
POINT
  5
100A
  8
DEFPOINTS
 62
     0
 10
2308.0944514311418061
 20
1257.7098393976780244
 30
0.0
  0
POINT
  5
100B
  8
DEFPOINTS
 62
     0
 10
2096.1944514311421699
 20
1257.7098393976780244
 30
0.0
  0
POINT
  5
100C
  8
DEFPOINTS
 62
     0
 10
2096.1944514311421699
 20
1328.0384108262489917
 30
0.0
  0
ENDBLK
  5
F1C
  8
0
  0
BLOCK
  8
0
  2
*D11
 70
     1
 10
0.0
 20
0.0
 30
0.0
  3
*D11
  1

  0
LINE
  5
10FE
  8
DIMENSION
 10
1774.4144514311799412
 20
142.3098393976777061
 30
0.0
 11
1713.5175713430219275
 21
142.3098393976775924
 31
0.0
  0
LINE
  5
10FF
  8
DIMENSION
 10
1755.3644514311790772
 20
341.309839397678104
 30
0.0
 11
1713.5175713430219275
 21
341.309839397678104
 31
0.0
  0
LINE
  5
1100
  8
DIMENSION
 10
1736.1961427715930313
 20
160.1669822548205104
 30
0.0
 11
1736.1961427715930313
 21
213.8343272600016007
 31
0.0
  0
LINE
  5
1101
  8
DIMENSION
 10
1736.1961427715930313
 20
323.452696540535328
 30
0.0
 11
1736.1961427715930313
 21
269.7853515353551757
 31
0.0
  0
SOLID
  5
1102
  8
DIMENSION
 10
1733.2199522954028907
 20
160.1669822548205104
 30
0.0
 11
1739.1723332477840813
 21
160.1669822548205104
 31
0.0
 12
1736.1961427715930313
 22
142.3098393976777061
 32
0.0
 13
1736.1961427715930313
 23
142.3098393976777061
 33
0.0
  0
SOLID
  5
1103
  8
DIMENSION
 10
1733.2199522954028907
 20
323.452696540535328
 30
0.0
 11
1739.1723332477840813
 21
323.452696540535328
 31
0.0
 12
1736.1961427715930313
 22
341.309839397678104
 32
0.0
 13
1736.1961427715930313
 23
341.309839397678104
 33
0.0
  0
INSERT
  5
1104
  8
0
  2
*U32
 10
0.0
 20
0.0
 30
0.0
  0
POINT
  5
1105
  8
DEFPOINTS
 62
     0
 10
1785.8444514311800049
 20
142.3098393976777061
 30
0.0
  0
POINT
  5
1106
  8
DEFPOINTS
 62
     0
 10
1766.7944514311789135
 20
341.309839397678104
 30
0.0
  0
POINT
  5
1107
  8
DEFPOINTS
 62
     0
 10
1736.1961427715930313
 20
341.309839397678104
 30
0.0
  0
ENDBLK
  5
1010
  8
0
  0
BLOCK
  8
0
  2
*D12
 70
     1
 10
0.0
 20
0.0
 30
0.0
  3
*D12
  1

  0
LINE
  5
11F9
  8
DIMENSION
 10
1774.4144514311799412
 20
142.3098393976777061
 30
0.0
 11
1674.8373085740349779
 21
142.3098393976775924
 31
0.0
  0
LINE
  5
11FA
  8
DIMENSION
 10
1755.3644514311790772
 20
416.309839397678104
 30
0.0
 11
1674.8373085740349779
 21
416.309839397678104
 31
0.0
  0
LINE
  5
11FB
  8
DIMENSION
 10
1697.5158800026069912
 20
160.1669822548205104
 30
0.0
 11
1697.5158800026069912
 21
250.2296788242697119
 31
0.0
  0
LINE
  5
11FC
  8
DIMENSION
 10
1697.5158800026069912
 20
398.452696540535328
 30
0.0
 11
1697.5158800026069912
 21
308.3899999710869793
 31
0.0
  0
SOLID
  5
11FD
  8
DIMENSION
 10
1694.539689526417078
 20
160.1669822548205104
 30
0.0
 11
1700.4920704787969044
 21
160.1669822548205104
 31
0.0
 12
1697.5158800026069912
 22
142.3098393976775924
 32
0.0
 13
1697.5158800026069912
 23
142.3098393976775924
 33
0.0
  0
SOLID
  5
11FE
  8
DIMENSION
 10
1694.539689526417078
 20
398.452696540535328
 30
0.0
 11
1700.4920704787969044
 21
398.452696540535328
 31
0.0
 12
1697.5158800026069912
 22
416.309839397678104
 32
0.0
 13
1697.5158800026069912
 23
416.309839397678104
 33
0.0
  0
INSERT
  5
11FF
  8
0
  2
*U33
 10
0.0
 20
0.0
 30
0.0
  0
POINT
  5
1200
  8
DEFPOINTS
 62
     0
 10
1785.8444514311800049
 20
142.3098393976777061
 30
0.0
  0
POINT
  5
1201
  8
DEFPOINTS
 62
     0
 10
1766.7944514311789135
 20
416.309839397678104
 30
0.0
  0
POINT
  5
1202
  8
DEFPOINTS
 62
     0
 10
1697.5158800026069912
 20
416.309839397678104
 30
0.0
  0
ENDBLK
  5
110B
  8
0
  0
BLOCK
  8
0
  2
*D13
 70
     1
 10
0.0
 20
0.0
 30
0.0
  3
*D13
  1

  0
LINE
  5
12F4
  8
DIMENSION
 10
1774.4144514311799412
 20
142.3098393976777061
 30
0.0
 11
1618.8808277330510919
 21
142.3098393976775924
 31
0.0
  0
LINE
  5
12F5
  8
DIMENSION
 10
1755.4644514311789862
 20
499.3626113996373874
 30
0.0
 11
1618.8808277330510919
 21
499.3626113996373874
 31
0.0
  0
LINE
  5
12F6
  8
DIMENSION
 10
1641.5593991616219682
 20
160.1669822548205104
 30
0.0
 11
1641.5593991616219682
 21
291.8365359033487039
 31
0.0
  0
LINE
  5
12F7
  8
DIMENSION
 10
1641.5593991616219682
 20
481.5054685424946115
 30
0.0
 11
1641.5593991616219682
 21
349.8359148939666738
 31
0.0
  0
SOLID
  5
12F8
  8
DIMENSION
 10
1638.5832086854320551
 20
160.1669822548205104
 30
0.0
 11
1644.5355896378121088
 21
160.1669822548205104
 31
0.0
 12
1641.5593991616219682
 22
142.3098393976775924
 32
0.0
 13
1641.5593991616219682
 23
142.3098393976775924
 33
0.0
  0
SOLID
  5
12F9
  8
DIMENSION
 10
1638.5832086854320551
 20
481.5054685424946115
 30
0.0
 11
1644.5355896378121088
 21
481.5054685424946115
 31
0.0
 12
1641.5593991616219682
 22
499.3626113996373874
 32
0.0
 13
1641.5593991616219682
 23
499.3626113996373874
 33
0.0
  0
INSERT
  5
12FA
  8
0
  2
*U34
 10
0.0
 20
0.0
 30
0.0
  0
POINT
  5
12FB
  8
DEFPOINTS
 62
     0
 10
1785.8444514311800049
 20
142.3098393976777061
 30
0.0
  0
POINT
  5
12FC
  8
DEFPOINTS
 62
     0
 10
1766.8944514311799594
 20
499.3626113996373874
 30
0.0
  0
POINT
  5
12FD
  8
DEFPOINTS
 62
     0
 10
1641.5593991616219682
 20
499.3626113996373874
 30
0.0
  0
ENDBLK
  5
1206
  8
0
  0
BLOCK
  8
0
  2
*D14
 70
     1
 10
0.0
 20
0.0
 30
0.0
  3
*D14
  1

  0
LINE
  5
1D5B
  8
DIMENSION
 10
656.1528124366873271
 20
2069.5361452121660477
 30
0.0
 11
499.8424208016900252
 21
2069.5361452121660477
 31
0.0
  0
LINE
  5
1D5C
  8
DIMENSION
 10
1124.0867189109080755
 20
1480.9076842431629757
 30
0.0
 11
499.8424208016901957
 21
1480.9076842431629757
 31
0.0
  0
LINE
  5
1D5D
  8
DIMENSION
 10
522.5209922302615269
 20
2051.6790023550238402
 30
0.0
 11
522.5209922302615269
 21
1835.2687705897010346
 31
0.0
  0
LINE
  5
1D5E
  8
DIMENSION
 10
522.5209922302616405
 20
1498.7648271003060927
 30
0.0
 11
522.5209922302616405
 21
1715.1750588656288983
 31
0.0
  0
SOLID
  5
1D5F
  8
DIMENSION
 10
519.5448017540710453
 20
2051.6790023550238402
 30
0.0
 11
525.4971827064520085
 21
2051.6790023550238402
 31
0.0
 12
522.5209922302615269
 22
2069.5361452121660477
 32
0.0
 13
522.5209922302615269
 23
2069.5361452121660477
 33
0.0
  0
SOLID
  5
1D60
  8
DIMENSION
 10
519.5448017540710453
 20
1498.7648271003060927
 30
0.0
 11
525.4971827064521221
 21
1498.7648271003060927
 31
0.0
 12
522.5209922302616405
 22
1480.9076842431629757
 32
0.0
 13
522.5209922302616405
 23
1480.9076842431629757
 33
0.0
  0
INSERT
  5
1D61
  8
0
  2
*U59
 10
0.0
 20
0.0
 30
0.0
  0
POINT
  5
1D62
  8
DEFPOINTS
 62
     0
 10
667.5828124366872771
 20
2069.5361452121660477
 30
0.0
  0
POINT
  5
1D63
  8
DEFPOINTS
 62
     0
 10
1135.5167189109079118
 20
1480.9076842431629757
 30
0.0
  0
POINT
  5
1D64
  8
DEFPOINTS
 62
     0
 10
522.5209922302616405
 20
1480.9076842431629757
 30
0.0
  0
ENDBLK
  5
1301
  8
0
  0
BLOCK
  8
0
  2
*D15
 70
     1
 10
0.0
 20
0.0
 30
0.0
  3
*D15
  1

  0
LINE
  5
1D65
  8
DIMENSION
 10
1174.1060587391280023
 20
1231.9898393976779971
 30
0.0
 11
1174.1060587391280023
 21
1334.086533847399096
 31
0.0
  0
LINE
  5
1D66
  8
DIMENSION
 10
1124.0560587391280478
 20
1267.9898393976779971
 30
0.0
 11
1124.0560587391280478
 21
1334.086533847399096
 31
0.0
  0
LINE
  5
1D67
  8
DIMENSION
 10
1106.1989158819849308
 20
1311.4079624188279922
 30
0.0
 11
1088.3417730248420412
 21
1311.4079624188279922
 31
0.0
  0
LINE
  5
1D68
  8
DIMENSION
 10
1191.963201596270892
 20
1311.4079624188279922
 30
0.0
 11
1213.0546056742539349
 21
1311.4079624188279922
 31
0.0
  0
SOLID
  5
1D69
  8
DIMENSION
 10
1106.1989158819849308
 20
1314.3841528950190423
 30
0.0
 11
1106.1989158819849308
 21
1308.4317719426380791
 31
0.0
 12
1124.0560587391280478
 22
1311.4079624188279922
 32
0.0
 13
1124.0560587391280478
 23
1311.4079624188279922
 33
0.0
  0
SOLID
  5
1D6A
  8
DIMENSION
 10
1191.963201596270892
 20
1314.3841528950190423
 30
0.0
 11
1191.963201596270892
 21
1308.4317719426380791
 31
0.0
 12
1174.1060587391280023
 22
1311.4079624188279922
 32
0.0
 13
1174.1060587391280023
 23
1311.4079624188279922
 33
0.0
  0
INSERT
  5
1D6B
  8
0
  2
*U60
 10
0.0
 20
0.0
 30
0.0
  0
POINT
  5
1D6C
  8
DEFPOINTS
 62
     0
 10
1174.1060587391280023
 20
1220.5598393976779334
 30
0.0
  0
POINT
  5
1D6D
  8
DEFPOINTS
 62
     0
 10
1124.0560587391280478
 20
1256.5598393976779334
 30
0.0
  0
POINT
  5
1D6E
  8
DEFPOINTS
 62
     0
 10
1124.0560587391280478
 20
1311.4079624188279922
 30
0.0
  0
ENDBLK
  5
13FC
  8
0
  0
BLOCK
  8
0
  2
*D16
 70
     1
 10
0.0
 20
0.0
 30
0.0
  3
*D16
  1

  0
LINE
  5
1DB0
  8
DIMENSION
 10
654.1528124366870998
 20
142.3098393976785871
 30
0.0
 11
542.5068040081152958
 21
142.3098393976785871
 31
0.0
  0
LINE
  5
1DB1
  8
DIMENSION
 10
634.8260587391283707
 20
1222.7098393976780244
 30
0.0
 11
542.5068040081149547
 21
1222.7098393976780244
 31
0.0
  0
LINE
  5
1DB2
  8
DIMENSION
 10
565.1853754366867406
 20
160.1669822548215052
 30
0.0
 11
565.1853754366866269
 21
646.3409082021743188
 31
0.0
  0
LINE
  5
1DB3
  8
DIMENSION
 10
565.1853754366863996
 20
1204.8526965405349074
 30
0.0
 11
565.1853754366866269
 21
718.6787705931808432
 31
0.0
  0
SOLID
  5
1DB4
  8
DIMENSION
 10
562.2091849604961453
 20
160.1669822548215052
 30
0.0
 11
568.1615659128772222
 21
160.1669822548215052
 31
0.0
 12
565.1853754366867406
 22
142.3098393976785871
 32
0.0
 13
565.1853754366867406
 23
142.3098393976785871
 33
0.0
  0
SOLID
  5
1DB5
  8
DIMENSION
 10
562.2091849604960316
 20
1204.8526965405349074
 30
0.0
 11
568.1615659128769948
 21
1204.8526965405349074
 31
0.0
 12
565.1853754366863996
 22
1222.7098393976780244
 32
0.0
 13
565.1853754366863996
 23
1222.7098393976780244
 33
0.0
  0
INSERT
  5
1DB6
  8
0
  2
*U65
 10
0.0
 20
0.0
 30
0.0
  0
POINT
  5
1DB7
  8
DEFPOINTS
 62
     0
 10
665.5828124366870497
 20
142.3098393976785871
 30
0.0
  0
POINT
  5
1DB8
  8
DEFPOINTS
 62
     0
 10
646.2560587391284344
 20
1222.7098393976780244
 30
0.0
  0
POINT
  5
1DB9
  8
DEFPOINTS
 62
     0
 10
565.1853754366863996
 20
1222.7098393976780244
 30
0.0
  0
ENDBLK
  5
14F0
  8
0
  0
BLOCK
  8
0
  2
*D17
 70
     1
 10
0.0
 20
0.0
 30
0.0
  3
*D17
  1

  0
LINE
  5
1D79
  8
DIMENSION
 10
779.2260587391280069
 20
1257.7098393976780244
 30
0.0
 11
482.2632015962702212
 21
1257.7098393976780244
 31
0.0
  0
LINE
  5
1D7A
  8
DIMENSION
 10
654.1528124366870998
 20
142.3098393976785871
 30
0.0
 11
482.2632015962703917
 21
142.3098393976785871
 31
0.0
  0
LINE
  5
1D7B
  8
DIMENSION
 10
504.9417730248416092
 20
1239.8526965405349074
 30
0.0
 11
504.9417730248417797
 21
767.4892913644822556
 31
0.0
  0
LINE
  5
1D7C
  8
DIMENSION
 10
504.9417730248418934
 20
160.1669822548215052
 30
0.0
 11
504.9417730248417797
 21
632.5303874308740433
 31
0.0
  0
SOLID
  5
1D7D
  8
DIMENSION
 10
501.9655825486511844
 20
1239.8526965405349074
 30
0.0
 11
507.9179635010320908
 21
1239.8526965405349074
 31
0.0
 12
504.9417730248416092
 22
1257.7098393976780244
 32
0.0
 13
504.9417730248416092
 23
1257.7098393976780244
 33
0.0
  0
SOLID
  5
1D7E
  8
DIMENSION
 10
501.9655825486514118
 20
160.1669822548215052
 30
0.0
 11
507.917963501032375
 21
160.1669822548215052
 31
0.0
 12
504.9417730248418934
 22
142.3098393976785871
 32
0.0
 13
504.9417730248418934
 23
142.3098393976785871
 33
0.0
  0
INSERT
  5
1D7F
  8
0
  2
*U61
 10
0.0
 20
0.0
 30
0.0
  0
POINT
  5
1D80
  8
DEFPOINTS
 62
     0
 10
790.6560587391278432
 20
1257.7098393976780244
 30
0.0
  0
POINT
  5
1D81
  8
DEFPOINTS
 62
     0
 10
665.5828124366870497
 20
142.3098393976785871
 30
0.0
  0
POINT
  5
1D82
  8
DEFPOINTS
 62
     0
 10
504.9417730248418934
 20
142.3098393976785871
 30
0.0
  0
ENDBLK
  5
15EB
  8
0
  0
BLOCK
  8
0
  2
*D18
 70
     1
 10
0.0
 20
0.0
 30
0.0
  3
*D18
  1

  0
LINE
  5
1C98
  8
0
 10
2344.5744514311859348
 20
1222.7098393976780244
 30
0.0
 11
2427.2515942883292155
 21
1222.7098393976780244
 31
0.0
  0
LINE
  5
1C99
  8
0
 10
2319.5244514311430066
 20
1257.7098393976780244
 30
0.0
 11
2427.2515942883292155
 21
1257.7098393976780244
 31
0.0
  0
LINE
  5
1C9A
  8
0
 10
2404.5730228597572022
 20
1275.566982254820914
 30
0.0
 11
2404.5730228597572022
 21
1293.424125111964031
 31
0.0
  0
LINE
  5
1C9B
  8
0
 10
2404.5730228597572022
 20
1204.8526965405349074
 30
0.0
 11
2404.5730228597572022
 21
1183.7832391203580755
 31
0.0
  0
SOLID
  5
1C9C
  8
0
 10
2401.5968323835668343
 20
1275.566982254820914
 30
0.0
 11
2407.5492133359471154
 21
1275.566982254820914
 31
0.0
 12
2404.5730228597572022
 22
1257.7098393976780244
 32
0.0
 13
2404.5730228597572022
 23
1257.7098393976780244
 33
0.0
  0
SOLID
  5
1C9D
  8
0
 10
2401.5968323835668343
 20
1204.8526965405349074
 30
0.0
 11
2407.5492133359471154
 21
1204.8526965405349074
 31
0.0
 12
2404.5730228597572022
 22
1222.7098393976780244
 32
0.0
 13
2404.5730228597572022
 23
1222.7098393976780244
 33
0.0
  0
INSERT
  5
1C9E
  8
0
  2
*U43
 10
0.0
 20
0.0
 30
0.0
  0
POINT
  5
1C9F
  8
DEFPOINTS
 62
     0
 10
2333.1444514311860985
 20
1222.7098393976780244
 30
0.0
  0
POINT
  5
1CA0
  8
DEFPOINTS
 62
     0
 10
2308.0944514311431703
 20
1257.7098393976780244
 30
0.0
  0
POINT
  5
1CA1
  8
DEFPOINTS
 62
     0
 10
2404.5730228597572022
 20
1257.7098393976780244
 30
0.0
  0
ENDBLK
  5
16F0
  8
0
  0
BLOCK
  8
0
  2
*D19
 70
     1
 10
0.0
 20
0.0
 30
0.0
  3
*D19
  1

  0
LINE
  5
1D33
  8
DIMENSION
 10
644.1060587391282297
 20
1231.9898393976779971
 30
0.0
 11
644.1060587391282297
 21
1334.086533847399096
 31
0.0
  0
LINE
  5
1D34
  8
DIMENSION
 10
790.6560587391273884
 20
1269.1398393976780881
 30
0.0
 11
790.6560587391273884
 21
1334.086533847399096
 31
0.0
  0
LINE
  5
1D35
  8
DIMENSION
 10
661.9632015962711193
 20
1311.4079624188279922
 30
0.0
 11
684.3250753790008503
 21
1311.4079624188279922
 31
0.0
  0
LINE
  5
1D36
  8
DIMENSION
 10
772.7989158819846125
 20
1311.4079624188279922
 30
0.0
 11
740.4370420992555637
 21
1311.4079624188279922
 31
0.0
  0
SOLID
  5
1D37
  8
DIMENSION
 10
661.9632015962711193
 20
1314.3841528950190423
 30
0.0
 11
661.9632015962711193
 21
1308.4317719426380791
 31
0.0
 12
644.1060587391282297
 22
1311.4079624188279922
 32
0.0
 13
644.1060587391282297
 23
1311.4079624188279922
 33
0.0
  0
SOLID
  5
1D38
  8
DIMENSION
 10
772.7989158819846125
 20
1314.3841528950190423
 30
0.0
 11
772.7989158819846125
 21
1308.4317719426380791
 31
0.0
 12
790.6560587391273884
 22
1311.4079624188279922
 32
0.0
 13
790.6560587391273884
 23
1311.4079624188279922
 33
0.0
  0
INSERT
  5
1D39
  8
0
  2
*U55
 10
0.0
 20
0.0
 30
0.0
  0
POINT
  5
1D3A
  8
DEFPOINTS
 62
     0
 10
644.1060587391282297
 20
1220.5598393976779334
 30
0.0
  0
POINT
  5
1D3B
  8
DEFPOINTS
 62
     0
 10
790.6560587391273884
 20
1257.7098393976780244
 30
0.0
  0
POINT
  5
1D3C
  8
DEFPOINTS
 62
     0
 10
790.6560587391273884
 20
1311.4079624188279922
 30
0.0
  0
ENDBLK
  5
17F7
  8
0
  0
BLOCK
  8
0
  2
*D20
 70
     1
 10
0.0
 20
0.0
 30
0.0
  3
*D20
  1

  0
LINE
  5
1D3D
  8
DIMENSION
 10
790.6560587391273884
 20
1269.1398393976780881
 30
0.0
 11
790.6560587391273884
 21
1334.086533847399096
 31
0.0
  0
LINE
  5
1D3E
  8
DIMENSION
 10
1027.5560587391280478
 20
1269.1398393976780881
 30
0.0
 11
1027.5560587391280478
 21
1334.086533847399096
 31
0.0
  0
LINE
  5
1D3F
  8
DIMENSION
 10
808.5132015962703917
 20
1311.4079624188279922
 30
0.0
 11
880.1941557245918375
 21
1311.4079624188279922
 31
0.0
  0
LINE
  5
1D40
  8
DIMENSION
 10
1009.6989158819850445
 20
1311.4079624188279922
 30
0.0
 11
938.0179617536632577
 21
1311.4079624188279922
 31
0.0
  0
SOLID
  5
1D41
  8
DIMENSION
 10
808.5132015962703917
 20
1314.3841528950179054
 30
0.0
 11
808.5132015962703917
 21
1308.4317719426369422
 31
0.0
 12
790.6560587391273884
 22
1311.4079624188279922
 32
0.0
 13
790.6560587391273884
 23
1311.4079624188279922
 33
0.0
  0
SOLID
  5
1D42
  8
DIMENSION
 10
1009.6989158819850445
 20
1314.3841528950179054
 30
0.0
 11
1009.6989158819850445
 21
1308.4317719426369422
 31
0.0
 12
1027.5560587391280478
 22
1311.4079624188279922
 32
0.0
 13
1027.5560587391280478
 23
1311.4079624188279922
 33
0.0
  0
INSERT
  5
1D43
  8
0
  2
*U56
 10
0.0
 20
0.0
 30
0.0
  0
POINT
  5
1D44
  8
DEFPOINTS
 62
     0
 10
790.6560587391273884
 20
1257.7098393976780244
 30
0.0
  0
POINT
  5
1D45
  8
DEFPOINTS
 62
     0
 10
1027.5560587391280478
 20
1257.7098393976780244
 30
0.0
  0
POINT
  5
1D46
  8
DEFPOINTS
 62
     0
 10
1027.5560587391280478
 20
1311.4079624188279922
 30
0.0
  0
ENDBLK
  5
18EB
  8
0
  0
BLOCK
  8
0
  2
*D21
 70
     1
 10
0.0
 20
0.0
 30
0.0
  3
*D21
  1

  0
LINE
  5
1D47
  8
DIMENSION
 10
634.6392315374931741
 20
2049.4076842434019454
 30
0.0
 11
551.9620886803494386
 21
2049.4076842434019454
 31
0.0
  0
LINE
  5
1D48
  8
DIMENSION
 10
634.6392315374929467
 20
1512.4076842434010359
 30
0.0
 11
551.9620886803495523
 21
1512.4076842434010359
 31
0.0
  0
LINE
  5
1D49
  8
DIMENSION
 10
574.6406601089207697
 20
2031.5505413862599653
 30
0.0
 11
574.6406601089207697
 21
1809.7098539689109202
 31
0.0
  0
LINE
  5
1D4A
  8
DIMENSION
 10
574.6406601089208834
 20
1530.2648271005439256
 30
0.0
 11
574.6406601089208834
 21
1752.1055145178920611
 31
0.0
  0
SOLID
  5
1D4B
  8
DIMENSION
 10
571.6644696327302881
 20
2031.5505413862599653
 30
0.0
 11
577.616850585111365
 21
2031.5505413862599653
 31
0.0
 12
574.6406601089207697
 22
2049.4076842434019454
 32
0.0
 13
574.6406601089207697
 23
2049.4076842434019454
 33
0.0
  0
SOLID
  5
1D4C
  8
DIMENSION
 10
571.6644696327305155
 20
1530.2648271005439256
 30
0.0
 11
577.616850585111365
 21
1530.2648271005439256
 31
0.0
 12
574.6406601089208834
 22
1512.4076842434010359
 32
0.0
 13
574.6406601089208834
 23
1512.4076842434010359
 33
0.0
  0
INSERT
  5
1D4D
  8
0
  2
*U57
 10
0.0
 20
0.0
 30
0.0
  0
POINT
  5
1D4E
  8
DEFPOINTS
 62
     0
 10
646.0692315374931241
 20
2049.4076842434019454
 30
0.0
  0
POINT
  5
1D4F
  8
DEFPOINTS
 62
     0
 10
646.0692315374930104
 20
1512.4076842434010359
 30
0.0
  0
POINT
  5
1D50
  8
DEFPOINTS
 62
     0
 10
574.6406601089208834
 20
1512.4076842434010359
 30
0.0
  0
ENDBLK
  5
19DF
  8
0
  0
BLOCK
  8
0
  2
*D22
 70
     1
 10
0.0
 20
0.0
 30
0.0
  3
*D22
  1

  0
LINE
  5
1D51
  8
DIMENSION
 10
644.1060587391283434
 20
1502.9408570417649571
 30
0.0
 11
644.1060587391283434
 21
1420.2637141846230406
 31
0.0
  0
LINE
  5
1D52
  8
DIMENSION
 10
1174.1060587391280023
 20
1502.9408570417649571
 30
0.0
 11
1174.1060587391280023
 21
1420.2637141846230406
 31
0.0
  0
LINE
  5
1D53
  8
DIMENSION
 10
661.963201596271233
 20
1442.942285613193917
 30
0.0
 11
849.0592028770923889
 21
1442.942285613193917
 31
0.0
  0
LINE
  5
1D54
  8
DIMENSION
 10
1156.2489158819851127
 20
1442.942285613193917
 30
0.0
 11
969.1529146011641842
 21
1442.942285613193917
 31
0.0
  0
SOLID
  5
1D55
  8
DIMENSION
 10
661.963201596271233
 20
1445.9184760893840576
 30
0.0
 11
661.963201596271233
 21
1439.9660951370040038
 31
0.0
 12
644.1060587391283434
 22
1442.942285613193917
 32
0.0
 13
644.1060587391283434
 23
1442.942285613193917
 33
0.0
  0
SOLID
  5
1D56
  8
DIMENSION
 10
1156.2489158819851127
 20
1445.9184760893840576
 30
0.0
 11
1156.2489158819851127
 21
1439.9660951370040038
 31
0.0
 12
1174.1060587391280023
 22
1442.942285613193917
 32
0.0
 13
1174.1060587391280023
 23
1442.942285613193917
 33
0.0
  0
INSERT
  5
1D57
  8
0
  2
*U58
 10
0.0
 20
0.0
 30
0.0
  0
POINT
  5
1D58
  8
DEFPOINTS
 62
     0
 10
644.1060587391283434
 20
1514.3708570417659303
 30
0.0
  0
POINT
  5
1D59
  8
DEFPOINTS
 62
     0
 10
1174.1060587391280023
 20
1514.3708570417659303
 30
0.0
  0
POINT
  5
1D5A
  8
DEFPOINTS
 62
     0
 10
1174.1060587391280023
 20
1442.942285613193917
 30
0.0
  0
ENDBLK
  5
1ADA
  8
0
  0
BLOCK
  8
0
  2
*D27
 70
     1
 10
0.0
 20
0.0
 30
0.0
  3
*D27
  1

  0
LINE
  5
1E82
  8
0
 62
     0
 10
1957.9697229728640195
 20
1260.9298393976780517
 30
0.0
 11
1984.7964071195619908
 21
1260.9298393976780517
 31
0.0
  0
LINE
  5
1E83
  8
0
 62
     0
 10
1957.9697229728640195
 20
1222.7098393976780244
 30
0.0
 11
1984.7964071195619908
 21
1222.7098393976780244
 31
0.0
  0
LINE
  5
1E84
  8
0
 62
     0
 10
1984.616407119563064
 20
1260.749839397677988
 30
0.0
 11
1984.616407119563064
 21
1241.999839397677988
 31
0.0
  0
LINE
  5
1E85
  8
0
 62
     0
 10
1984.616407119563064
 20
1222.8898393976789976
 30
0.0
 11
1984.616407119563064
 21
1241.6398393976780881
 31
0.0
  0
SOLID
  5
1E86
  8
0
 62
     0
 10
1984.5864071195630913
 20
1260.749839397677988
 30
0.0
 11
1984.6464071195618999
 21
1260.749839397677988
 31
0.0
 12
1984.616407119563064
 22
1260.9298393976780517
 32
0.0
 13
1984.616407119563064
 23
1260.9298393976780517
 33
0.0
  0
SOLID
  5
1E87
  8
0
 62
     0
 10
1984.5864071195630913
 20
1222.8898393976789976
 30
0.0
 11
1984.6464071195618999
 21
1222.8898393976789976
 31
0.0
 12
1984.616407119563064
 22
1222.7098393976780244
 32
0.0
 13
1984.616407119563064
 23
1222.7098393976780244
 33
0.0
  0
INSERT
  5
1E88
  8
0
  2
*U68
 10
0.0
 20
0.0
 30
0.0
  0
POINT
  5
1E89
  8
DEFPOINTS
 62
     0
 10
1957.90722297286311
 20
1260.9298393976780517
 30
0.0
  0
POINT
  5
1E8A
  8
DEFPOINTS
 62
     0
 10
1957.90722297286311
 20
1222.7098393976780244
 30
0.0
  0
POINT
  5
1E8B
  8
DEFPOINTS
 62
     0
 10
1984.616407119563064
 20
1222.7098393976780244
 30
0.0
  0
ENDBLK
  5
1E81
  8
0
  0
BLOCK
  8
0
  2
*U28
 70
     1
 10
0.0
 20
0.0
 30
0.0
  3
*U28
  1

  0
SOLID
  5
1EFD
  8
OUTLINE
  6
CONTINUOUS
 10
1.171875
 20
1.1634929639552629
 30
0.0
 11
-1.171875
 21
1.1634929639552629
 31
0.0
 12
0.0
 22
-5.8677570360447362
 32
0.0
 13
0.0
 23
-5.8677570360447362
 33
0.0
210
0.0
220
0.0
230
-1.0
  0
LINE
  5
1EFE
  8
OUTLINE
  6
CONTINUOUS
 10
1.171875
 20
1.1634929639552629
 30
0.0
 11
0.0
 21
-5.8677570360447362
 31
0.0
  0
LINE
  5
1EFF
  8
OUTLINE
  6
CONTINUOUS
 10
0.0
 20
-5.8677570360447362
 30
0.0
 11
-1.171875
 21
1.1634929639552629
 31
0.0
  0
ENDBLK
  5
1F01
  8
0
  0
BLOCK
  8
0
  2
*U29
 70
     1
 10
0.0
 20
0.0
 30
0.0
  3
*U29
  1

  0
TEXT
  5
1F07
  8
DIMENSION
 10
1740.3464543090810821
 20
1281.3223351313858984
 30
0.0
 40
21.7857156481061693
  1
75
  7
MTXPL_TAHOMA
  0
ENDBLK
  5
1F09
  8
0
  0
BLOCK
  8
0
  2
*U30
 70
     1
 10
0.0
 20
0.0
 30
0.0
  3
*U30
  1

  0
TEXT
  5
1F0B
  8
DIMENSION
 10
1847.7119641266729104
 20
1318.2723350595711054
 30
0.0
 40
21.7857156481061693
  1
150
  7
MTXPL_TAHOMA
  0
ENDBLK
  5
1F0D
  8
0
  0
BLOCK
  8
0
  2
*U31
 70
     1
 10
0.0
 20
0.0
 30
0.0
  3
*U31
  1

  0
TEXT
  5
1F0F
  8
DIMENSION
 10
2177.4690926544571994
 20
1317.1455529303520962
 30
0.0
 40
21.7857156481061693
  1
212
  7
MTXPL_TAHOMA
  0
ENDBLK
  5
1F11
  8
0
  0
BLOCK
  8
0
  2
*U32
 70
     1
 10
0.0
 20
0.0
 30
0.0
  3
*U32
  1

  0
TEXT
  5
1F13
  8
DIMENSION
 10
1746.876849643361993
 20
216.2419831982813889
 30
0.0
 40
21.7857156481061693
  1
199
 50
90.0
  7
MTXPL_TAHOMA
  0
ENDBLK
  5
1F15
  8
0
  0
BLOCK
  8
0
  2
*U33
 70
     1
 10
0.0
 20
0.0
 30
0.0
  3
*U33
  1

  0
TEXT
  5
1F17
  8
DIMENSION
 10
1708.4087378985038868
 20
254.349174071366491
 30
0.0
 40
21.7857156481061693
  1
274
 50
90.0
  7
MTXPL_TAHOMA
  0
ENDBLK
  5
1F19
  8
0
  0
BLOCK
  8
0
  2
*U34
 70
     1
 10
0.0
 20
0.0
 30
0.0
  3
*U34
  1

  0
TEXT
  5
1F1B
  8
DIMENSION
 10
1652.2254749283290494
 20
296.1316044128882936
 30
0.0
 40
21.7857156481061693
  1
357
 50
90.0
  7
MTXPL_TAHOMA
  0
ENDBLK
  5
1F1D
  8
0
  0
BLOCK
  8
0
  2
*U35
 70
     1
 10
0.0
 20
0.0
 30
0.0
  3
*U35
  1

  0
SOLID
  5
1F1F
  8
SYMBOL
 10
1178.2787904514871116
 20
335.8723599125478927
 30
0.0
 11
1160.4149233114810613
 21
338.8079197527076758
 31
0.0
 12
1178.2652494731601109
 22
341.8247254628290079
 32
0.0
 13
1178.2652494731601109
 23
341.8247254628290079
 33
0.0
  0
POLYLINE
  5
1F20
  8
SYMBOL
 66
     1
 10
0.0
 20
0.0
 30
0.0
  0
VERTEX
  5
1F21
  8
SYMBOL
 10
1178.272019962324066
 20
338.8485426876885072
 30
0.0
  0
VERTEX
  5
1F22
  8
SYMBOL
 10
1211.3158579712869596
 20
338.9237137924429248
 30
0.0
  0
SEQEND
  5
1F23
  8
SYMBOL
  0
ENDBLK
  5
1F25
  8
0
  0
BLOCK
  8
0
  2
*U36
 70
     1
 10
0.0
 20
0.0
 30
0.0
  3
*U36
  1

  0
SOLID
  5
1F27
  8
SYMBOL
 10
1178.1619640815540606
 20
410.3298723773473853
 30
0.0
 11
1160.2996652271031053
 21
413.2749598811828946
 31
0.0
 12
1178.1515979285029516
 22
416.2822443033226136
 32
0.0
 13
1178.1515979285029516
 23
416.2822443033226136
 33
0.0
  0
POLYLINE
  5
1F28
  8
SYMBOL
 66
     1
 10
0.0
 20
0.0
 30
0.0
  0
VERTEX
  5
1F29
  8
SYMBOL
 10
1178.1567810050289609
 20
413.3060583403350279
 30
0.0
  0
VERTEX
  5
1F2A
  8
SYMBOL
 10
1211.3158579712869596
 20
413.3638054151358006
 30
0.0
  0
SEQEND
  5
1F2B
  8
SYMBOL
  0
ENDBLK
  5
1F2D
  8
0
  0
BLOCK
  8
0
  2
*U37
 70
     1
 10
0.0
 20
0.0
 30
0.0
  3
*U37
  1

  0
SOLID
  5
1F2F
  8
SYMBOL
 10
1178.1226727751500221
 20
496.444044499296524
 30
0.0
 11
1160.2560587391280933
 21
499.3628393976779876
 31
0.0
 12
1178.1035460375419461
 22
502.3963947217023929
 32
0.0
 13
1178.1035460375419461
 23
502.3963947217023929
 33
0.0
  0
POLYLINE
  5
1F30
  8
SYMBOL
 66
     1
 10
0.0
 20
0.0
 30
0.0
  0
VERTEX
  5
1F31
  8
SYMBOL
 10
1178.1131094063459841
 20
499.4202196104993732
 30
0.0
  0
VERTEX
  5
1F32
  8
SYMBOL
 10
1211.3158579712869596
 20
499.5269102849237015
 30
0.0
  0
SEQEND
  5
1F33
  8
SYMBOL
  0
ENDBLK
  5
1F35
  8
0
  0
BLOCK
  8
0
  2
*U38
 70
     1
 10
0.0
 20
0.0
 30
0.0
  3
*U38
  1

  0
SOLID
  5
1F37
  8
SYMBOL
 10
1151.485729632920993
 20
1973.6970268413140275
 30
0.0
 11
1133.6250408246689858
 21
1976.6518628885019098
 31
0.0
 12
1151.478612199131021
 22
1979.6494035384330346
 32
0.0
 13
1151.478612199131021
 23
1979.6494035384330346
 33
0.0
  0
POLYLINE
  5
1F38
  8
SYMBOL
 66
     1
 10
0.0
 20
0.0
 30
0.0
  0
VERTEX
  5
1F39
  8
SYMBOL
 10
1151.482170916026007
 20
1976.6732151898729626
 30
0.0
  0
VERTEX
  5
1F3A
  8
SYMBOL
 10
1205.7179923605740441
 20
1976.738066574090908
 30
0.0
  0
SEQEND
  5
1F3B
  8
SYMBOL
  0
ENDBLK
  5
1F3D
  8
0
  0
BLOCK
  8
0
  2
*U39
 70
     1
 10
0.0
 20
0.0
 30
0.0
  3
*U39
  1

  0
SOLID
  5
1F3F
  8
SYMBOL
 10
776.5143600004922746
 20
1001.7406077076039992
 30
0.0
 11
758.6560587391281842
 21
1004.7098393976780244
 31
0.0
 12
776.5120404804425789
 22
1007.6929882080499965
 32
0.0
 13
776.5120404804425789
 23
1007.6929882080499965
 33
0.0
  0
POLYLINE
  5
1F40
  8
SYMBOL
 66
     1
 10
0.0
 20
0.0
 30
0.0
  0
VERTEX
  5
1F41
  8
SYMBOL
 10
776.5132002404674267
 20
1004.7167979578269978
 30
0.0
  0
VERTEX
  5
1F42
  8
SYMBOL
 10
1211.3158579712869596
 20
1004.8862315957049987
 30
0.0
  0
SEQEND
  5
1F43
  8
SYMBOL
  0
ENDBLK
  5
1F45
  8
0
  0
BLOCK
  8
0
  2
*U40
 70
     1
 10
0.0
 20
0.0
 30
0.0
  3
*U40
  1

  0
SOLID
  5
1F47
  8
SYMBOL
 10
1151.5248580527809281
 20
2055.1424499109270982
 30
0.0
 11
1133.6584147839369052
 21
2058.0622899223290005
 31
0.0
 12
1151.5060795014060204
 22
2061.0948012419798943
 32
0.0
 13
1151.5060795014060204
 23
2061.0948012419798943
 33
0.0
  0
POLYLINE
  5
1F48
  8
SYMBOL
 66
     1
 10
0.0
 20
0.0
 30
0.0
  0
VERTEX
  5
1F49
  8
SYMBOL
 10
1151.5154687770930195
 20
2058.1186255764528141
 30
0.0
  0
VERTEX
  5
1F4A
  8
SYMBOL
 10
1205.2141779804239832
 20
2058.2880349263809876
 30
0.0
  0
SEQEND
  5
1F4B
  8
SYMBOL
  0
ENDBLK
  5
1F4D
  8
0
  0
BLOCK
  8
0
  2
*U41
 70
     1
 10
0.0
 20
0.0
 30
0.0
  3
*U41
  1

  0
SOLID
  5
1F4F
  8
SYMBOL
 10
641.2671042217849617
 20
1940.3975769220530765
 30
0.0
 11
659.1385331722576666
 21
1937.5084095611719022
 31
0.0
 12
641.2961001561192234
 22
1934.4452665942849308
 32
0.0
 13
641.2961001561192234
 23
1934.4452665942849308
 33
0.0
  0
POLYLINE
  5
1F50
  8
SYMBOL
 66
     1
 10
0.0
 20
0.0
 30
0.0
  0
VERTEX
  5
1F51
  8
SYMBOL
 10
641.2816021889519789
 20
1937.4214217581688899
 30
0.0
  0
VERTEX
  5
1F52
  8
SYMBOL
 10
456.4134488813540997
 20
1936.5208597009800542
 30
0.0
  0
SEQEND
  5
1F53
  8
SYMBOL
  0
ENDBLK
  5
1F55
  8
0
  0
BLOCK
  8
0
  2
*U42
 70
     1
 10
0.0
 20
0.0
 30
0.0
  3
*U42
  1

  0
SOLID
  5
1F57
  8
SYMBOL
 10
699.0372369105865573
 20
187.2150876195694025
 30
0.0
 11
716.9060587391281842
 21
184.3098393976760008
 31
0.0
 12
699.060876505028773
 22
181.2627536091293052
 32
0.0
 13
699.060876505028773
 23
181.2627536091293052
 33
0.0
  0
POLYLINE
  5
1F58
  8
SYMBOL
 66
     1
 10
0.0
 20
0.0
 30
0.0
  0
VERTEX
  5
1F59
  8
SYMBOL
 10
699.0490567078078357
 20
184.238920614349297
 30
0.0
  0
VERTEX
  5
1F5A
  8
SYMBOL
 10
456.4134488813540997
 20
183.2752973774472878
 30
0.0
  0
SEQEND
  5
1F5B
  8
SYMBOL
  0
ENDBLK
  5
1F5D
  8
0
  0
BLOCK
  8
0
  2
*U43
 70
     1
 10
0.0
 20
0.0
 30
0.0
  3
*U43
  1

  0
TEXT
  5
1F5F
  8
0
 10
2415.2390985531551451
 20
1146.919330427685054
 30
0.0
 40
21.7857156481061693
  1
35
 50
90.0
  7
MTXPL_TAHOMA
  0
ENDBLK
  5
1F61
  8
0
  0
BLOCK
  8
0
  2
*U44
 70
     1
 10
0.0
 20
0.0
 30
0.0
  3
*U44
  1

  0
TEXT
  5
1F63
  8
0
 10
1944.8076994163980089
 20
73.4611033679179286
 30
0.0
 40
21.7856999999999985
  1
530 Mounting CTS
  7
MTXPL_TAHOMA
  0
ENDBLK
  5
1F65
  8
0
  0
BLOCK
  8
0
  2
*U45
 70
     1
 10
0.0
 20
0.0
 30
0.0
  3
*U45
  1

  0
TEXT
  5
1F67
  8
DIMENSION
 10
2393.2112283066908276
 20
1176.589615413824049
 30
0.0
 40
20.0
  1
35
 50
270.0
  7
TITLE3
  0
ENDBLK
  5
1F69
  8
0
  0
BLOCK
  8
0
  2
*U46
 70
     1
 10
0.0
 20
0.0
 30
0.0
  3
*U46
  1

  0
TEXT
  5
1F6B
  8
DIMENSION
 10
2378.1869203509668296
 20
1317.145553002196948
 30
0.0
 40
21.7857156481061693
  1
27
  7
MTXPL_TAHOMA
  0
ENDBLK
  5
1F6D
  8
0
  0
BLOCK
  8
0
  2
*U47
 70
     1
 10
0.0
 20
0.0
 30
0.0
  3
*U47
  1

  0
TEXT
  5
1F6F
  8
DIMENSION
 10
2379.7817108181548065
 20
1319.1580507809580922
 30
0.0
 40
20.0
  1
27
  7
TITLE3
  0
ENDBLK
  5
1F71
  8
0
  0
BLOCK
  8
0
  2
*U48
 70
     1
 10
0.0
 20
0.0
 30
0.0
  3
*U48
  1

  0
TEXT
  5
1F73
  8
DIMENSION
 10
2179.0638831216460858
 20
1319.158050709113013
 30
0.0
 40
20.0
  1
212
  7
TITLE3
  0
ENDBLK
  5
1F75
  8
0
  0
BLOCK
  8
0
  2
*U49
 70
     1
 10
0.0
 20
0.0
 30
0.0
  3
*U49
  1

  0
TEXT
  5
1F77
  8
DIMENSION
 10
1851.0185939026780488
 20
1320.2775172857300277
 30
0.0
 40
20.0
  1
150
  7
TITLE3
  0
ENDBLK
  5
1F79
  8
0
  0
BLOCK
  8
0
  2
*U50
 70
     1
 10
0.0
 20
0.0
 30
0.0
  3
*U50
  1

  0
TEXT
  5
1F7B
  8
DIMENSION
 10
1741.7949337242339425
 20
1283.1080507794929417
 30
0.0
 40
20.0
  1
75
  7
TITLE3
  0
ENDBLK
  5
1F7D
  8
0
  0
BLOCK
  8
0
  2
*U51
 70
     1
 10
0.0
 20
0.0
 30
0.0
  3
*U51
  1

  0
TEXT
  5
1F7F
  8
DIMENSION
 10
1651.2955003108208984
 20
294.9403771273327948
 30
0.0
 40
20.0
  1
357
 50
89.9999999999999858
  7
TITLE3
  0
ENDBLK
  5
1F81
  8
0
  0
BLOCK
  8
0
  2
*U52
 70
     1
 10
0.0
 20
0.0
 30
0.0
  3
*U52
  1

  0
TEXT
  5
1F83
  8
DIMENSION
 10
1707.1343702084700453
 20
254.7912374814004011
 30
0.0
 40
20.0
  1
274
 50
89.9999999999999858
  7
TITLE3
  0
ENDBLK
  5
1F85
  8
0
  0
BLOCK
  8
0
  2
*U53
 70
     1
 10
0.0
 20
0.0
 30
0.0
  3
*U53
  1

  0
TEXT
  5
1F87
  8
DIMENSION
 10
1744.8716674172019339
 20
216.9514297051364906
 30
0.0
 40
20.0
  1
199
 50
89.9999999999999858
  7
TITLE3
  0
ENDBLK
  5
1F89
  8
0
  0
BLOCK
  8
0
  2
*U54
 70
     1
 10
0.0
 20
0.0
 30
0.0
  3
*U54
  1

  0
TEXT
  5
1F8B
  8
DIMENSION
 10
777.7338127015212876
 20
73.4611033679162233
 30
0.0
 40
21.7856999999999985
  1
445 Mounting CTS
  7
MTXPL_TAHOMA
  0
ENDBLK
  5
1F8D
  8
0
  0
BLOCK
  8
0
  2
*U55
 70
     1
 10
0.0
 20
0.0
 30
0.0
  3
*U55
  1

  0
TEXT
  5
1F8F
  8
DIMENSION
 10
686.7327313172813774
 20
1300.515104594775039
 30
0.0
 40
21.7857156481061693
  1
147
  7
MTXPL_TAHOMA
  0
ENDBLK
  5
1F91
  8
0
  0
BLOCK
  8
0
  2
*U56
 70
     1
 10
0.0
 20
0.0
 30
0.0
  3
*U56
  1

  0
TEXT
  5
1F93
  8
DIMENSION
 10
884.3136509716889577
 20
1300.7418867254300494
 30
0.0
 40
21.7857156481061693
  1
237
  7
MTXPL_TAHOMA
  0
ENDBLK
  5
1F95
  8
0
  0
BLOCK
  8
0
  2
*U57
 70
     1
 10
0.0
 20
0.0
 30
0.0
  3
*U57
  1

  0
TEXT
  5
1F97
  8
DIMENSION
 10
585.3067358023190536
 20
1756.0055431869359381
 30
0.0
 40
21.7857156481061693
  1
537
 50
90.0
  7
MTXPL_TAHOMA
  0
ENDBLK
  5
1F99
  8
0
  0
BLOCK
  8
0
  2
*U58
 70
     1
 10
0.0
 20
0.0
 30
0.0
  3
*U58
  1

  0
TEXT
  5
1F9B
  8
DIMENSION
 10
852.9592328492692559
 20
1434.4196729536909061
 30
0.0
 40
21.7856999999999985
  1
530 O/D
  7
MTXPL_TAHOMA
  0
ENDBLK
  5
1F9D
  8
0
  0
BLOCK
  8
0
  2
*U59
 70
     1
 10
0.0
 20
0.0
 30
0.0
  3
*U59
  1

  0
TEXT
  5
1F9F
  8
DIMENSION
 10
531.0436048897648789
 20
1719.0750888378049694
 30
0.0
 40
21.7856999999999985
  1
589 O/D
 50
90.0
  7
MTXPL_TAHOMA
  0
ENDBLK
  5
1FA1
  8
0
  0
BLOCK
  8
0
  2
*U60
 70
     1
 10
0.0
 20
0.0
 30
0.0
  3
*U60
  1

  0
TEXT
  5
1FA3
  8
DIMENSION
 10
1216.9546343432980393
 20
1300.7418867254300494
 30
0.0
 40
21.7857156481061693
  1
50
  7
MTXPL_TAHOMA
  0
ENDBLK
  5
1FA5
  8
0
  0
BLOCK
  8
0
  2
*U61
 70
     1
 10
0.0
 20
0.0
 30
0.0
  3
*U61
  1

  0
TEXT
  5
1FA7
  8
DIMENSION
 10
513.4643856843449612
 20
634.9380457442191528
 30
0.0
 40
21.7856999999999985
  1
1115 O/D
 50
90.0
  7
MTXPL_TAHOMA
  0
ENDBLK
  5
1FA9
  8
0
  0
BLOCK
  8
0
  2
*U62
 70
     1
 10
0.0
 20
0.0
 30
0.0
  3
*U62
  1

  0
TEXT
  5
1FAB
  8
DIMENSION
 10
690.0393610932867432
 20
1302.3373980058900088
 30
0.0
 40
20.0
  1
147
  7
TITLE3
  0
ENDBLK
  5
1FAD
  8
0
  0
BLOCK
  8
0
  2
*U63
 70
     1
 10
0.0
 20
0.0
 30
0.0
  3
*U63
  1

  0
TEXT
  5
1FAF
  8
DIMENSION
 10
885.9084414388775031
 20
1302.7543845041921031
 30
0.0
 40
20.0
  1
237
  7
TITLE3
  0
ENDBLK
  5
1FB1
  8
0
  0
BLOCK
  8
0
  2
*U64
 70
     1
 10
0.0
 20
0.0
 30
0.0
  3
*U64
  1

  0
TEXT
  5
1FB3
  8
DIMENSION
 10
1218.7688913885399415
 20
1302.7470689515901086
 30
0.0
 40
20.0
  1
50
  7
TITLE3
  0
ENDBLK
  5
1FB5
  8
0
  0
BLOCK
  8
0
  2
*U65
 70
     1
 10
0.0
 20
0.0
 30
0.0
  3
*U65
  1

  0
TEXT
  5
1FB7
  8
DIMENSION
 10
575.8295044722791545
 20
648.7485641404543912
 30
0.0
 40
21.7857156481061693
  1
1080
 50
90.0
  7
MTXPL_TAHOMA
  0
ENDBLK
  5
1FB9
  8
0
  0
BLOCK
  8
0
  2
*U66
 70
     1
 10
0.0
 20
0.0
 30
0.0
  3
*U66
  1

  0
TEXT
  5
1FBB
  8
DIMENSION
 10
573.7950600357122539
 20
652.055193916459757
 30
0.0
 40
20.0
  1
1080
 50
89.9999999999999858
  7
TITLE3
  0
ENDBLK
  5
1FBD
  8
0
  0
BLOCK
  8
0
  2
*U67
 70
     1
 10
0.0
 20
0.0
 30
0.0
  3
*U67
  1

  0
TEXT
  5
1FBF
  8
DIMENSION
 10
583.2942380235577957
 20
2148.9340274987221164
 30
0.0
 40
20.0
  1
537
 50
89.9999999999999858
  7
TITLE3
  0
ENDBLK
  5
1FC1
  8
0
  0
BLOCK
  8
0
  2
*U68
 70
     1
 10
0.0
 20
0.0
 30
0.0
  3
*U68
  1

  0
TEXT
  5
1FC3
  8
0
 62
     0
 10
1984.1064071195619363
 20
1241.7298393976770967
 30
0.0
 40
0.18
  1
38.2200
  0
ENDBLK
  5
1FC5
  8
0
  0
ENDSEC
  0
SECTION
  2
ENTITIES
  0
LINE
  5
14D
  8
VISIBLE
 10
1150.6293050415708876
 20
146.309839397678104
 30
0.0
 11
1152.6293050415708876
 21
145.3098393976777913
 31
0.0
  0
LINE
  5
14E
  8
VISIBLE
 10
1152.6293050415708876
 20
145.3098393976777913
 30
0.0
 11
1152.6293050415708876
 21
146.6521787735435964
 31
0.0
  0
LINE
  5
14F
  8
VISIBLE
 10
1152.6293050415708876
 20
146.6521787735435964
 30
0.0
 11
1150.6293050415708876
 21
147.6521787735439091
 31
0.0
  0
LINE
  5
150
  8
VISIBLE
 10
1150.6293050415708876
 20
147.6521787735439091
 30
0.0
 11
1150.6293050415708876
 21
146.309839397678104
 31
0.0
  0
LINE
  5
151
  8
VISIBLE
 10
1110.4828124366849806
 20
145.3098393976779903
 30
0.0
 11
1112.4828124366849806
 21
146.309839397678104
 31
0.0
  0
LINE
  5
152
  8
VISIBLE
 10
1112.4828124366849806
 20
146.309839397678104
 30
0.0
 11
1112.4828124366849806
 21
147.6521787735439943
 31
0.0
  0
LINE
  5
153
  8
VISIBLE
 10
1112.4828124366849806
 20
147.6521787735439943
 30
0.0
 11
1110.4828124366849806
 21
146.6521787735439091
 31
0.0
  0
LINE
  5
154
  8
VISIBLE
 10
1110.4828124366849806
 20
146.6521787735439091
 30
0.0
 11
1110.4828124366849806
 21
145.3098393976779903
 31
0.0
  0
LINE
  5
155
  8
VISIBLE
 10
1152.6293050415708876
 20
145.3098393976777913
 30
0.0
 11
1152.6293050415708876
 21
142.6849682670813024
 31
0.0
  0
LINE
  5
156
  8
VISIBLE
 10
1142.5560587391280478
 20
146.309839397678104
 30
0.0
 11
1150.6293050415708876
 21
146.309839397678104
 31
0.0
  0
LINE
  5
157
  8
VISIBLE
 10
1137.5560587391280478
 20
143.8098393976777913
 30
0.0
 11
1137.5560587391280478
 21
142.6849682670813024
 31
0.0
  0
LINE
  5
158
  8
VISIBLE
 10
1112.4828124366849806
 20
146.309839397678104
 30
0.0
 11
1120.5560587391280478
 21
146.309839397678104
 31
0.0
  0
LINE
  5
159
  8
VISIBLE
 10
1112.4828124366849806
 20
147.6521787735439943
 30
0.0
 11
1120.5560587391280478
 21
147.6521787735439943
 31
0.0
  0
LINE
  5
15A
  8
VISIBLE
 10
1110.4828124366849806
 20
142.6849682670815014
 30
0.0
 11
1110.4828124366849806
 21
145.3098393976779903
 31
0.0
  0
LINE
  5
15B
  8
VISIBLE
 10
1125.5560587391280478
 20
142.6849682670813024
 30
0.0
 11
1125.5560587391280478
 21
143.8098393976777913
 31
0.0
  0
LINE
  5
15C
  8
VISIBLE
 10
1142.5560587391280478
 20
147.6521787735439091
 30
0.0
 11
1150.6293050415708876
 21
147.6521787735439091
 31
0.0
  0
LINE
  5
15D
  8
VISIBLE
 10
1137.5560587391280478
 20
143.8098393976777913
 30
0.0
 11
1142.5560587391280478
 21
146.309839397678104
 31
0.0
  0
LINE
  5
15F
  8
VISIBLE
 10
1120.5560587391280478
 20
146.309839397678104
 30
0.0
 11
1125.5560587391280478
 21
143.8098393976777913
 31
0.0
  0
LINE
  5
160
  8
VISIBLE
 10
1142.5560587391280478
 20
146.309839397678104
 30
0.0
 11
1142.5560587391280478
 21
147.6521787735439091
 31
0.0
  0
LINE
  5
161
  8
VISIBLE
 10
1142.5560587391280478
 20
147.6521787735439091
 30
0.0
 11
1137.5560587391280478
 21
145.1521787735437954
 31
0.0
  0
LINE
  5
162
  8
VISIBLE
 10
1137.5560587391280478
 20
145.1521787735437954
 30
0.0
 11
1137.5560587391280478
 21
143.8098393976777913
 31
0.0
  0
LINE
  5
163
  8
VISIBLE
 10
1125.5560587391280478
 20
145.1521787735437101
 30
0.0
 11
1120.5560587391280478
 21
147.6521787735439943
 31
0.0
  0
LINE
  5
164
  8
VISIBLE
 10
1125.5560587391280478
 20
143.8098393976777913
 30
0.0
 11
1125.5560587391280478
 21
145.1521787735437101
 31
0.0
  0
LINE
  5
165
  8
VISIBLE
 10
1137.5560587391280478
 20
142.3098393976775924
 30
0.0
 11
1137.5560587391280478
 21
142.6849682670813024
 31
0.0
  0
LINE
  5
166
  8
VISIBLE
 10
1125.5560587391280478
 20
142.6849682670813024
 30
0.0
 11
1125.5560587391280478
 21
142.3098393976777061
 31
0.0
  0
LINE
  5
167
  8
VISIBLE
 10
1137.5560587391280478
 20
142.3098393976779903
 30
0.0
 11
1152.6293050415708876
 21
142.3098393976777061
 31
0.0
  0
LINE
  5
168
  8
VISIBLE
 10
1152.6293050415708876
 20
142.3098393976775924
 30
0.0
 11
1152.6293050415708876
 21
142.6849682670813024
 31
0.0
  0
LINE
  5
169
  8
VISIBLE
 10
1110.4828124366849806
 20
142.6849682670815014
 30
0.0
 11
1110.4828124366849806
 21
142.309839397677905
 31
0.0
  0
LINE
  5
16A
  8
VISIBLE
 10
1110.4828124366849806
 20
142.3098393976777061
 30
0.0
 11
1125.5560587391280478
 21
142.3098393976779903
 31
0.0
  0
LINE
  5
16B
  8
VISIBLE
 10
1125.5560587391280478
 20
143.8598393976778027
 30
0.0
 11
1137.5560587391280478
 21
143.8598393976778027
 31
0.0
  0
LINE
  5
16C
  8
VISIBLE
 10
1137.5560587391280478
 20
142.3098393976777913
 30
0.0
 11
1125.5560587391280478
 21
142.3098393976777913
 31
0.0
  0
LINE
  5
16D
  8
VISIBLE
 10
1097.5606781165549819
 20
163.3098393976779903
 30
0.0
 11
1116.5560587391280478
 21
163.3098393976773934
 31
0.0
  0
LINE
  5
16E
  8
VISIBLE
 10
1096.6031225626559262
 20
159.7063548855699082
 30
0.0
 11
1109.0753055560060147
 21
144.8425859957528985
 31
0.0
  0
LINE
  5
170
  8
VISIBLE
 10
1107.8879366691710402
 20
143.8462652007387987
 30
0.0
 11
1095.4157536758220886
 21
158.7100340905556948
 31
0.0
  0
ARC
  5
172
  8
VISIBLE
 10
1097.5606781165549819
 20
160.5098393976780073
 30
0.0
 40
2.7999999999999479
 50
90.0
 51
220.0000000000003979
  0
ARC
  5
173
  8
VISIBLE
 10
1097.5606781165549819
 20
160.5098393976780926
 30
0.0
 40
1.249999999999857
 50
90.0
 51
219.9999999999990905
  0
LINE
  5
174
  8
VISIBLE
 10
1116.5560587391280478
 20
161.7598393976780073
 30
0.0
 11
1097.5606781165549819
 21
161.7598393976780073
 31
0.0
  0
LINE
  5
175
  8
VISIBLE
 10
1116.5560587391280478
 20
163.3098393976773934
 30
0.0
 11
1116.5560587391280478
 21
161.7598393976780073
 31
0.0
  0
LINE
  5
176
  8
VISIBLE
 10
1165.5514393617008864
 20
161.7598393976776094
 30
0.0
 11
1146.5560587391280478
 21
161.7598393976774958
 31
0.0
  0
ARC
  5
177
  8
VISIBLE
 10
1165.5514393617008864
 20
160.5098393976776947
 30
0.0
 40
1.249999999999891
 50
320.0000000000009095
 51
90.0000000000058407
  0
ARC
  5
179
  8
VISIBLE
 10
1165.5514393617008864
 20
160.5098393976776947
 30
0.0
 40
2.799999999999939
 50
319.9999999999996021
 51
90.0
  0
LINE
  5
17A
  8
VISIBLE
 10
1146.5560587391280478
 20
163.3098393976775071
 30
0.0
 11
1165.5514393617008864
 21
163.3098393976777061
 31
0.0
  0
LINE
  5
17B
  8
VISIBLE
 10
1146.5560587391280478
 20
161.7598393976774958
 30
0.0
 11
1146.5560587391280478
 21
163.3098393976775071
 31
0.0
  0
LINE
  5
17C
  8
VISIBLE
 10
1154.0368119222500809
 20
144.8425859957528985
 30
0.0
 11
1166.508994915599942
 21
159.7063548855695956
 31
0.0
  0
LINE
  5
17E
  8
VISIBLE
 10
1167.6963638024340071
 20
158.7100340905554958
 30
0.0
 11
1155.2241808090850554
 21
143.8462652007387135
 31
0.0
  0
LINE
  5
17F
  8
VISIBLE
 10
1107.8879366691710402
 20
143.8462652007387987
 30
0.0
 11
1108.3378879959520873
 21
143.3100340905554901
 31
0.0
  0
LINE
  5
180
  8
VISIBLE
 10
1109.525256882785925
 20
144.3063548855697036
 30
0.0
 11
1109.0753055560060147
 21
144.8425859957528985
 31
0.0
  0
LINE
  5
181
  8
VISIBLE
 10
1154.0368119222500809
 20
144.8425859957528985
 30
0.0
 11
1153.5868605954699433
 21
144.3063548855695046
 31
0.0
  0
LINE
  5
182
  8
VISIBLE
 10
1154.7742294823040083
 20
143.3100340905554049
 30
0.0
 11
1155.2241808090850554
 21
143.8462652007387135
 31
0.0
  0
ARC
  5
183
  8
VISIBLE
 10
1152.6293050415708876
 20
145.109839397677689
 30
0.0
 40
2.8000000000000109
 50
270.0
 51
320.0000000000017053
  0
ARC
  5
184
  8
VISIBLE
 10
1152.6293050415708876
 20
145.1098393976774901
 30
0.0
 40
1.249999999999859
 50
270.0
 51
320.0000000000031264
  0
ARC
  5
185
  8
VISIBLE
 10
1110.4828124366849806
 20
145.1098393976776038
 30
0.0
 40
2.7999999999997849
 50
219.999999999996902
 51
270.0000000000026148
  0
ARC
  5
186
  8
VISIBLE
 10
1110.4828124366849806
 20
145.1098393976774048
 30
0.0
 40
1.2499999999996441
 50
219.9999999999928093
 51
270.000000000005798
  0
LINE
  5
187
  8
VISIBLE
 10
705.7293050415730704
 20
146.3098393976790135
 30
0.0
 11
707.7293050415731841
 21
145.3098393976785871
 31
0.0
  0
LINE
  5
188
  8
VISIBLE
 10
707.7293050415731841
 20
145.3098393976785871
 30
0.0
 11
707.7293050415731841
 21
146.6521787735445059
 31
0.0
  0
LINE
  5
189
  8
VISIBLE
 10
707.7293050415731841
 20
146.6521787735445059
 30
0.0
 11
705.7293050415730704
 21
147.6521787735447901
 31
0.0
  0
LINE
  5
18A
  8
VISIBLE
 10
705.7293050415730704
 20
147.6521787735447901
 30
0.0
 11
705.7293050415730704
 21
146.3098393976790135
 31
0.0
  0
LINE
  5
18B
  8
VISIBLE
 10
665.5828124366867087
 20
145.3098393976788998
 30
0.0
 11
667.5828124366867087
 21
146.3098393976790135
 31
0.0
  0
LINE
  5
18C
  8
VISIBLE
 10
667.5828124366867087
 20
146.3098393976790135
 30
0.0
 11
667.5828124366867087
 21
147.6521787735449038
 31
0.0
  0
LINE
  5
18D
  8
VISIBLE
 10
667.5828124366867087
 20
147.6521787735449038
 30
0.0
 11
665.5828124366867087
 21
146.6521787735447049
 31
0.0
  0
LINE
  5
18E
  8
VISIBLE
 10
665.5828124366867087
 20
146.6521787735447049
 30
0.0
 11
665.5828124366867087
 21
145.3098393976788998
 31
0.0
  0
LINE
  5
18F
  8
VISIBLE
 10
707.7293050415731841
 20
145.3098393976785871
 30
0.0
 11
707.7293050415731841
 21
142.6849682670820982
 31
0.0
  0
LINE
  5
190
  8
VISIBLE
 10
697.6560587391300032
 20
146.3098393976790135
 30
0.0
 11
705.7293050415730704
 21
146.3098393976790135
 31
0.0
  0
LINE
  5
191
  8
VISIBLE
 10
692.6560587391300032
 20
143.8098393976785871
 30
0.0
 11
692.6560587391300032
 21
142.6849682670820982
 31
0.0
  0
LINE
  5
192
  8
VISIBLE
 10
667.5828124366867087
 20
146.3098393976790135
 30
0.0
 11
675.6560587391297759
 21
146.3098393976790135
 31
0.0
  0
LINE
  5
193
  8
VISIBLE
 10
667.5828124366867087
 20
147.6521787735449038
 30
0.0
 11
675.6560587391297759
 21
147.6521787735449038
 31
0.0
  0
LINE
  5
194
  8
VISIBLE
 10
665.5828124366867087
 20
142.6849682670824109
 30
0.0
 11
665.5828124366867087
 21
145.3098393976788998
 31
0.0
  0
LINE
  5
195
  8
VISIBLE
 10
680.6560587391298895
 20
142.6849682670820982
 30
0.0
 11
680.6560587391298895
 21
143.8098393976785871
 31
0.0
  0
LINE
  5
196
  8
VISIBLE
 10
697.6560587391300032
 20
147.6521787735447901
 30
0.0
 11
705.7293050415730704
 21
147.6521787735447901
 31
0.0
  0
LINE
  5
197
  8
VISIBLE
 10
692.6560587391300032
 20
143.8098393976785871
 30
0.0
 11
697.6560587391300032
 21
146.3098393976790135
 31
0.0
  0
LINE
  5
198
  8
VISIBLE
 10
675.6560587391297759
 20
147.6521787735449038
 30
0.0
 11
675.6560587391297759
 21
146.3098393976790135
 31
0.0
  0
LINE
  5
199
  8
VISIBLE
 10
675.6560587391297759
 20
146.3098393976790135
 30
0.0
 11
680.6560587391298895
 21
143.8098393976785871
 31
0.0
  0
LINE
  5
19A
  8
VISIBLE
 10
697.6560587391300032
 20
146.3098393976790135
 30
0.0
 11
697.6560587391300032
 21
147.6521787735447901
 31
0.0
  0
LINE
  5
19B
  8
VISIBLE
 10
697.6560587391300032
 20
147.6521787735447901
 30
0.0
 11
692.6560587391300032
 21
145.1521787735445912
 31
0.0
  0
LINE
  5
19C
  8
VISIBLE
 10
692.6560587391300032
 20
145.1521787735445912
 30
0.0
 11
692.6560587391300032
 21
143.8098393976785871
 31
0.0
  0
LINE
  5
19D
  8
VISIBLE
 10
680.6560587391298895
 20
145.1521787735445912
 30
0.0
 11
675.6560587391297759
 21
147.6521787735449038
 31
0.0
  0
LINE
  5
19E
  8
VISIBLE
 10
680.6560587391298895
 20
143.8098393976785871
 30
0.0
 11
680.6560587391298895
 21
145.1521787735445912
 31
0.0
  0
LINE
  5
19F
  8
VISIBLE
 10
692.6560587391300032
 20
142.3098393976785019
 30
0.0
 11
692.6560587391300032
 21
142.6849682670820982
 31
0.0
  0
LINE
  5
1A0
  8
VISIBLE
 10
680.6560587391298895
 20
142.6849682670820982
 30
0.0
 11
680.6560587391298895
 21
142.3098393976785019
 31
0.0
  0
LINE
  5
1A1
  8
VISIBLE
 10
692.6560587391300032
 20
142.3098393976788998
 30
0.0
 11
707.7293050415731841
 21
142.3098393976785019
 31
0.0
  0
LINE
  5
1A2
  8
VISIBLE
 10
707.7293050415731841
 20
142.3098393976785019
 30
0.0
 11
707.7293050415731841
 21
142.6849682670820982
 31
0.0
  0
LINE
  5
1A3
  8
VISIBLE
 10
665.5828124366867087
 20
142.6849682670824109
 30
0.0
 11
665.5828124366867087
 21
142.3098393976787861
 31
0.0
  0
LINE
  5
1A4
  8
VISIBLE
 10
665.5828124366867087
 20
142.3098393976785871
 30
0.0
 11
680.6560587391298895
 21
142.3098393976788998
 31
0.0
  0
LINE
  5
1A5
  8
VISIBLE
 10
680.6560587391298895
 20
143.8598393976785985
 30
0.0
 11
692.6560587391298895
 21
143.8598393976785985
 31
0.0
  0
LINE
  5
1A6
  8
VISIBLE
 10
692.6560587391298895
 20
142.3098393976785871
 30
0.0
 11
680.6560587391298895
 21
142.3098393976785871
 31
0.0
  0
LINE
  5
1A7
  8
VISIBLE
 10
652.6606781165568236
 20
163.3098393976788998
 30
0.0
 11
671.6560587391301169
 21
163.3098393976783882
 31
0.0
  0
LINE
  5
1A8
  8
VISIBLE
 10
651.703122562658109
 20
159.706354885570704
 30
0.0
 11
664.1753055560076291
 21
144.8425859957536943
 31
0.0
  0
LINE
  5
1AA
  8
VISIBLE
 10
662.9879366691729956
 20
143.8462652007397082
 30
0.0
 11
650.5157536758234755
 21
158.7100340905566895
 31
0.0
  0
ARC
  5
1AC
  8
VISIBLE
 10
652.6606781165568236
 20
160.5098393976788884
 30
0.0
 40
2.7999999999999599
 50
90.0000000000012932
 51
220.0000000000003979
  0
ARC
  5
1AD
  8
VISIBLE
 10
652.6606781165568236
 20
160.5098393976790021
 30
0.0
 40
1.249999999999863
 50
90.0
 51
220.0000000000009095
  0
LINE
  5
1AE
  8
VISIBLE
 10
671.6560587391301169
 20
161.7598393976788884
 30
0.0
 11
652.6606781165568236
 21
161.7598393976788884
 31
0.0
  0
LINE
  5
1AF
  8
VISIBLE
 10
671.6560587391301169
 20
163.3098393976783882
 30
0.0
 11
671.6560587391301169
 21
161.7598393976788884
 31
0.0
  0
LINE
  5
1B0
  8
VISIBLE
 10
720.6514393617030692
 20
161.7598393976786042
 30
0.0
 11
701.6560587391300032
 21
161.7598393976784905
 31
0.0
  0
ARC
  5
1B1
  8
VISIBLE
 10
720.6514393617030692
 20
160.5098393976786895
 30
0.0
 40
1.2499999999998961
 50
320.0000000000009095
 51
90.0000000000058407
  0
ARC
  5
1B3
  8
VISIBLE
 10
720.6514393617030692
 20
160.5098393976786895
 30
0.0
 40
2.7999999999999519
 50
319.9999999999996021
 51
90.0
  0
LINE
  5
1B4
  8
VISIBLE
 10
701.6560587391296622
 20
163.3098393976785019
 30
0.0
 11
720.6514393617030692
 21
163.3098393976785871
 31
0.0
  0
LINE
  5
1B5
  8
VISIBLE
 10
701.6560587391300032
 20
161.7598393976784905
 30
0.0
 11
701.6560587391296622
 21
163.3098393976785019
 31
0.0
  0
LINE
  5
1B6
  8
VISIBLE
 10
709.1368119222524911
 20
144.8425859957536943
 30
0.0
 11
721.6089949156016701
 21
159.7063548855705903
 31
0.0
  0
LINE
  5
1B8
  8
VISIBLE
 10
722.7963638024361899
 20
158.7100340905564053
 30
0.0
 11
710.3241808090868972
 21
143.8462652007395945
 31
0.0
  0
LINE
  5
1B9
  8
VISIBLE
 10
662.9879366691729956
 20
143.8462652007397082
 30
0.0
 11
663.437887995953588
 21
143.3100340905563996
 31
0.0
  0
LINE
  5
1BA
  8
VISIBLE
 10
664.6252568827881078
 20
144.3063548855704994
 30
0.0
 11
664.1753055560076291
 21
144.8425859957536943
 31
0.0
  0
LINE
  5
1BB
  8
VISIBLE
 10
709.1368119222524911
 20
144.8425859957536943
 30
0.0
 11
708.686860595471785
 21
144.3063548855704141
 31
0.0
  0
LINE
  5
1BC
  8
VISIBLE
 10
709.8742294823063048
 20
143.3100340905562007
 30
0.0
 11
710.3241808090868972
 21
143.8462652007395945
 31
0.0
  0
ARC
  5
1BD
  8
VISIBLE
 10
707.7293050415731841
 20
145.1098393976785133
 30
0.0
 40
2.8000000000000229
 50
270.0
 51
320.0000000000017053
  0
ARC
  5
1BE
  8
VISIBLE
 10
707.7293050415731841
 20
145.1098393976783996
 30
0.0
 40
1.2499999999998641
 50
270.0
 51
320.0000000000031264
  0
ARC
  5
1BF
  8
VISIBLE
 10
665.5828124366867087
 20
145.1098393976785133
 30
0.0
 40
2.799999999999796
 50
219.999999999996902
 51
270.0000000000026148
  0
ARC
  5
1C0
  8
VISIBLE
 10
665.5828124366867087
 20
145.1098393976782859
 30
0.0
 40
1.2499999999996501
 50
219.9999999999928093
 51
270.000000000005798
  0
LINE
  5
1C3
  8
VISIBLE
 10
1169.6060587391280023
 20
165.3098393976779903
 30
0.0
 11
1171.5560587391280478
 21
165.3098393976779903
 31
0.0
  0
LINE
  5
1C4
  8
VISIBLE
 10
1169.6060587391280023
 20
165.3098393976779903
 30
0.0
 11
1125.0060587391280933
 21
165.3098393976779903
 31
0.0
  0
LINE
  5
1C5
  8
VISIBLE
 10
1125.0060587391280933
 20
204.309839397678104
 30
0.0
 11
1123.0560587391280478
 21
204.309839397678104
 31
0.0
  0
LINE
  5
1C6
  8
VISIBLE
 10
1125.0060587391280933
 20
165.3098393976779903
 30
0.0
 11
1125.0060587391280933
 21
204.309839397678104
 31
0.0
  0
LINE
  5
1C9
  8
VISIBLE
 10
1123.0560587391280478
 20
204.309839397678104
 30
0.0
 11
1123.0560587391280478
 21
1202.7098393976780244
 31
0.0
  0
LINE
  5
1CA
  8
VISIBLE
 10
1171.5560587391280478
 20
165.3098393976779903
 30
0.0
 11
1171.5560587391280478
 21
1202.7098393976780244
 31
0.0
  0
CIRCLE
  5
1CD
  8
VISIBLE
 10
1147.5560587391280478
 20
499.3628393976779876
 30
0.0
 40
12.6999999999999993
  0
CIRCLE
  5
1D2
  8
VISIBLE
 10
1147.5560587391280478
 20
416.3098393976778766
 30
0.0
 40
16.0
  0
CIRCLE
  5
1D3
  8
VISIBLE
 10
1147.5560587391280478
 20
341.309839397678104
 30
0.0
 40
16.0
  0
LINE
  5
1D7
  8
VISIBLE
 10
693.2060587391282525
 20
165.3098393976779903
 30
0.0
 11
646.6560587391285253
 21
165.3098393976779903
 31
0.0
  0
LINE
  5
1DE
  8
VISIBLE
 10
695.1560587391281842
 20
204.309839397678104
 30
0.0
 11
693.206058739125524
 21
204.309839397678104
 31
0.0
  0
LINE
  5
1DF
  8
VISIBLE
 10
693.2060587391282525
 20
165.3098393976779903
 30
0.0
 11
693.2060587391254103
 21
204.309839397678104
 31
0.0
  0
LINE
  5
1E0
  8
VISIBLE
 10
695.1560587391281842
 20
204.309839397678104
 30
0.0
 11
695.1560587391281842
 21
1202.7098393976780244
 31
0.0
  0
LINE
  5
1E1
  8
VISIBLE
 10
646.6560587391284116
 20
165.3098393976779903
 30
0.0
 11
646.6560587391284116
 21
1202.7098393976780244
 31
0.0
  0
POLYLINE
  8
VISIBLE
  5
1FC6
  66
     1
 10
0.000000
 20
0.000000
 30
0.000000
  70
     8
  0
VERTEX
  8
VISIBLE
  5
1FC7
 10
646.256
 20
1222.71
 30
0.000000
  70
    32
  0
VERTEX
  8
VISIBLE
  5
1FC8
 10
646.241
 20
1222.71
 30
0.000000
  70
    32
  0
VERTEX
  8
VISIBLE
  5
1FC9
 10
646.226
 20
1222.71
 30
0.000000
  70
    32
  0
VERTEX
  8
VISIBLE
  5
1FCA
 10
646.211
 20
1222.71
 30
0.000000
  70
    32
  0
VERTEX
  8
VISIBLE
  5
1FCB
 10
646.196
 20
1222.71
 30
0.000000
  70
    32
  0
VERTEX
  8
VISIBLE
  5
1FCC
 10
646.180
 20
1222.71
 30
0.000000
  70
    32
  0
VERTEX
  8
VISIBLE
  5
1FCD
 10
646.165
 20
1222.71
 30
0.000000
  70
    32
  0
VERTEX
  8
VISIBLE
  5
1FCE
 10
646.150
 20
1222.71
 30
0.000000
  70
    32
  0
VERTEX
  8
VISIBLE
  5
1FCF
 10
646.135
 20
1222.71
 30
0.000000
  70
    32
  0
VERTEX
  8
VISIBLE
  5
1FD0
 10
646.120
 20
1222.71
 30
0.000000
  70
    32
  0
VERTEX
  8
VISIBLE
  5
1FD1
 10
646.105
 20
1222.70
 30
0.000000
  70
    32
  0
VERTEX
  8
VISIBLE
  5
1FD2
 10
646.090
 20
1222.70
 30
0.000000
  70
    32
  0
VERTEX
  8
VISIBLE
  5
1FD3
 10
646.075
 20
1222.70
 30
0.000000
  70
    32
  0
VERTEX
  8
VISIBLE
  5
1FD4
 10
646.060
 20
1222.70
 30
0.000000
  70
    32
  0
VERTEX
  8
VISIBLE
  5
1FD5
 10
646.045
 20
1222.70
 30
0.000000
  70
    32
  0
VERTEX
  8
VISIBLE
  5
1FD6
 10
646.030
 20
1222.70
 30
0.000000
  70
    32
  0
VERTEX
  8
VISIBLE
  5
1FD7
 10
646.015
 20
1222.70
 30
0.000000
  70
    32
  0
VERTEX
  8
VISIBLE
  5
1FD8
 10
646.000
 20
1222.69
 30
0.000000
  70
    32
  0
VERTEX
  8
VISIBLE
  5
1FD9
 10
645.985
 20
1222.69
 30
0.000000
  70
    32
  0
VERTEX
  8
VISIBLE
  5
1FDA
 10
645.970
 20
1222.69
 30
0.000000
  70
    32
  0
VERTEX
  8
VISIBLE
  5
1FDB
 10
645.955
 20
1222.69
 30
0.000000
  70
    32
  0
VERTEX
  8
VISIBLE
  5
1FDC
 10
645.940
 20
1222.68
 30
0.000000
  70
    32
  0
VERTEX
  8
VISIBLE
  5
1FDD
 10
645.925
 20
1222.68
 30
0.000000
  70
    32
  0
VERTEX
  8
VISIBLE
  5
1FDE
 10
645.910
 20
1222.68
 30
0.000000
  70
    32
  0
VERTEX
  8
VISIBLE
  5
1FDF
 10
645.895
 20
1222.68
 30
0.000000
  70
    32
  0
VERTEX
  8
VISIBLE
  5
1FE0
 10
645.881
 20
1222.67
 30
0.000000
  70
    32
  0
VERTEX
  8
VISIBLE
  5
1FE1
 10
645.866
 20
1222.67
 30
0.000000
  70
    32
  0
VERTEX
  8
VISIBLE
  5
1FE2
 10
645.851
 20
1222.67
 30
0.000000
  70
    32
  0
VERTEX
  8
VISIBLE
  5
1FE3
 10
645.836
 20
1222.67
 30
0.000000
  70
    32
  0
VERTEX
  8
VISIBLE
  5
1FE4
 10
645.822
 20
1222.66
 30
0.000000
  70
    32
  0
VERTEX
  8
VISIBLE
  5
1FE5
 10
645.807
 20
1222.66
 30
0.000000
  70
    32
  0
VERTEX
  8
VISIBLE
  5
1FE6
 10
645.792
 20
1222.66
 30
0.000000
  70
    32
  0
VERTEX
  8
VISIBLE
  5
1FE7
 10
645.777
 20
1222.65
 30
0.000000
  70
    32
  0
VERTEX
  8
VISIBLE
  5
1FE8
 10
645.763
 20
1222.65
 30
0.000000
  70
    32
  0
VERTEX
  8
VISIBLE
  5
1FE9
 10
645.748
 20
1222.64
 30
0.000000
  70
    32
  0
VERTEX
  8
VISIBLE
  5
1FEA
 10
645.734
 20
1222.64
 30
0.000000
  70
    32
  0
VERTEX
  8
VISIBLE
  5
1FEB
 10
645.719
 20
1222.64
 30
0.000000
  70
    32
  0
VERTEX
  8
VISIBLE
  5
1FEC
 10
645.704
 20
1222.63
 30
0.000000
  70
    32
  0
VERTEX
  8
VISIBLE
  5
1FED
 10
645.690
 20
1222.63
 30
0.000000
  70
    32
  0
VERTEX
  8
VISIBLE
  5
1FEE
 10
645.675
 20
1222.62
 30
0.000000
  70
    32
  0
VERTEX
  8
VISIBLE
  5
1FEF
 10
645.661
 20
1222.62
 30
0.000000
  70
    32
  0
VERTEX
  8
VISIBLE
  5
1FF0
 10
645.646
 20
1222.62
 30
0.000000
  70
    32
  0
VERTEX
  8
VISIBLE
  5
1FF1
 10
645.632
 20
1222.61
 30
0.000000
  70
    32
  0
VERTEX
  8
VISIBLE
  5
1FF2
 10
645.618
 20
1222.61
 30
0.000000
  70
    32
  0
VERTEX
  8
VISIBLE
  5
1FF3
 10
645.603
 20
1222.60
 30
0.000000
  70
    32
  0
VERTEX
  8
VISIBLE
  5
1FF4
 10
645.589
 20
1222.60
 30
0.000000
  70
    32
  0
VERTEX
  8
VISIBLE
  5
1FF5
 10
645.575
 20
1222.59
 30
0.000000
  70
    32
  0
VERTEX
  8
VISIBLE
  5
1FF6
 10
645.560
 20
1222.59
 30
0.000000
  70
    32
  0
VERTEX
  8
VISIBLE
  5
1FF7
 10
645.546
 20
1222.58
 30
0.000000
  70
    32
  0
VERTEX
  8
VISIBLE
  5
1FF8
 10
645.532
 20
1222.58
 30
0.000000
  70
    32
  0
VERTEX
  8
VISIBLE
  5
1FF9
 10
645.518
 20
1222.57
 30
0.000000
  70
    32
  0
VERTEX
  8
VISIBLE
  5
1FFA
 10
645.504
 20
1222.57
 30
0.000000
  70
    32
  0
VERTEX
  8
VISIBLE
  5
1FFB
 10
645.490
 20
1222.56
 30
0.000000
  70
    32
  0
VERTEX
  8
VISIBLE
  5
1FFC
 10
645.476
 20
1222.56
 30
0.000000
  70
    32
  0
VERTEX
  8
VISIBLE
  5
1FFD
 10
645.462
 20
1222.55
 30
0.000000
  70
    32
  0
VERTEX
  8
VISIBLE
  5
1FFE
 10
645.448
 20
1222.54
 30
0.000000
  70
    32
  0
VERTEX
  8
VISIBLE
  5
1FFF
 10
645.434
 20
1222.54
 30
0.000000
  70
    32
  0
VERTEX
  8
VISIBLE
  5
2000
 10
645.420
 20
1222.53
 30
0.000000
  70
    32
  0
VERTEX
  8
VISIBLE
  5
2001
 10
645.406
 20
1222.53
 30
0.000000
  70
    32
  0
VERTEX
  8
VISIBLE
  5
2002
 10
645.392
 20
1222.52
 30
0.000000
  70
    32
  0
VERTEX
  8
VISIBLE
  5
2003
 10
645.379
 20
1222.51
 30
0.000000
  70
    32
  0
VERTEX
  8
VISIBLE
  5
2004
 10
645.365
 20
1222.51
 30
0.000000
  70
    32
  0
VERTEX
  8
VISIBLE
  5
2005
 10
645.351
 20
1222.50
 30
0.000000
  70
    32
  0
VERTEX
  8
VISIBLE
  5
2006
 10
645.338
 20
1222.49
 30
0.000000
  70
    32
  0
VERTEX
  8
VISIBLE
  5
2007
 10
645.324
 20
1222.49
 30
0.000000
  70
    32
  0
VERTEX
  8
VISIBLE
  5
2008
 10
645.310
 20
1222.48
 30
0.000000
  70
    32
  0
VERTEX
  8
VISIBLE
  5
2009
 10
645.297
 20
1222.47
 30
0.000000
  70
    32
  0
VERTEX
  8
VISIBLE
  5
200A
 10
645.283
 20
1222.47
 30
0.000000
  70
    32
  0
VERTEX
  8
VISIBLE
  5
200B
 10
645.270
 20
1222.46
 30
0.000000
  70
    32
  0
VERTEX
  8
VISIBLE
  5
200C
 10
645.257
 20
1222.45
 30
0.000000
  70
    32
  0
VERTEX
  8
VISIBLE
  5
200D
 10
645.243
 20
1222.45
 30
0.000000
  70
    32
  0
VERTEX
  8
VISIBLE
  5
200E
 10
645.230
 20
1222.44
 30
0.000000
  70
    32
  0
VERTEX
  8
VISIBLE
  5
200F
 10
645.217
 20
1222.43
 30
0.000000
  70
    32
  0
VERTEX
  8
VISIBLE
  5
2010
 10
645.204
 20
1222.42
 30
0.000000
  70
    32
  0
VERTEX
  8
VISIBLE
  5
2011
 10
645.191
 20
1222.42
 30
0.000000
  70
    32
  0
VERTEX
  8
VISIBLE
  5
2012
 10
645.178
 20
1222.41
 30
0.000000
  70
    32
  0
VERTEX
  8
VISIBLE
  5
2013
 10
645.164
 20
1222.40
 30
0.000000
  70
    32
  0
VERTEX
  8
VISIBLE
  5
2014
 10
645.152
 20
1222.39
 30
0.000000
  70
    32
  0
VERTEX
  8
VISIBLE
  5
2015
 10
645.139
 20
1222.39
 30
0.000000
  70
    32
  0
VERTEX
  8
VISIBLE
  5
2016
 10
645.126
 20
1222.38
 30
0.000000
  70
    32
  0
VERTEX
  8
VISIBLE
  5
2017
 10
645.113
 20
1222.37
 30
0.000000
  70
    32
  0
VERTEX
  8
VISIBLE
  5
2018
 10
645.100
 20
1222.36
 30
0.000000
  70
    32
  0
VERTEX
  8
VISIBLE
  5
2019
 10
645.087
 20
1222.35
 30
0.000000
  70
    32
  0
VERTEX
  8
VISIBLE
  5
201A
 10
645.075
 20
1222.34
 30
0.000000
  70
    32
  0
VERTEX
  8
VISIBLE
  5
201B
 10
645.062
 20
1222.34
 30
0.000000
  70
    32
  0
VERTEX
  8
VISIBLE
  5
201C
 10
645.050
 20
1222.33
 30
0.000000
  70
    32
  0
VERTEX
  8
VISIBLE
  5
201D
 10
645.037
 20
1222.32
 30
0.000000
  70
    32
  0
VERTEX
  8
VISIBLE
  5
201E
 10
645.025
 20
1222.31
 30
0.000000
  70
    32
  0
VERTEX
  8
VISIBLE
  5
201F
 10
645.012
 20
1222.30
 30
0.000000
  70
    32
  0
VERTEX
  8
VISIBLE
  5
2020
 10
645.000
 20
1222.29
 30
0.000000
  70
    32
  0
VERTEX
  8
VISIBLE
  5
2021
 10
644.988
 20
1222.28
 30
0.000000
  70
    32
  0
VERTEX
  8
VISIBLE
  5
2022
 10
644.976
 20
1222.28
 30
0.000000
  70
    32
  0
VERTEX
  8
VISIBLE
  5
2023
 10
644.964
 20
1222.27
 30
0.000000
  70
    32
  0
VERTEX
  8
VISIBLE
  5
2024
 10
644.952
 20
1222.26
 30
0.000000
  70
    32
  0
VERTEX
  8
VISIBLE
  5
2025
 10
644.940
 20
1222.25
 30
0.000000
  70
    32
  0
VERTEX
  8
VISIBLE
  5
2026
 10
644.928
 20
1222.24
 30
0.000000
  70
    32
  0
VERTEX
  8
VISIBLE
  5
2027
 10
644.916
 20
1222.23
 30
0.000000
  70
    32
  0
VERTEX
  8
VISIBLE
  5
2028
 10
644.904
 20
1222.22
 30
0.000000
  70
    32
  0
VERTEX
  8
VISIBLE
  5
2029
 10
644.892
 20
1222.21
 30
0.000000
  70
    32
  0
VERTEX
  8
VISIBLE
  5
202A
 10
644.880
 20
1222.20
 30
0.000000
  70
    32
  0
VERTEX
  8
VISIBLE
  5
202B
 10
644.869
 20
1222.19
 30
0.000000
  70
    32
  0
VERTEX
  8
VISIBLE
  5
202C
 10
644.857
 20
1222.18
 30
0.000000
  70
    32
  0
VERTEX
  8
VISIBLE
  5
202D
 10
644.846
 20
1222.17
 30
0.000000
  70
    32
  0
VERTEX
  8
VISIBLE
  5
202E
 10
644.834
 20
1222.16
 30
0.000000
  70
    32
  0
VERTEX
  8
VISIBLE
  5
202F
 10
644.823
 20
1222.15
 30
0.000000
  70
    32
  0
VERTEX
  8
VISIBLE
  5
2030
 10
644.812
 20
1222.14
 30
0.000000
  70
    32
  0
VERTEX
  8
VISIBLE
  5
2031
 10
644.801
 20
1222.13
 30
0.000000
  70
    32
  0
VERTEX
  8
VISIBLE
  5
2032
 10
644.789
 20
1222.12
 30
0.000000
  70
    32
  0
VERTEX
  8
VISIBLE
  5
2033
 10
644.778
 20
1222.11
 30
0.000000
  70
    32
  0
VERTEX
  8
VISIBLE
  5
2034
 10
644.767
 20
1222.10
 30
0.000000
  70
    32
  0
VERTEX
  8
VISIBLE
  5
2035
 10
644.756
 20
1222.09
 30
0.000000
  70
    32
  0
VERTEX
  8
VISIBLE
  5
2036
 10
644.745
 20
1222.08
 30
0.000000
  70
    32
  0
VERTEX
  8
VISIBLE
  5
2037
 10
644.735
 20
1222.07
 30
0.000000
  70
    32
  0
VERTEX
  8
VISIBLE
  5
2038
 10
644.724
 20
1222.06
 30
0.000000
  70
    32
  0
VERTEX
  8
VISIBLE
  5
2039
 10
644.713
 20
1222.05
 30
0.000000
  70
    32
  0
VERTEX
  8
VISIBLE
  5
203A
 10
644.703
 20
1222.04
 30
0.000000
  70
    32
  0
VERTEX
  8
VISIBLE
  5
203B
 10
644.692
 20
1222.03
 30
0.000000
  70
    32
  0
VERTEX
  8
VISIBLE
  5
203C
 10
644.682
 20
1222.01
 30
0.000000
  70
    32
  0
VERTEX
  8
VISIBLE
  5
203D
 10
644.672
 20
1222.00
 30
0.000000
  70
    32
  0
VERTEX
  8
VISIBLE
  5
203E
 10
644.661
 20
1221.99
 30
0.000000
  70
    32
  0
VERTEX
  8
VISIBLE
  5
203F
 10
644.651
 20
1221.98
 30
0.000000
  70
    32
  0
VERTEX
  8
VISIBLE
  5
2040
 10
644.641
 20
1221.97
 30
0.000000
  70
    32
  0
VERTEX
  8
VISIBLE
  5
2041
 10
644.631
 20
1221.96
 30
0.000000
  70
    32
  0
VERTEX
  8
VISIBLE
  5
2042
 10
644.621
 20
1221.95
 30
0.000000
  70
    32
  0
VERTEX
  8
VISIBLE
  5
2043
 10
644.611
 20
1221.94
 30
0.000000
  70
    32
  0
VERTEX
  8
VISIBLE
  5
2044
 10
644.601
 20
1221.92
 30
0.000000
  70
    32
  0
VERTEX
  8
VISIBLE
  5
2045
 10
644.592
 20
1221.91
 30
0.000000
  70
    32
  0
VERTEX
  8
VISIBLE
  5
2046
 10
644.582
 20
1221.90
 30
0.000000
  70
    32
  0
VERTEX
  8
VISIBLE
  5
2047
 10
644.573
 20
1221.89
 30
0.000000
  70
    32
  0
VERTEX
  8
VISIBLE
  5
2048
 10
644.563
 20
1221.88
 30
0.000000
  70
    32
  0
VERTEX
  8
VISIBLE
  5
2049
 10
644.554
 20
1221.87
 30
0.000000
  70
    32
  0
VERTEX
  8
VISIBLE
  5
204A
 10
644.544
 20
1221.85
 30
0.000000
  70
    32
  0
VERTEX
  8
VISIBLE
  5
204B
 10
644.535
 20
1221.84
 30
0.000000
  70
    32
  0
VERTEX
  8
VISIBLE
  5
204C
 10
644.526
 20
1221.83
 30
0.000000
  70
    32
  0
VERTEX
  8
VISIBLE
  5
204D
 10
644.517
 20
1221.82
 30
0.000000
  70
    32
  0
VERTEX
  8
VISIBLE
  5
204E
 10
644.508
 20
1221.81
 30
0.000000
  70
    32
  0
VERTEX
  8
VISIBLE
  5
204F
 10
644.499
 20
1221.79
 30
0.000000
  70
    32
  0
VERTEX
  8
VISIBLE
  5
2050
 10
644.490
 20
1221.78
 30
0.000000
  70
    32
  0
VERTEX
  8
VISIBLE
  5
2051
 10
644.482
 20
1221.77
 30
0.000000
  70
    32
  0
VERTEX
  8
VISIBLE
  5
2052
 10
644.473
 20
1221.76
 30
0.000000
  70
    32
  0
VERTEX
  8
VISIBLE
  5
2053
 10
644.465
 20
1221.74
 30
0.000000
  70
    32
  0
VERTEX
  8
VISIBLE
  5
2054
 10
644.456
 20
1221.73
 30
0.000000
  70
    32
  0
VERTEX
  8
VISIBLE
  5
2055
 10
644.448
 20
1221.72
 30
0.000000
  70
    32
  0
VERTEX
  8
VISIBLE
  5
2056
 10
644.440
 20
1221.71
 30
0.000000
  70
    32
  0
VERTEX
  8
VISIBLE
  5
2057
 10
644.432
 20
1221.69
 30
0.000000
  70
    32
  0
VERTEX
  8
VISIBLE
  5
2058
 10
644.424
 20
1221.68
 30
0.000000
  70
    32
  0
VERTEX
  8
VISIBLE
  5
2059
 10
644.416
 20
1221.67
 30
0.000000
  70
    32
  0
VERTEX
  8
VISIBLE
  5
205A
 10
644.408
 20
1221.66
 30
0.000000
  70
    32
  0
VERTEX
  8
VISIBLE
  5
205B
 10
644.400
 20
1221.64
 30
0.000000
  70
    32
  0
VERTEX
  8
VISIBLE
  5
205C
 10
644.392
 20
1221.63
 30
0.000000
  70
    32
  0
VERTEX
  8
VISIBLE
  5
205D
 10
644.385
 20
1221.62
 30
0.000000
  70
    32
  0
VERTEX
  8
VISIBLE
  5
205E
 10
644.377
 20
1221.60
 30
0.000000
  70
    32
  0
VERTEX
  8
VISIBLE
  5
205F
 10
644.370
 20
1221.59
 30
0.000000
  70
    32
  0
VERTEX
  8
VISIBLE
  5
2060
 10
644.363
 20
1221.58
 30
0.000000
  70
    32
  0
VERTEX
  8
VISIBLE
  5
2061
 10
644.355
 20
1221.56
 30
0.000000
  70
    32
  0
VERTEX
  8
VISIBLE
  5
2062
 10
644.348
 20
1221.55
 30
0.000000
  70
    32
  0
VERTEX
  8
VISIBLE
  5
2063
 10
644.341
 20
1221.54
 30
0.000000
  70
    32
  0
VERTEX
  8
VISIBLE
  5
2064
 10
644.334
 20
1221.52
 30
0.000000
  70
    32
  0
VERTEX
  8
VISIBLE
  5
2065
 10
644.328
 20
1221.51
 30
0.000000
  70
    32
  0
VERTEX
  8
VISIBLE
  5
2066
 10
644.321
 20
1221.50
 30
0.000000
  70
    32
  0
VERTEX
  8
VISIBLE
  5
2067
 10
644.314
 20
1221.48
 30
0.000000
  70
    32
  0
VERTEX
  8
VISIBLE
  5
2068
 10
644.308
 20
1221.47
 30
0.000000
  70
    32
  0
VERTEX
  8
VISIBLE
  5
2069
 10
644.302
 20
1221.46
 30
0.000000
  70
    32
  0
VERTEX
  8
VISIBLE
  5
206A
 10
644.295
 20
1221.44
 30
0.000000
  70
    32
  0
VERTEX
  8
VISIBLE
  5
206B
 10
644.289
 20
1221.43
 30
0.000000
  70
    32
  0
VERTEX
  8
VISIBLE
  5
206C
 10
644.283
 20
1221.41
 30
0.000000
  70
    32
  0
VERTEX
  8
VISIBLE
  5
206D
 10
644.277
 20
1221.40
 30
0.000000
  70
    32
  0
VERTEX
  8
VISIBLE
  5
206E
 10
644.271
 20
1221.39
 30
0.000000
  70
    32
  0
VERTEX
  8
VISIBLE
  5
206F
 10
644.265
 20
1221.37
 30
0.000000
  70
    32
  0
VERTEX
  8
VISIBLE
  5
2070
 10
644.260
 20
1221.36
 30
0.000000
  70
    32
  0
VERTEX
  8
VISIBLE
  5
2071
 10
644.254
 20
1221.34
 30
0.000000
  70
    32
  0
VERTEX
  8
VISIBLE
  5
2072
 10
644.249
 20
1221.33
 30
0.000000
  70
    32
  0
VERTEX
  8
VISIBLE
  5
2073
 10
644.243
 20
1221.32
 30
0.000000
  70
    32
  0
VERTEX
  8
VISIBLE
  5
2074
 10
644.238
 20
1221.30
 30
0.000000
  70
    32
  0
VERTEX
  8
VISIBLE
  5
2075
 10
644.233
 20
1221.29
 30
0.000000
  70
    32
  0
VERTEX
  8
VISIBLE
  5
2076
 10
644.228
 20
1221.27
 30
0.000000
  70
    32
  0
VERTEX
  8
VISIBLE
  5
2077
 10
644.223
 20
1221.26
 30
0.000000
  70
    32
  0
VERTEX
  8
VISIBLE
  5
2078
 10
644.218
 20
1221.24
 30
0.000000
  70
    32
  0
VERTEX
  8
VISIBLE
  5
2079
 10
644.213
 20
1221.23
 30
0.000000
  70
    32
  0
VERTEX
  8
VISIBLE
  5
207A
 10
644.209
 20
1221.22
 30
0.000000
  70
    32
  0
VERTEX
  8
VISIBLE
  5
207B
 10
644.204
 20
1221.20
 30
0.000000
  70
    32
  0
VERTEX
  8
VISIBLE
  5
207C
 10
644.200
 20
1221.19
 30
0.000000
  70
    32
  0
VERTEX
  8
VISIBLE
  5
207D
 10
644.195
 20
1221.17
 30
0.000000
  70
    32
  0
VERTEX
  8
VISIBLE
  5
207E
 10
644.191
 20
1221.16
 30
0.000000
  70
    32
  0
VERTEX
  8
VISIBLE
  5
207F
 10
644.187
 20
1221.14
 30
0.000000
  70
    32
  0
VERTEX
  8
VISIBLE
  5
2080
 10
644.183
 20
1221.13
 30
0.000000
  70
    32
  0
VERTEX
  8
VISIBLE
  5
2081
 10
644.179
 20
1221.11
 30
0.000000
  70
    32
  0
VERTEX
  8
VISIBLE
  5
2082
 10
644.175
 20
1221.10
 30
0.000000
  70
    32
  0
VERTEX
  8
VISIBLE
  5
2083
 10
644.171
 20
1221.08
 30
0.000000
  70
    32
  0
VERTEX
  8
VISIBLE
  5
2084
 10
644.168
 20
1221.07
 30
0.000000
  70
    32
  0
VERTEX
  8
VISIBLE
  5
2085
 10
644.164
 20
1221.06
 30
0.000000
  70
    32
  0
VERTEX
  8
VISIBLE
  5
2086
 10
644.161
 20
1221.04
 30
0.000000
  70
    32
  0
VERTEX
  8
VISIBLE
  5
2087
 10
644.157
 20
1221.03
 30
0.000000
  70
    32
  0
VERTEX
  8
VISIBLE
  5
2088
 10
644.154
 20
1221.01
 30
0.000000
  70
    32
  0
VERTEX
  8
VISIBLE
  5
2089
 10
644.151
 20
1221.00
 30
0.000000
  70
    32
  0
VERTEX
  8
VISIBLE
  5
208A
 10
644.148
 20
1220.98
 30
0.000000
  70
    32
  0
VERTEX
  8
VISIBLE
  5
208B
 10
644.145
 20
1220.97
 30
0.000000
  70
    32
  0
VERTEX
  8
VISIBLE
  5
208C
 10
644.142
 20
1220.95
 30
0.000000
  70
    32
  0
VERTEX
  8
VISIBLE
  5
208D
 10
644.139
 20
1220.94
 30
0.000000
  70
    32
  0
VERTEX
  8
VISIBLE
  5
208E
 10
644.137
 20
1220.92
 30
0.000000
  70
    32
  0
VERTEX
  8
VISIBLE
  5
208F
 10
644.134
 20
1220.91
 30
0.000000
  70
    32
  0
VERTEX
  8
VISIBLE
  5
2090
 10
644.132
 20
1220.89
 30
0.000000
  70
    32
  0
VERTEX
  8
VISIBLE
  5
2091
 10
644.130
 20
1220.88
 30
0.000000
  70
    32
  0
VERTEX
  8
VISIBLE
  5
2092
 10
644.127
 20
1220.86
 30
0.000000
  70
    32
  0
VERTEX
  8
VISIBLE
  5
2093
 10
644.125
 20
1220.85
 30
0.000000
  70
    32
  0
VERTEX
  8
VISIBLE
  5
2094
 10
644.123
 20
1220.83
 30
0.000000
  70
    32
  0
VERTEX
  8
VISIBLE
  5
2095
 10
644.122
 20
1220.82
 30
0.000000
  70
    32
  0
VERTEX
  8
VISIBLE
  5
2096
 10
644.120
 20
1220.80
 30
0.000000
  70
    32
  0
VERTEX
  8
VISIBLE
  5
2097
 10
644.118
 20
1220.79
 30
0.000000
  70
    32
  0
VERTEX
  8
VISIBLE
  5
2098
 10
644.117
 20
1220.77
 30
0.000000
  70
    32
  0
VERTEX
  8
VISIBLE
  5
2099
 10
644.115
 20
1220.76
 30
0.000000
  70
    32
  0
VERTEX
  8
VISIBLE
  5
209A
 10
644.114
 20
1220.74
 30
0.000000
  70
    32
  0
VERTEX
  8
VISIBLE
  5
209B
 10
644.113
 20
1220.73
 30
0.000000
  70
    32
  0
VERTEX
  8
VISIBLE
  5
209C
 10
644.111
 20
1220.71
 30
0.000000
  70
    32
  0
VERTEX
  8
VISIBLE
  5
209D
 10
644.110
 20
1220.70
 30
0.000000
  70
    32
  0
VERTEX
  8
VISIBLE
  5
209E
 10
644.110
 20
1220.68
 30
0.000000
  70
    32
  0
VERTEX
  8
VISIBLE
  5
209F
 10
644.109
 20
1220.67
 30
0.000000
  70
    32
  0
VERTEX
  8
VISIBLE
  5
20A0
 10
644.108
 20
1220.65
 30
0.000000
  70
    32
  0
VERTEX
  8
VISIBLE
  5
20A1
 10
644.107
 20
1220.64
 30
0.000000
  70
    32
  0
VERTEX
  8
VISIBLE
  5
20A2
 10
644.107
 20
1220.62
 30
0.000000
  70
    32
  0
VERTEX
  8
VISIBLE
  5
20A3
 10
644.107
 20
1220.61
 30
0.000000
  70
    32
  0
VERTEX
  8
VISIBLE
  5
20A4
 10
644.106
 20
1220.59
 30
0.000000
  70
    32
  0
VERTEX
  8
VISIBLE
  5
20A5
 10
644.106
 20
1220.57
 30
0.000000
  70
    32
  0
VERTEX
  8
VISIBLE
  5
20A6
 10
644.106
 20
1220.56
 30
0.000000
  70
    32
  0
SEQEND
  8
VISIBLE
  5
20A7
  0
LINE
  5
1E8
  8
VISIBLE
 10
644.1060587391282297
 20
1220.5598393976779334
 30
0.0
 11
644.106058739127775
 21
1202.7098393976780244
 31
0.0
  0
POLYLINE
  8
VISIBLE
  5
20A8
  66
     1
 10
0.000000
 20
0.000000
 30
0.000000
  70
     8
  0
VERTEX
  8
VISIBLE
  5
20A9
 10
1174.11
 20
1220.56
 30
0.000000
  70
    32
  0
VERTEX
  8
VISIBLE
  5
20AA
 10
1174.11
 20
1220.57
 30
0.000000
  70
    32
  0
VERTEX
  8
VISIBLE
  5
20AB
 10
1174.11
 20
1220.59
 30
0.000000
  70
    32
  0
VERTEX
  8
VISIBLE
  5
20AC
 10
1174.11
 20
1220.61
 30
0.000000
  70
    32
  0
VERTEX
  8
VISIBLE
  5
20AD
 10
1174.11
 20
1220.62
 30
0.000000
  70
    32
  0
VERTEX
  8
VISIBLE
  5
20AE
 10
1174.10
 20
1220.64
 30
0.000000
  70
    32
  0
VERTEX
  8
VISIBLE
  5
20AF
 10
1174.10
 20
1220.65
 30
0.000000
  70
    32
  0
VERTEX
  8
VISIBLE
  5
20B0
 10
1174.10
 20
1220.67
 30
0.000000
  70
    32
  0
VERTEX
  8
VISIBLE
  5
20B1
 10
1174.10
 20
1220.68
 30
0.000000
  70
    32
  0
VERTEX
  8
VISIBLE
  5
20B2
 10
1174.10
 20
1220.70
 30
0.000000
  70
    32
  0
VERTEX
  8
VISIBLE
  5
20B3
 10
1174.10
 20
1220.71
 30
0.000000
  70
    32
  0
VERTEX
  8
VISIBLE
  5
20B4
 10
1174.10
 20
1220.73
 30
0.000000
  70
    32
  0
VERTEX
  8
VISIBLE
  5
20B5
 10
1174.10
 20
1220.74
 30
0.000000
  70
    32
  0
VERTEX
  8
VISIBLE
  5
20B6
 10
1174.10
 20
1220.76
 30
0.000000
  70
    32
  0
VERTEX
  8
VISIBLE
  5
20B7
 10
1174.09
 20
1220.77
 30
0.000000
  70
    32
  0
VERTEX
  8
VISIBLE
  5
20B8
 10
1174.09
 20
1220.79
 30
0.000000
  70
    32
  0
VERTEX
  8
VISIBLE
  5
20B9
 10
1174.09
 20
1220.80
 30
0.000000
  70
    32
  0
VERTEX
  8
VISIBLE
  5
20BA
 10
1174.09
 20
1220.82
 30
0.000000
  70
    32
  0
VERTEX
  8
VISIBLE
  5
20BB
 10
1174.09
 20
1220.83
 30
0.000000
  70
    32
  0
VERTEX
  8
VISIBLE
  5
20BC
 10
1174.09
 20
1220.85
 30
0.000000
  70
    32
  0
VERTEX
  8
VISIBLE
  5
20BD
 10
1174.08
 20
1220.86
 30
0.000000
  70
    32
  0
VERTEX
  8
VISIBLE
  5
20BE
 10
1174.08
 20
1220.88
 30
0.000000
  70
    32
  0
VERTEX
  8
VISIBLE
  5
20BF
 10
1174.08
 20
1220.89
 30
0.000000
  70
    32
  0
VERTEX
  8
VISIBLE
  5
20C0
 10
1174.08
 20
1220.91
 30
0.000000
  70
    32
  0
VERTEX
  8
VISIBLE
  5
20C1
 10
1174.07
 20
1220.92
 30
0.000000
  70
    32
  0
VERTEX
  8
VISIBLE
  5
20C2
 10
1174.07
 20
1220.94
 30
0.000000
  70
    32
  0
VERTEX
  8
VISIBLE
  5
20C3
 10
1174.07
 20
1220.95
 30
0.000000
  70
    32
  0
VERTEX
  8
VISIBLE
  5
20C4
 10
1174.06
 20
1220.96
 30
0.000000
  70
    32
  0
VERTEX
  8
VISIBLE
  5
20C5
 10
1174.06
 20
1220.98
 30
0.000000
  70
    32
  0
VERTEX
  8
VISIBLE
  5
20C6
 10
1174.06
 20
1220.99
 30
0.000000
  70
    32
  0
VERTEX
  8
VISIBLE
  5
20C7
 10
1174.06
 20
1221.01
 30
0.000000
  70
    32
  0
VERTEX
  8
VISIBLE
  5
20C8
 10
1174.05
 20
1221.02
 30
0.000000
  70
    32
  0
VERTEX
  8
VISIBLE
  5
20C9
 10
1174.05
 20
1221.04
 30
0.000000
  70
    32
  0
VERTEX
  8
VISIBLE
  5
20CA
 10
1174.04
 20
1221.05
 30
0.000000
  70
    32
  0
VERTEX
  8
VISIBLE
  5
20CB
 10
1174.04
 20
1221.07
 30
0.000000
  70
    32
  0
VERTEX
  8
VISIBLE
  5
20CC
 10
1174.04
 20
1221.08
 30
0.000000
  70
    32
  0
VERTEX
  8
VISIBLE
  5
20CD
 10
1174.03
 20
1221.10
 30
0.000000
  70
    32
  0
VERTEX
  8
VISIBLE
  5
20CE
 10
1174.03
 20
1221.11
 30
0.000000
  70
    32
  0
VERTEX
  8
VISIBLE
  5
20CF
 10
1174.03
 20
1221.13
 30
0.000000
  70
    32
  0
VERTEX
  8
VISIBLE
  5
20D0
 10
1174.02
 20
1221.14
 30
0.000000
  70
    32
  0
VERTEX
  8
VISIBLE
  5
20D1
 10
1174.02
 20
1221.16
 30
0.000000
  70
    32
  0
VERTEX
  8
VISIBLE
  5
20D2
 10
1174.01
 20
1221.17
 30
0.000000
  70
    32
  0
VERTEX
  8
VISIBLE
  5
20D3
 10
1174.01
 20
1221.18
 30
0.000000
  70
    32
  0
VERTEX
  8
VISIBLE
  5
20D4
 10
1174.00
 20
1221.20
 30
0.000000
  70
    32
  0
VERTEX
  8
VISIBLE
  5
20D5
 10
1174.00
 20
1221.21
 30
0.000000
  70
    32
  0
VERTEX
  8
VISIBLE
  5
20D6
 10
1173.99
 20
1221.23
 30
0.000000
  70
    32
  0
VERTEX
  8
VISIBLE
  5
20D7
 10
1173.99
 20
1221.24
 30
0.000000
  70
    32
  0
VERTEX
  8
VISIBLE
  5
20D8
 10
1173.98
 20
1221.26
 30
0.000000
  70
    32
  0
VERTEX
  8
VISIBLE
  5
20D9
 10
1173.98
 20
1221.27
 30
0.000000
  70
    32
  0
VERTEX
  8
VISIBLE
  5
20DA
 10
1173.97
 20
1221.28
 30
0.000000
  70
    32
  0
VERTEX
  8
VISIBLE
  5
20DB
 10
1173.97
 20
1221.30
 30
0.000000
  70
    32
  0
VERTEX
  8
VISIBLE
  5
20DC
 10
1173.96
 20
1221.31
 30
0.000000
  70
    32
  0
VERTEX
  8
VISIBLE
  5
20DD
 10
1173.96
 20
1221.33
 30
0.000000
  70
    32
  0
VERTEX
  8
VISIBLE
  5
20DE
 10
1173.95
 20
1221.34
 30
0.000000
  70
    32
  0
VERTEX
  8
VISIBLE
  5
20DF
 10
1173.95
 20
1221.35
 30
0.000000
  70
    32
  0
VERTEX
  8
VISIBLE
  5
20E0
 10
1173.94
 20
1221.37
 30
0.000000
  70
    32
  0
VERTEX
  8
VISIBLE
  5
20E1
 10
1173.93
 20
1221.38
 30
0.000000
  70
    32
  0
VERTEX
  8
VISIBLE
  5
20E2
 10
1173.93
 20
1221.40
 30
0.000000
  70
    32
  0
VERTEX
  8
VISIBLE
  5
20E3
 10
1173.92
 20
1221.41
 30
0.000000
  70
    32
  0
VERTEX
  8
VISIBLE
  5
20E4
 10
1173.92
 20
1221.42
 30
0.000000
  70
    32
  0
VERTEX
  8
VISIBLE
  5
20E5
 10
1173.91
 20
1221.44
 30
0.000000
  70
    32
  0
VERTEX
  8
VISIBLE
  5
20E6
 10
1173.90
 20
1221.45
 30
0.000000
  70
    32
  0
VERTEX
  8
VISIBLE
  5
20E7
 10
1173.90
 20
1221.46
 30
0.000000
  70
    32
  0
VERTEX
  8
VISIBLE
  5
20E8
 10
1173.89
 20
1221.48
 30
0.000000
  70
    32
  0
VERTEX
  8
VISIBLE
  5
20E9
 10
1173.88
 20
1221.49
 30
0.000000
  70
    32
  0
VERTEX
  8
VISIBLE
  5
20EA
 10
1173.88
 20
1221.51
 30
0.000000
  70
    32
  0
VERTEX
  8
VISIBLE
  5
20EB
 10
1173.87
 20
1221.52
 30
0.000000
  70
    32
  0
VERTEX
  8
VISIBLE
  5
20EC
 10
1173.86
 20
1221.53
 30
0.000000
  70
    32
  0
VERTEX
  8
VISIBLE
  5
20ED
 10
1173.86
 20
1221.55
 30
0.000000
  70
    32
  0
VERTEX
  8
VISIBLE
  5
20EE
 10
1173.85
 20
1221.56
 30
0.000000
  70
    32
  0
VERTEX
  8
VISIBLE
  5
20EF
 10
1173.84
 20
1221.57
 30
0.000000
  70
    32
  0
VERTEX
  8
VISIBLE
  5
20F0
 10
1173.83
 20
1221.59
 30
0.000000
  70
    32
  0
VERTEX
  8
VISIBLE
  5
20F1
 10
1173.83
 20
1221.60
 30
0.000000
  70
    32
  0
VERTEX
  8
VISIBLE
  5
20F2
 10
1173.82
 20
1221.61
 30
0.000000
  70
    32
  0
VERTEX
  8
VISIBLE
  5
20F3
 10
1173.81
 20
1221.63
 30
0.000000
  70
    32
  0
VERTEX
  8
VISIBLE
  5
20F4
 10
1173.80
 20
1221.64
 30
0.000000
  70
    32
  0
VERTEX
  8
VISIBLE
  5
20F5
 10
1173.80
 20
1221.65
 30
0.000000
  70
    32
  0
VERTEX
  8
VISIBLE
  5
20F6
 10
1173.79
 20
1221.66
 30
0.000000
  70
    32
  0
VERTEX
  8
VISIBLE
  5
20F7
 10
1173.78
 20
1221.68
 30
0.000000
  70
    32
  0
VERTEX
  8
VISIBLE
  5
20F8
 10
1173.77
 20
1221.69
 30
0.000000
  70
    32
  0
VERTEX
  8
VISIBLE
  5
20F9
 10
1173.77
 20
1221.70
 30
0.000000
  70
    32
  0
VERTEX
  8
VISIBLE
  5
20FA
 10
1173.76
 20
1221.72
 30
0.000000
  70
    32
  0
VERTEX
  8
VISIBLE
  5
20FB
 10
1173.75
 20
1221.73
 30
0.000000
  70
    32
  0
VERTEX
  8
VISIBLE
  5
20FC
 10
1173.74
 20
1221.74
 30
0.000000
  70
    32
  0
VERTEX
  8
VISIBLE
  5
20FD
 10
1173.73
 20
1221.75
 30
0.000000
  70
    32
  0
VERTEX
  8
VISIBLE
  5
20FE
 10
1173.72
 20
1221.77
 30
0.000000
  70
    32
  0
VERTEX
  8
VISIBLE
  5
20FF
 10
1173.72
 20
1221.78
 30
0.000000
  70
    32
  0
VERTEX
  8
VISIBLE
  5
2100
 10
1173.71
 20
1221.79
 30
0.000000
  70
    32
  0
VERTEX
  8
VISIBLE
  5
2101
 10
1173.70
 20
1221.80
 30
0.000000
  70
    32
  0
VERTEX
  8
VISIBLE
  5
2102
 10
1173.69
 20
1221.82
 30
0.000000
  70
    32
  0
VERTEX
  8
VISIBLE
  5
2103
 10
1173.68
 20
1221.83
 30
0.000000
  70
    32
  0
VERTEX
  8
VISIBLE
  5
2104
 10
1173.67
 20
1221.84
 30
0.000000
  70
    32
  0
VERTEX
  8
VISIBLE
  5
2105
 10
1173.66
 20
1221.85
 30
0.000000
  70
    32
  0
VERTEX
  8
VISIBLE
  5
2106
 10
1173.65
 20
1221.86
 30
0.000000
  70
    32
  0
VERTEX
  8
VISIBLE
  5
2107
 10
1173.64
 20
1221.88
 30
0.000000
  70
    32
  0
VERTEX
  8
VISIBLE
  5
2108
 10
1173.63
 20
1221.89
 30
0.000000
  70
    32
  0
VERTEX
  8
VISIBLE
  5
2109
 10
1173.63
 20
1221.90
 30
0.000000
  70
    32
  0
VERTEX
  8
VISIBLE
  5
210A
 10
1173.62
 20
1221.91
 30
0.000000
  70
    32
  0
VERTEX
  8
VISIBLE
  5
210B
 10
1173.61
 20
1221.92
 30
0.000000
  70
    32
  0
VERTEX
  8
VISIBLE
  5
210C
 10
1173.60
 20
1221.94
 30
0.000000
  70
    32
  0
VERTEX
  8
VISIBLE
  5
210D
 10
1173.59
 20
1221.95
 30
0.000000
  70
    32
  0
VERTEX
  8
VISIBLE
  5
210E
 10
1173.58
 20
1221.96
 30
0.000000
  70
    32
  0
VERTEX
  8
VISIBLE
  5
210F
 10
1173.57
 20
1221.97
 30
0.000000
  70
    32
  0
VERTEX
  8
VISIBLE
  5
2110
 10
1173.56
 20
1221.98
 30
0.000000
  70
    32
  0
VERTEX
  8
VISIBLE
  5
2111
 10
1173.55
 20
1221.99
 30
0.000000
  70
    32
  0
VERTEX
  8
VISIBLE
  5
2112
 10
1173.54
 20
1222.00
 30
0.000000
  70
    32
  0
VERTEX
  8
VISIBLE
  5
2113
 10
1173.53
 20
1222.02
 30
0.000000
  70
    32
  0
VERTEX
  8
VISIBLE
  5
2114
 10
1173.52
 20
1222.03
 30
0.000000
  70
    32
  0
VERTEX
  8
VISIBLE
  5
2115
 10
1173.51
 20
1222.04
 30
0.000000
  70
    32
  0
VERTEX
  8
VISIBLE
  5
2116
 10
1173.50
 20
1222.05
 30
0.000000
  70
    32
  0
VERTEX
  8
VISIBLE
  5
2117
 10
1173.49
 20
1222.06
 30
0.000000
  70
    32
  0
VERTEX
  8
VISIBLE
  5
2118
 10
1173.48
 20
1222.07
 30
0.000000
  70
    32
  0
VERTEX
  8
VISIBLE
  5
2119
 10
1173.46
 20
1222.08
 30
0.000000
  70
    32
  0
VERTEX
  8
VISIBLE
  5
211A
 10
1173.45
 20
1222.09
 30
0.000000
  70
    32
  0
VERTEX
  8
VISIBLE
  5
211B
 10
1173.44
 20
1222.10
 30
0.000000
  70
    32
  0
VERTEX
  8
VISIBLE
  5
211C
 10
1173.43
 20
1222.11
 30
0.000000
  70
    32
  0
VERTEX
  8
VISIBLE
  5
211D
 10
1173.42
 20
1222.12
 30
0.000000
  70
    32
  0
VERTEX
  8
VISIBLE
  5
211E
 10
1173.41
 20
1222.13
 30
0.000000
  70
    32
  0
VERTEX
  8
VISIBLE
  5
211F
 10
1173.40
 20
1222.14
 30
0.000000
  70
    32
  0
VERTEX
  8
VISIBLE
  5
2120
 10
1173.39
 20
1222.15
 30
0.000000
  70
    32
  0
VERTEX
  8
VISIBLE
  5
2121
 10
1173.38
 20
1222.16
 30
0.000000
  70
    32
  0
VERTEX
  8
VISIBLE
  5
2122
 10
1173.37
 20
1222.17
 30
0.000000
  70
    32
  0
VERTEX
  8
VISIBLE
  5
2123
 10
1173.36
 20
1222.18
 30
0.000000
  70
    32
  0
VERTEX
  8
VISIBLE
  5
2124
 10
1173.34
 20
1222.19
 30
0.000000
  70
    32
  0
VERTEX
  8
VISIBLE
  5
2125
 10
1173.33
 20
1222.20
 30
0.000000
  70
    32
  0
VERTEX
  8
VISIBLE
  5
2126
 10
1173.32
 20
1222.21
 30
0.000000
  70
    32
  0
VERTEX
  8
VISIBLE
  5
2127
 10
1173.31
 20
1222.22
 30
0.000000
  70
    32
  0
VERTEX
  8
VISIBLE
  5
2128
 10
1173.30
 20
1222.23
 30
0.000000
  70
    32
  0
VERTEX
  8
VISIBLE
  5
2129
 10
1173.29
 20
1222.24
 30
0.000000
  70
    32
  0
VERTEX
  8
VISIBLE
  5
212A
 10
1173.27
 20
1222.25
 30
0.000000
  70
    32
  0
VERTEX
  8
VISIBLE
  5
212B
 10
1173.26
 20
1222.26
 30
0.000000
  70
    32
  0
VERTEX
  8
VISIBLE
  5
212C
 10
1173.25
 20
1222.27
 30
0.000000
  70
    32
  0
VERTEX
  8
VISIBLE
  5
212D
 10
1173.24
 20
1222.28
 30
0.000000
  70
    32
  0
VERTEX
  8
VISIBLE
  5
212E
 10
1173.23
 20
1222.29
 30
0.000000
  70
    32
  0
VERTEX
  8
VISIBLE
  5
212F
 10
1173.21
 20
1222.30
 30
0.000000
  70
    32
  0
VERTEX
  8
VISIBLE
  5
2130
 10
1173.20
 20
1222.31
 30
0.000000
  70
    32
  0
VERTEX
  8
VISIBLE
  5
2131
 10
1173.19
 20
1222.32
 30
0.000000
  70
    32
  0
VERTEX
  8
VISIBLE
  5
2132
 10
1173.18
 20
1222.33
 30
0.000000
  70
    32
  0
VERTEX
  8
VISIBLE
  5
2133
 10
1173.17
 20
1222.33
 30
0.000000
  70
    32
  0
VERTEX
  8
VISIBLE
  5
2134
 10
1173.15
 20
1222.34
 30
0.000000
  70
    32
  0
VERTEX
  8
VISIBLE
  5
2135
 10
1173.14
 20
1222.35
 30
0.000000
  70
    32
  0
VERTEX
  8
VISIBLE
  5
2136
 10
1173.13
 20
1222.36
 30
0.000000
  70
    32
  0
VERTEX
  8
VISIBLE
  5
2137
 10
1173.12
 20
1222.37
 30
0.000000
  70
    32
  0
VERTEX
  8
VISIBLE
  5
2138
 10
1173.10
 20
1222.38
 30
0.000000
  70
    32
  0
VERTEX
  8
VISIBLE
  5
2139
 10
1173.09
 20
1222.38
 30
0.000000
  70
    32
  0
VERTEX
  8
VISIBLE
  5
213A
 10
1173.08
 20
1222.39
 30
0.000000
  70
    32
  0
VERTEX
  8
VISIBLE
  5
213B
 10
1173.06
 20
1222.40
 30
0.000000
  70
    32
  0
VERTEX
  8
VISIBLE
  5
213C
 10
1173.05
 20
1222.41
 30
0.000000
  70
    32
  0
VERTEX
  8
VISIBLE
  5
213D
 10
1173.04
 20
1222.42
 30
0.000000
  70
    32
  0
VERTEX
  8
VISIBLE
  5
213E
 10
1173.03
 20
1222.42
 30
0.000000
  70
    32
  0
VERTEX
  8
VISIBLE
  5
213F
 10
1173.01
 20
1222.43
 30
0.000000
  70
    32
  0
VERTEX
  8
VISIBLE
  5
2140
 10
1173.00
 20
1222.44
 30
0.000000
  70
    32
  0
VERTEX
  8
VISIBLE
  5
2141
 10
1172.99
 20
1222.45
 30
0.000000
  70
    32
  0
VERTEX
  8
VISIBLE
  5
2142
 10
1172.97
 20
1222.45
 30
0.000000
  70
    32
  0
VERTEX
  8
VISIBLE
  5
2143
 10
1172.96
 20
1222.46
 30
0.000000
  70
    32
  0
VERTEX
  8
VISIBLE
  5
2144
 10
1172.95
 20
1222.47
 30
0.000000
  70
    32
  0
VERTEX
  8
VISIBLE
  5
2145
 10
1172.93
 20
1222.47
 30
0.000000
  70
    32
  0
VERTEX
  8
VISIBLE
  5
2146
 10
1172.92
 20
1222.48
 30
0.000000
  70
    32
  0
VERTEX
  8
VISIBLE
  5
2147
 10
1172.91
 20
1222.49
 30
0.000000
  70
    32
  0
VERTEX
  8
VISIBLE
  5
2148
 10
1172.89
 20
1222.49
 30
0.000000
  70
    32
  0
VERTEX
  8
VISIBLE
  5
2149
 10
1172.88
 20
1222.50
 30
0.000000
  70
    32
  0
VERTEX
  8
VISIBLE
  5
214A
 10
1172.87
 20
1222.51
 30
0.000000
  70
    32
  0
VERTEX
  8
VISIBLE
  5
214B
 10
1172.85
 20
1222.51
 30
0.000000
  70
    32
  0
VERTEX
  8
VISIBLE
  5
214C
 10
1172.84
 20
1222.52
 30
0.000000
  70
    32
  0
VERTEX
  8
VISIBLE
  5
214D
 10
1172.82
 20
1222.53
 30
0.000000
  70
    32
  0
VERTEX
  8
VISIBLE
  5
214E
 10
1172.81
 20
1222.53
 30
0.000000
  70
    32
  0
VERTEX
  8
VISIBLE
  5
214F
 10
1172.80
 20
1222.54
 30
0.000000
  70
    32
  0
VERTEX
  8
VISIBLE
  5
2150
 10
1172.78
 20
1222.54
 30
0.000000
  70
    32
  0
VERTEX
  8
VISIBLE
  5
2151
 10
1172.77
 20
1222.55
 30
0.000000
  70
    32
  0
VERTEX
  8
VISIBLE
  5
2152
 10
1172.75
 20
1222.56
 30
0.000000
  70
    32
  0
VERTEX
  8
VISIBLE
  5
2153
 10
1172.74
 20
1222.56
 30
0.000000
  70
    32
  0
VERTEX
  8
VISIBLE
  5
2154
 10
1172.73
 20
1222.57
 30
0.000000
  70
    32
  0
VERTEX
  8
VISIBLE
  5
2155
 10
1172.71
 20
1222.57
 30
0.000000
  70
    32
  0
VERTEX
  8
VISIBLE
  5
2156
 10
1172.70
 20
1222.58
 30
0.000000
  70
    32
  0
VERTEX
  8
VISIBLE
  5
2157
 10
1172.68
 20
1222.58
 30
0.000000
  70
    32
  0
VERTEX
  8
VISIBLE
  5
2158
 10
1172.67
 20
1222.59
 30
0.000000
  70
    32
  0
VERTEX
  8
VISIBLE
  5
2159
 10
1172.65
 20
1222.59
 30
0.000000
  70
    32
  0
VERTEX
  8
VISIBLE
  5
215A
 10
1172.64
 20
1222.60
 30
0.000000
  70
    32
  0
VERTEX
  8
VISIBLE
  5
215B
 10
1172.63
 20
1222.60
 30
0.000000
  70
    32
  0
VERTEX
  8
VISIBLE
  5
215C
 10
1172.61
 20
1222.61
 30
0.000000
  70
    32
  0
VERTEX
  8
VISIBLE
  5
215D
 10
1172.60
 20
1222.61
 30
0.000000
  70
    32
  0
VERTEX
  8
VISIBLE
  5
215E
 10
1172.58
 20
1222.62
 30
0.000000
  70
    32
  0
VERTEX
  8
VISIBLE
  5
215F
 10
1172.57
 20
1222.62
 30
0.000000
  70
    32
  0
VERTEX
  8
VISIBLE
  5
2160
 10
1172.55
 20
1222.62
 30
0.000000
  70
    32
  0
VERTEX
  8
VISIBLE
  5
2161
 10
1172.54
 20
1222.63
 30
0.000000
  70
    32
  0
VERTEX
  8
VISIBLE
  5
2162
 10
1172.52
 20
1222.63
 30
0.000000
  70
    32
  0
VERTEX
  8
VISIBLE
  5
2163
 10
1172.51
 20
1222.64
 30
0.000000
  70
    32
  0
VERTEX
  8
VISIBLE
  5
2164
 10
1172.50
 20
1222.64
 30
0.000000
  70
    32
  0
VERTEX
  8
VISIBLE
  5
2165
 10
1172.48
 20
1222.64
 30
0.000000
  70
    32
  0
VERTEX
  8
VISIBLE
  5
2166
 10
1172.47
 20
1222.65
 30
0.000000
  70
    32
  0
VERTEX
  8
VISIBLE
  5
2167
 10
1172.45
 20
1222.65
 30
0.000000
  70
    32
  0
VERTEX
  8
VISIBLE
  5
2168
 10
1172.44
 20
1222.66
 30
0.000000
  70
    32
  0
VERTEX
  8
VISIBLE
  5
2169
 10
1172.42
 20
1222.66
 30
0.000000
  70
    32
  0
VERTEX
  8
VISIBLE
  5
216A
 10
1172.41
 20
1222.66
 30
0.000000
  70
    32
  0
VERTEX
  8
VISIBLE
  5
216B
 10
1172.39
 20
1222.66
 30
0.000000
  70
    32
  0
VERTEX
  8
VISIBLE
  5
216C
 10
1172.38
 20
1222.67
 30
0.000000
  70
    32
  0
VERTEX
  8
VISIBLE
  5
216D
 10
1172.36
 20
1222.67
 30
0.000000
  70
    32
  0
VERTEX
  8
VISIBLE
  5
216E
 10
1172.35
 20
1222.67
 30
0.000000
  70
    32
  0
VERTEX
  8
VISIBLE
  5
216F
 10
1172.33
 20
1222.68
 30
0.000000
  70
    32
  0
VERTEX
  8
VISIBLE
  5
2170
 10
1172.32
 20
1222.68
 30
0.000000
  70
    32
  0
VERTEX
  8
VISIBLE
  5
2171
 10
1172.30
 20
1222.68
 30
0.000000
  70
    32
  0
VERTEX
  8
VISIBLE
  5
2172
 10
1172.29
 20
1222.68
 30
0.000000
  70
    32
  0
VERTEX
  8
VISIBLE
  5
2173
 10
1172.27
 20
1222.69
 30
0.000000
  70
    32
  0
VERTEX
  8
VISIBLE
  5
2174
 10
1172.26
 20
1222.69
 30
0.000000
  70
    32
  0
VERTEX
  8
VISIBLE
  5
2175
 10
1172.24
 20
1222.69
 30
0.000000
  70
    32
  0
VERTEX
  8
VISIBLE
  5
2176
 10
1172.23
 20
1222.69
 30
0.000000
  70
    32
  0
VERTEX
  8
VISIBLE
  5
2177
 10
1172.21
 20
1222.69
 30
0.000000
  70
    32
  0
VERTEX
  8
VISIBLE
  5
2178
 10
1172.20
 20
1222.70
 30
0.000000
  70
    32
  0
VERTEX
  8
VISIBLE
  5
2179
 10
1172.18
 20
1222.70
 30
0.000000
  70
    32
  0
VERTEX
  8
VISIBLE
  5
217A
 10
1172.17
 20
1222.70
 30
0.000000
  70
    32
  0
VERTEX
  8
VISIBLE
  5
217B
 10
1172.15
 20
1222.70
 30
0.000000
  70
    32
  0
VERTEX
  8
VISIBLE
  5
217C
 10
1172.14
 20
1222.70
 30
0.000000
  70
    32
  0
VERTEX
  8
VISIBLE
  5
217D
 10
1172.12
 20
1222.70
 30
0.000000
  70
    32
  0
VERTEX
  8
VISIBLE
  5
217E
 10
1172.11
 20
1222.70
 30
0.000000
  70
    32
  0
VERTEX
  8
VISIBLE
  5
217F
 10
1172.09
 20
1222.71
 30
0.000000
  70
    32
  0
VERTEX
  8
VISIBLE
  5
2180
 10
1172.08
 20
1222.71
 30
0.000000
  70
    32
  0
VERTEX
  8
VISIBLE
  5
2181
 10
1172.06
 20
1222.71
 30
0.000000
  70
    32
  0
VERTEX
  8
VISIBLE
  5
2182
 10
1172.05
 20
1222.71
 30
0.000000
  70
    32
  0
VERTEX
  8
VISIBLE
  5
2183
 10
1172.03
 20
1222.71
 30
0.000000
  70
    32
  0
VERTEX
  8
VISIBLE
  5
2184
 10
1172.02
 20
1222.71
 30
0.000000
  70
    32
  0
VERTEX
  8
VISIBLE
  5
2185
 10
1172.00
 20
1222.71
 30
0.000000
  70
    32
  0
VERTEX
  8
VISIBLE
  5
2186
 10
1171.99
 20
1222.71
 30
0.000000
  70
    32
  0
VERTEX
  8
VISIBLE
  5
2187
 10
1171.97
 20
1222.71
 30
0.000000
  70
    32
  0
VERTEX
  8
VISIBLE
  5
2188
 10
1171.96
 20
1222.71
 30
0.000000
  70
    32
  0
SEQEND
  8
VISIBLE
  5
2189
  0
LINE
  5
1F0
  8
VISIBLE
 10
1174.1060587391280023
 20
1202.7098393976780244
 30
0.0
 11
1174.1060587391280023
 21
1220.5598393976779334
 31
0.0
  0
LINE
  5
1F4
  8
VISIBLE
 10
646.256058739128207
 20
1222.7098393976780244
 30
0.0
 11
1171.9560587391279114
 21
1222.7098393976780244
 31
0.0
  0
LINE
  5
1F5
  8
VISIBLE
 10
1174.1060587391280023
 20
1202.7098393976780244
 30
0.0
 11
644.106058739127775
 21
1202.7098393976780244
 31
0.0
  0
LINE
  5
1FA
  8
VISIBLE
 10
693.206058739125524
 20
203.0098393976778084
 30
0.0
 11
1125.0060587391280933
 21
203.0098393976780073
 31
0.0
  0
LINE
  5
205
  8
VISIBLE
 10
650.4060587391284116
 20
165.3098393976779903
 30
0.0
 11
650.4060587391284116
 21
163.3098393976779903
 31
0.0
  0
LINE
  5
206
  8
VISIBLE
 10
1167.8060587391280478
 20
163.3098393976779903
 30
0.0
 11
650.4060587391284116
 21
163.309839397677905
 31
0.0
  0
LINE
  5
207
  8
VISIBLE
 10
1167.8060587391280478
 20
163.3098393976779903
 30
0.0
 11
1167.8060587391280478
 21
165.3098393976779903
 31
0.0
  0
LINE
  5
22B
  8
VISIBLE
 10
697.1560587391284116
 20
549.8098393976779334
 30
0.0
 11
1121.0560587391280478
 21
549.8098393976780471
 31
0.0
  0
LINE
  5
22C
  8
VISIBLE
 10
697.1560587391279569
 20
204.3098393976785019
 30
0.0
 11
697.1560587391284116
 21
549.8098393976779334
 31
0.0
  0
LINE
  5
22E
  8
VISIBLE
 10
1121.0560587391280478
 20
549.8098393976780471
 30
0.0
 11
1121.0560587391280478
 21
204.309839397678104
 31
0.0
  0
LINE
  5
230
  8
VISIBLE
 10
1121.0560587391280478
 20
204.309839397678104
 30
0.0
 11
697.1560587391279569
 21
204.3098393976785019
 31
0.0
  0
LINE
  5
244
  8
VISIBLE
 10
697.1560587391282979
 20
949.7098393976779107
 30
0.0
 11
697.1560587391284116
 21
1202.7098393976780244
 31
0.0
  0
LINE
  5
245
  8
VISIBLE
 10
1121.0560587391280478
 20
1202.7098393976780244
 30
0.0
 11
1121.0560587391280478
 21
949.7098393976779107
 31
0.0
  0
LINE
  5
246
  8
VISIBLE
 10
1121.0560587391280478
 20
949.7098393976779107
 30
0.0
 11
697.1560587391282979
 21
949.7098393976779107
 31
0.0
  0
LINE
  5
25B
  8
VISIBLE
 10
1027.5560587391280478
 20
1222.7098393976780244
 30
0.0
 11
1027.5560587391280478
 21
1257.7098393976780244
 31
0.0
  0
LINE
  5
25C
  8
VISIBLE
 10
1026.6060587391280023
 20
1257.7098393976780244
 30
0.0
 11
1027.5560587391280478
 21
1257.7098393976780244
 31
0.0
  0
LINE
  5
25F
  8
VISIBLE
 10
1026.6060587391270928
 20
1257.7098393976780244
 30
0.0
 11
1024.6560587391279569
 21
1257.7098393976780244
 31
0.0
  0
LINE
  5
268
  8
VISIBLE
 10
790.6560587391273884
 20
1222.7098393976780244
 30
0.0
 11
790.6560587391273884
 21
1257.7098393976780244
 31
0.0
  0
LINE
  5
269
  8
VISIBLE
 10
792.6060587391274339
 20
1257.7098393976780244
 30
0.0
 11
790.6560587391273884
 21
1257.7098393976780244
 31
0.0
  0
LINE
  5
26D
  8
VISIBLE
 10
792.6060587391274339
 20
1257.7098393976780244
 30
0.0
 11
1024.6560587391270474
 21
1257.7098393976780244
 31
0.0
  0
LINE
  5
278
  8
VISIBLE
 10
1121.0560587391280478
 20
490.809839397694077
 30
0.0
 11
1121.556058739143964
 21
490.3098393976779903
 31
0.0
  0
LINE
  5
282
  8
VISIBLE
 10
1119.3060587391280478
 20
938.8098393976780471
 30
0.0
 11
699.3060587391283889
 21
938.8098393976783882
 31
0.0
  0
LINE
  5
283
  8
VISIBLE
 10
699.3060587391283889
 20
938.8098393976783882
 30
0.0
 11
699.3060587391287299
 21
552.8098393976785019
 31
0.0
  0
LINE
  5
284
  8
VISIBLE
 10
699.3060587391287299
 20
552.8098393976786156
 30
0.0
 11
1119.3060587391280478
 21
552.8098393976786156
 31
0.0
  0
LINE
  5
286
  8
VISIBLE
 10
1119.3060587391280478
 20
552.8098393976786156
 30
0.0
 11
1119.3060587391280478
 21
938.8098393976782745
 31
0.0
  0
CIRCLE
  5
298
  8
VISIBLE
 10
771.6060587391282297
 20
184.3098393976761997
 30
0.0
 40
11.6999999999999904
  0
CIRCLE
  5
299
  8
VISIBLE
 10
771.6060587391282297
 20
184.3098393976761997
 30
0.0
 40
14.6999999999999904
  0
CIRCLE
  5
29A
  8
VISIBLE
 10
731.606058739128116
 20
184.3098393976760008
 30
0.0
 40
11.6999999999999904
  0
CIRCLE
  5
29B
  8
VISIBLE
 10
731.606058739128116
 20
184.3098393976760008
 30
0.0
 40
14.6999999999999904
  0
LINE
  5
2ED
  8
VISIBLE
 10
1108.8181505482609737
 20
1222.7098393976780244
 30
0.0
 11
1108.8181505482600642
 21
1230.3185363189199961
 31
0.0
  0
LINE
  5
2F1
  8
VISIBLE
 10
1139.2939669299960315
 20
1230.3185363189199961
 30
0.0
 11
1139.2939669299960315
 21
1222.7098393976780244
 31
0.0
  0
LINE
  5
2F2
  8
VISIBLE
 10
1139.2939669299948946
 20
1230.3185363189199961
 30
0.0
 11
1139.3060587391280478
 21
1230.3185363189199961
 31
0.0
  0
LINE
  5
2F5
  8
VISIBLE
 10
1108.8060587391280478
 20
1230.3185363189199961
 30
0.0
 11
1108.8181505482600642
 21
1230.3185363189199961
 31
0.0
  0
LINE
  5
2F6
  8
VISIBLE
 10
1110.9560587391279114
 20
1231.5598393976779334
 30
0.0
 11
1137.1560587391279569
 21
1231.5598393976779334
 31
0.0
  0
LINE
  5
2F7
  8
VISIBLE
 10
1139.3060587391280478
 20
1230.3185363189199961
 30
0.0
 11
1139.3060587391280478
 21
1222.7098393976780244
 31
0.0
  0
LINE
  5
2F8
  8
VISIBLE
 10
1108.8060587391280478
 20
1230.3185363189199961
 30
0.0
 11
1108.8060587391280478
 21
1222.7098393976780244
 31
0.0
  0
LINE
  5
2F9
  8
VISIBLE
 10
1137.1560587391279569
 20
1231.5598393976779334
 30
0.0
 11
1139.3060587391280478
 21
1230.3185363189199961
 31
0.0
  0
LINE
  5
2FA
  8
VISIBLE
 10
1110.9560587391279114
 20
1231.5598393976779334
 30
0.0
 11
1108.8060587391280478
 21
1230.3185363189199961
 31
0.0
  0
LINE
  5
2FB
  8
VISIBLE
 10
1137.1560587391279569
 20
1246.9298393976780517
 30
0.0
 11
1137.1560587391279569
 21
1231.5598393976779334
 31
0.0
  0
LINE
  5
2FC
  8
VISIBLE
 10
1110.9560587391279114
 20
1246.9298393976780517
 30
0.0
 11
1110.9560587391279114
 21
1231.5598393976779334
 31
0.0
  0
CIRCLE
  5
4F0
  8
VISIBLE
 10
752.6560587391282979
 20
1004.7098393976780244
 30
0.0
 40
7.4999999999999991
  0
CIRCLE
  5
4F1
  8
VISIBLE
 10
752.6560587391282979
 20
1004.7098393976780244
 30
0.0
 40
17.5
  0
LINE
  5
506
  8
VISIBLE
 10
1139.0560587391280478
 20
1260.9298393976780517
 30
0.0
 11
1109.0560587391280478
 21
1260.9298393976780517
 31
0.0
  0
LINE
  5
50D
  8
VISIBLE
 10
1109.0560587391280478
 20
1246.9298393976780517
 30
0.0
 11
1139.0560587391280478
 21
1246.9298393976780517
 31
0.0
  0
LINE
  5
510
  8
VISIBLE
 10
1139.0560587391280478
 20
1246.9298393976780517
 30
0.0
 11
1139.0560587391280478
 21
1260.9298393976780517
 31
0.0
  0
LINE
  5
515
  8
VISIBLE
 10
1109.0560587391280478
 20
1260.9298393976780517
 30
0.0
 11
1109.0560587391280478
 21
1246.9298393976780517
 31
0.0
  0
LINE
  5
562
  8
VISIBLE
 10
1112.4828124366849806
 20
2460.650372478709869
 30
0.0
 11
1110.4828124366849806
 21
2458.9183216711398927
 31
0.0
  0
LINE
  5
566
  8
VISIBLE
 10
1152.6293050415708876
 20
2458.9183216711398927
 30
0.0
 11
1150.6293050415708876
 21
2460.650372478709869
 31
0.0
  0
LINE
  5
56E
  8
VISIBLE
 10
1110.4828124366849806
 20
2458.9183216711398927
 30
0.0
 11
1110.4828124366849806
 21
2452.9719115096258975
 31
0.0
  0
LINE
  5
56F
  8
VISIBLE
 10
1120.5560587391280478
 20
2460.650372478709869
 30
0.0
 11
1112.4828124366849806
 21
2460.650372478709869
 31
0.0
  0
LINE
  5
570
  8
VISIBLE
 10
1150.6293050415708876
 20
2460.650372478709869
 30
0.0
 11
1142.5560587391280478
 21
2460.650372478709869
 31
0.0
  0
LINE
  5
572
  8
VISIBLE
 10
1110.4828124366849806
 20
1883.3934505405441087
 30
0.0
 11
1120.5560587391280478
 21
1883.3934505405441087
 31
0.0
  0
LINE
  5
575
  8
VISIBLE
 10
1110.4828124366849806
 20
1883.3934505405441087
 30
0.0
 11
1110.4828124366849806
 21
1891.0719115096260339
 31
0.0
  0
LINE
  5
577
  8
VISIBLE
 10
1152.6293050415708876
 20
2458.9183216711398927
 30
0.0
 11
1152.6293050415708876
 21
2453.5969115096258975
 31
0.0
  0
LINE
  5
57A
  8
VISIBLE
 10
1125.5560587391280478
 20
2456.320245459787202
 30
0.0
 11
1120.5560587391280478
 21
2460.650372478709869
 31
0.0
  0
LINE
  5
57C
  8
VISIBLE
 10
1142.5560587391280478
 20
2460.650372478709869
 30
0.0
 11
1137.5560587391280478
 21
2456.3202454597858377
 31
0.0
  0
LINE
  5
57E
  8
VISIBLE
 10
1120.5560587391280478
 20
1883.3934505405441087
 30
0.0
 11
1125.5560587391280478
 21
1887.7235775594649567
 31
0.0
  0
LINE
  5
586
  8
VISIBLE
 10
1125.5560587391280478
 20
1887.7235775594649567
 30
0.0
 11
1125.5560587391280478
 21
1903.5219115099450846
 31
0.0
  0
LINE
  5
587
  8
VISIBLE
 10
1137.5560587391280478
 20
2456.3202454597858377
 30
0.0
 11
1137.5560587391280478
 21
2440.5219115099448572
 31
0.0
  0
LINE
  5
588
  8
VISIBLE
 10
1125.5560587391280478
 20
2440.5219115099448572
 30
0.0
 11
1125.5560587391280478
 21
2456.320245459787202
 31
0.0
  0
LINE
  5
591
  8
VISIBLE
 10
1152.6293050415708876
 20
2453.5969115096258975
 30
0.0
 11
1152.6293050415708876
 21
2452.9719115096258975
 31
0.0
  0
LINE
  5
593
  8
VISIBLE
 10
1107.8879366691719497
 20
2452.9719115096258975
 30
0.0
 11
1110.4828124366849806
 21
2452.9719115096258975
 31
0.0
  0
LINE
  5
594
  8
VISIBLE
 10
1099.606407161586958
 20
2440.5219115096288078
 30
0.0
 11
1107.8879366691719497
 21
2452.9719115096258975
 31
0.0
  0
LINE
  5
596
  8
VISIBLE
 10
1107.8879366691719497
 20
1891.0719115096260339
 30
0.0
 11
1099.606407161586958
 21
1903.5219115096278983
 31
0.0
  0
LINE
  5
59C
  8
VISIBLE
 10
1155.2241808090850554
 20
2452.9719115096258975
 30
0.0
 11
1163.5057103166689103
 21
2440.5219115096288078
 31
0.0
  0
LINE
  5
59F
  8
VISIBLE
 10
1152.6293050415708876
 20
2452.9719115096258975
 30
0.0
 11
1155.2241808090850554
 21
2452.9719115096258975
 31
0.0
  0
LINE
  5
5A0
  8
VISIBLE
 10
1110.4828124366849806
 20
1891.0719115096260339
 30
0.0
 11
1107.8879366691719497
 21
1891.0719115096260339
 31
0.0
  0
LINE
  5
5A2
  8
VISIBLE
 10
667.5828124366870497
 20
2460.650372478709869
 30
0.0
 11
665.5828124366869361
 21
2458.9183216711398927
 31
0.0
  0
LINE
  5
5A3
  8
VISIBLE
 10
665.5828124366869361
 20
2458.9183216711398927
 30
0.0
 11
665.5828124366869361
 21
2458.143321671141166
 31
0.0
  0
LINE
  5
5A6
  8
VISIBLE
 10
707.7293050415731841
 20
2458.9183216711398927
 30
0.0
 11
705.7293050415734115
 21
2460.650372478709869
 31
0.0
  0
LINE
  5
5AA
  8
VISIBLE
 10
705.7293050415732978
 20
1883.3934505405441087
 30
0.0
 11
707.7293050415731841
 21
1885.1255013481129481
 31
0.0
  0
LINE
  5
5AE
  8
VISIBLE
 10
665.5828124366868224
 20
1885.1255013481129481
 30
0.0
 11
667.5828124366869361
 21
1883.3934505405441087
 31
0.0
  0
LINE
  5
5B2
  8
VISIBLE
 10
665.5828124366869361
 20
2458.143321671141166
 30
0.0
 11
665.5828124366869361
 21
2452.9719115096258975
 31
0.0
  0
LINE
  5
5B3
  8
VISIBLE
 10
675.6560587391301169
 20
2460.650372478709869
 30
0.0
 11
667.5828124366870497
 21
2460.650372478709869
 31
0.0
  0
LINE
  5
5B4
  8
VISIBLE
 10
705.7293050415734115
 20
2460.650372478709869
 30
0.0
 11
697.6560587391302306
 21
2460.650372478709869
 31
0.0
  0
LINE
  5
5B6
  8
VISIBLE
 10
707.7293050415731841
 20
1885.1255013481129481
 30
0.0
 11
707.7293050415731841
 21
1891.0719115096269434
 31
0.0
  0
LINE
  5
5B7
  8
VISIBLE
 10
697.6560587391301169
 20
1883.3934505405441087
 30
0.0
 11
705.7293050415732978
 21
1883.3934505405441087
 31
0.0
  0
LINE
  5
5B8
  8
VISIBLE
 10
667.5828124366869361
 20
1883.3934505405441087
 30
0.0
 11
675.6560587391300032
 21
1883.3934505405441087
 31
0.0
  0
LINE
  5
5BC
  8
VISIBLE
 10
665.5828124366868224
 20
1885.1255013481129481
 30
0.0
 11
665.5828124366868224
 21
1891.0719115096260339
 31
0.0
  0
LINE
  5
5BE
  8
VISIBLE
 10
707.7293050415731841
 20
2458.9183216711398927
 30
0.0
 11
707.7293050415731841
 21
2452.9719115096258975
 31
0.0
  0
LINE
  5
5C2
  8
VISIBLE
 10
680.6560587391301169
 20
2456.320245459787202
 30
0.0
 11
675.6560587391301169
 21
2460.650372478709869
 31
0.0
  0
LINE
  5
5C4
  8
VISIBLE
 10
697.6560587391302306
 20
2460.650372478709869
 30
0.0
 11
692.6560587391302306
 21
2456.320245459787202
 31
0.0
  0
LINE
  5
5C5
  8
VISIBLE
 10
692.6560587391302306
 20
1887.7235775594649567
 30
0.0
 11
697.6560587391301169
 21
1883.3934505405441087
 31
0.0
  0
LINE
  5
5C7
  8
VISIBLE
 10
675.6560587391300032
 20
1883.3934505405441087
 30
0.0
 11
680.6560587391300032
 21
1887.7235775594649567
 31
0.0
  0
LINE
  5
5DA
  8
VISIBLE
 10
692.6560587391301169
 20
1903.5219115099450846
 30
0.0
 11
692.6560587391302306
 21
1887.7235775594649567
 31
0.0
  0
LINE
  5
5DB
  8
VISIBLE
 10
680.6560587391300032
 20
1887.7235775594649567
 30
0.0
 11
680.6560587391300032
 21
1903.5219115099450846
 31
0.0
  0
LINE
  5
5DC
  8
VISIBLE
 10
692.6560587391302306
 20
2456.320245459787202
 30
0.0
 11
692.6560587391301169
 21
2440.5219115099448572
 31
0.0
  0
LINE
  5
5DD
  8
VISIBLE
 10
680.6560587391301169
 20
2440.5219115099448572
 30
0.0
 11
680.6560587391301169
 21
2456.320245459787202
 31
0.0
  0
LINE
  5
5E3
  8
VISIBLE
 10
662.9879366691733367
 20
2452.9719115096258975
 30
0.0
 11
665.5828124366869361
 21
2452.9719115096258975
 31
0.0
  0
LINE
  5
5E4
  8
VISIBLE
 10
654.7064071615892544
 20
2440.5219115096288078
 30
0.0
 11
662.9879366691733367
 21
2452.9719115096258975
 31
0.0
  0
LINE
  5
5E6
  8
VISIBLE
 10
662.9879366691731093
 20
1891.0719115096260339
 30
0.0
 11
654.7064071615894818
 21
1903.5219115096278983
 31
0.0
  0
LINE
  5
5E7
  8
VISIBLE
 10
665.5828124366868224
 20
1891.0719115096260339
 30
0.0
 11
662.9879366691731093
 21
1891.0719115096260339
 31
0.0
  0
LINE
  5
5ED
  8
VISIBLE
 10
710.3241808090871245
 20
2452.9719115096258975
 30
0.0
 11
718.6057103166709794
 21
2440.5219115096288078
 31
0.0
  0
LINE
  5
5EE
  8
VISIBLE
 10
707.7293050415731841
 20
2452.9719115096258975
 30
0.0
 11
710.3241808090871245
 21
2452.9719115096258975
 31
0.0
  0
LINE
  5
5F0
  8
VISIBLE
 10
710.3241808090870109
 20
1891.0719115096260339
 30
0.0
 11
707.7293050415731841
 21
1891.0719115096269434
 31
0.0
  0
LINE
  5
5F1
  8
VISIBLE
 10
718.6057103166706383
 20
1903.5219115096278983
 30
0.0
 11
710.3241808090870109
 21
1891.0719115096260339
 31
0.0
  0
CIRCLE
  5
5FA
  8
VISIBLE
 10
694.1060587391283434
 20
2046.5219115099459941
 30
0.0
 40
12.6999999999999993
  0
LINE
  5
611
  8
VISIBLE
 10
644.106058739128116
 20
2440.5219115099448572
 30
0.0
 11
1174.1060587391280023
 21
2440.5219115099462215
 31
0.0
  0
LINE
  5
612
  8
VISIBLE
 10
644.1060587391283434
 20
1903.5219115099450846
 30
0.0
 11
644.106058739128116
 21
2440.5219115099448572
 31
0.0
  0
LINE
  5
613
  8
VISIBLE
 10
1174.1060587391280023
 20
1903.5219115099450846
 30
0.0
 11
644.1060587391283434
 21
1903.5219115099450846
 31
0.0
  0
LINE
  5
614
  8
VISIBLE
 10
1174.1060587391280023
 20
2440.5219115099462215
 30
0.0
 11
1174.1060587391280023
 21
1903.5219115099450846
 31
0.0
  0
CIRCLE
  5
65E
  8
VISIBLE
 10
674.1060587391283434
 20
1936.5219115099450846
 30
0.0
 40
15.0000000000000107
  0
CIRCLE
  5
660
  8
VISIBLE
 10
674.1060587391283434
 20
1981.5219115099450846
 30
0.0
 40
15.0000000000000107
  0
LINE
  5
661
  8
VISIBLE
 10
1139.5347288106229371
 20
1872.121911509731035
 30
0.0
 11
1158.5847288106240285
 21
1872.121911509731035
 31
0.0
  0
LINE
  5
662
  8
VISIBLE
 10
1139.5347288106229371
 20
1872.121911509731035
 30
0.0
 11
1139.5347288106229371
 21
1903.5219115097308986
 31
0.0
  0
LINE
  5
663
  8
VISIBLE
 10
1158.5847288106240285
 20
1872.121911509731035
 30
0.0
 11
1158.5847288106240285
 21
1903.5219115097308986
 31
0.0
  0
LINE
  5
7EF
  8
VISIBLE
 10
1162.7939669299960315
 20
1903.5219115097070244
 30
0.0
 11
1162.7939669299960315
 21
1898.2632145884640522
 31
0.0
  0
LINE
  5
7F2
  8
VISIBLE
 10
1132.3181505482600642
 20
1898.2632145884649617
 30
0.0
 11
1132.3181505482600642
 21
1903.5219115097070244
 31
0.0
  0
LINE
  5
7F3
  8
VISIBLE
 10
1132.3181505482600642
 20
1898.2632145884649617
 30
0.0
 11
1132.3060587391280478
 21
1898.2632145884649617
 31
0.0
  0
LINE
  5
7F5
  8
VISIBLE
 10
1162.8060587391280478
 20
1898.2632145884640522
 30
0.0
 11
1162.7939669299960315
 21
1898.2632145884640522
 31
0.0
  0
LINE
  5
7F6
  8
VISIBLE
 10
1159.5953985673479565
 20
1872.0219115097070244
 30
0.0
 11
1135.5167189109079118
 21
1872.0219115097070244
 31
0.0
  0
LINE
  5
7FB
  8
VISIBLE
 10
1132.3060587391280478
 20
1898.2632145884640522
 30
0.0
 11
1132.3060587391280478
 21
1903.5219115097058875
 31
0.0
  0
LINE
  5
7FC
  8
VISIBLE
 10
1162.8060587391280478
 20
1898.2632145884640522
 30
0.0
 11
1162.8060587391280478
 21
1903.5219115097058875
 31
0.0
  0
LINE
  5
7FD
  8
VISIBLE
 10
1135.5167189109079118
 20
1872.0219115097070244
 30
0.0
 11
1134.4560587391279114
 21
1873.0825716814858879
 31
0.0
  0
LINE
  5
7FE
  8
VISIBLE
 10
1159.5953985673479565
 20
1872.0219115097058875
 30
0.0
 11
1160.6560587391279569
 21
1873.0825716814858879
 31
0.0
  0
LINE
  5
7FF
  8
VISIBLE
 10
1134.4560587391279114
 20
1897.0219115097070244
 30
0.0
 11
1132.3060587391280478
 21
1898.2632145884640522
 31
0.0
  0
LINE
  5
800
  8
VISIBLE
 10
1160.6560587391279569
 20
1897.0219115097058875
 30
0.0
 11
1162.8060587391280478
 21
1898.2632145884640522
 31
0.0
  0
LINE
  5
801
  8
VISIBLE
 10
1134.4560587391279114
 20
1873.0825716814858879
 30
0.0
 11
1134.4560587391279114
 21
1897.0219115097070244
 31
0.0
  0
LINE
  5
802
  8
VISIBLE
 10
1160.6560587391279569
 20
1873.0825716814858879
 30
0.0
 11
1160.6560587391279569
 21
1897.0219115097058875
 31
0.0
  0
LINE
  5
844
  8
VISIBLE
 10
2355.4229124002617937
 20
146.309839397678104
 30
0.0
 11
2354.6479124002607932
 21
147.6521787735439943
 31
0.0
  0
LINE
  5
84A
  8
VISIBLE
 10
1778.9409904620958969
 20
147.6521787735439091
 30
0.0
 11
1778.1659904620960333
 21
146.309839397678104
 31
0.0
  0
LINE
  5
84B
  8
VISIBLE
 10
2349.1444514311801868
 20
142.6849682670813877
 30
0.0
 11
2355.4229124002617937
 21
146.3098393976781892
 31
0.0
  0
LINE
  5
84C
  8
VISIBLE
 10
1778.1659904620960333
 20
146.3098393976781892
 30
0.0
 11
1784.4444514311790044
 21
142.6849682670813024
 31
0.0
  0
LINE
  5
84D
  8
VISIBLE
 10
1778.9409904620958969
 20
147.652178773544108
 30
0.0
 11
1785.2194514311800049
 21
144.0273076429471928
 31
0.0
  0
LINE
  5
84E
  8
VISIBLE
 10
2354.6479124002607932
 20
147.6521787735433122
 30
0.0
 11
2348.3694514311800958
 21
144.0273076429471075
 31
0.0
  0
ARC
  5
84F
  8
VISIBLE
 10
1785.8444514311800049
 20
145.1098393976778027
 30
0.0
 40
2.8000000000001601
 50
240.0000000000011084
 51
270.0
  0
ARC
  5
850
  8
VISIBLE
 10
1785.8444514311800049
 20
145.1098393976787975
 30
0.0
 40
1.250000000001132
 50
240.0000000000073044
 51
269.9999999999882903
  0
ARC
  5
851
  8
VISIBLE
 10
2347.7444514311800958
 20
145.1098393976770922
 30
0.0
 40
2.7999999999992999
 50
270.0
 51
300.0000000000035243
  0
ARC
  5
852
  8
VISIBLE
 10
2347.7444514311800958
 20
145.1098393976780869
 30
0.0
 40
1.250000000000516
 50
270.0000000000231921
 51
300.000000000008697
  0
LINE
  5
853
  8
VISIBLE
 10
1804.5944514311840976
 20
158.7100340905554106
 30
0.0
 11
1804.5944514311829607
 21
165.3098393976779903
 31
0.0
  0
LINE
  5
855
  8
VISIBLE
 10
2347.7444514311800958
 20
143.8462652007387987
 30
0.0
 11
2328.9944514311841886
 21
158.7100340905554958
 31
0.0
  0
LINE
  5
857
  8
VISIBLE
 10
2328.9944514311828243
 20
165.3098393976779903
 30
0.0
 11
2328.9944514311841886
 21
158.7100340905554958
 31
0.0
  0
LINE
  5
85A
  8
VISIBLE
 10
1804.5944514311840976
 20
158.7100340905554958
 30
0.0
 11
1785.8444514311800049
 21
143.8462652007387135
 31
0.0
  0
LINE
  5
85B
  8
VISIBLE
 10
1785.8444514311800049
 20
143.3100340905554049
 30
0.0
 11
1785.8444514311800049
 21
143.8462652007387135
 31
0.0
  0
LINE
  5
85C
  8
VISIBLE
 10
2347.7444514311800958
 20
143.3100340905554049
 30
0.0
 11
2347.7444514311800958
 21
143.8462652007387987
 31
0.0
  0
LINE
  5
85D
  8
VISIBLE
 10
1785.8444514311800049
 20
143.3100340905554049
 30
0.0
 11
1785.8444514311800049
 21
142.3098393976777061
 31
0.0
  0
LINE
  5
85E
  8
VISIBLE
 10
1785.8444514311800049
 20
142.3098393976777061
 30
0.0
 11
2347.7444514311800958
 21
142.3098393976777061
 31
0.0
  0
LINE
  5
85F
  8
VISIBLE
 10
2347.7444514311800958
 20
143.3100340905554049
 30
0.0
 11
2347.7444514311800958
 21
142.3098393976777061
 31
0.0
  0
LINE
  5
867
  8
VISIBLE
 10
1800.8444514311850071
 20
165.309839397678104
 30
0.0
 11
1800.8444514311850071
 21
1202.7098393976780244
 31
0.0
  0
LINE
  5
86B
  8
VISIBLE
 10
2332.7444514311259809
 20
165.3098393976779903
 30
0.0
 11
1800.8444514311850071
 21
165.309839397678104
 31
0.0
  0
LINE
  5
86C
  8
VISIBLE
 10
2332.7444514311259809
 20
165.3098393976779903
 30
0.0
 11
2332.7444514311259809
 21
1202.7098393976780244
 31
0.0
  0
POLYLINE
  8
VISIBLE
  5
218A
  66
     1
 10
0.000000
 20
0.000000
 30
0.000000
  70
     8
  0
VERTEX
  8
VISIBLE
  5
218B
 10
2335.29
 20
1220.56
 30
0.000000
  70
    32
  0
VERTEX
  8
VISIBLE
  5
218C
 10
2335.29
 20
1220.57
 30
0.000000
  70
    32
  0
VERTEX
  8
VISIBLE
  5
218D
 10
2335.29
 20
1220.59
 30
0.000000
  70
    32
  0
VERTEX
  8
VISIBLE
  5
218E
 10
2335.29
 20
1220.61
 30
0.000000
  70
    32
  0
VERTEX
  8
VISIBLE
  5
218F
 10
2335.29
 20
1220.62
 30
0.000000
  70
    32
  0
VERTEX
  8
VISIBLE
  5
2190
 10
2335.29
 20
1220.64
 30
0.000000
  70
    32
  0
VERTEX
  8
VISIBLE
  5
2191
 10
2335.29
 20
1220.65
 30
0.000000
  70
    32
  0
VERTEX
  8
VISIBLE
  5
2192
 10
2335.29
 20
1220.67
 30
0.000000
  70
    32
  0
VERTEX
  8
VISIBLE
  5
2193
 10
2335.29
 20
1220.68
 30
0.000000
  70
    32
  0
VERTEX
  8
VISIBLE
  5
2194
 10
2335.29
 20
1220.70
 30
0.000000
  70
    32
  0
VERTEX
  8
VISIBLE
  5
2195
 10
2335.29
 20
1220.71
 30
0.000000
  70
    32
  0
VERTEX
  8
VISIBLE
  5
2196
 10
2335.29
 20
1220.73
 30
0.000000
  70
    32
  0
VERTEX
  8
VISIBLE
  5
2197
 10
2335.29
 20
1220.74
 30
0.000000
  70
    32
  0
VERTEX
  8
VISIBLE
  5
2198
 10
2335.28
 20
1220.76
 30
0.000000
  70
    32
  0
VERTEX
  8
VISIBLE
  5
2199
 10
2335.28
 20
1220.77
 30
0.000000
  70
    32
  0
VERTEX
  8
VISIBLE
  5
219A
 10
2335.28
 20
1220.79
 30
0.000000
  70
    32
  0
VERTEX
  8
VISIBLE
  5
219B
 10
2335.28
 20
1220.80
 30
0.000000
  70
    32
  0
VERTEX
  8
VISIBLE
  5
219C
 10
2335.28
 20
1220.82
 30
0.000000
  70
    32
  0
VERTEX
  8
VISIBLE
  5
219D
 10
2335.28
 20
1220.83
 30
0.000000
  70
    32
  0
VERTEX
  8
VISIBLE
  5
219E
 10
2335.27
 20
1220.85
 30
0.000000
  70
    32
  0
VERTEX
  8
VISIBLE
  5
219F
 10
2335.27
 20
1220.86
 30
0.000000
  70
    32
  0
VERTEX
  8
VISIBLE
  5
21A0
 10
2335.27
 20
1220.88
 30
0.000000
  70
    32
  0
VERTEX
  8
VISIBLE
  5
21A1
 10
2335.27
 20
1220.89
 30
0.000000
  70
    32
  0
VERTEX
  8
VISIBLE
  5
21A2
 10
2335.26
 20
1220.91
 30
0.000000
  70
    32
  0
VERTEX
  8
VISIBLE
  5
21A3
 10
2335.26
 20
1220.92
 30
0.000000
  70
    32
  0
VERTEX
  8
VISIBLE
  5
21A4
 10
2335.26
 20
1220.94
 30
0.000000
  70
    32
  0
VERTEX
  8
VISIBLE
  5
21A5
 10
2335.26
 20
1220.95
 30
0.000000
  70
    32
  0
VERTEX
  8
VISIBLE
  5
21A6
 10
2335.25
 20
1220.96
 30
0.000000
  70
    32
  0
VERTEX
  8
VISIBLE
  5
21A7
 10
2335.25
 20
1220.98
 30
0.000000
  70
    32
  0
VERTEX
  8
VISIBLE
  5
21A8
 10
2335.25
 20
1220.99
 30
0.000000
  70
    32
  0
VERTEX
  8
VISIBLE
  5
21A9
 10
2335.24
 20
1221.01
 30
0.000000
  70
    32
  0
VERTEX
  8
VISIBLE
  5
21AA
 10
2335.24
 20
1221.02
 30
0.000000
  70
    32
  0
VERTEX
  8
VISIBLE
  5
21AB
 10
2335.24
 20
1221.04
 30
0.000000
  70
    32
  0
VERTEX
  8
VISIBLE
  5
21AC
 10
2335.23
 20
1221.05
 30
0.000000
  70
    32
  0
VERTEX
  8
VISIBLE
  5
21AD
 10
2335.23
 20
1221.07
 30
0.000000
  70
    32
  0
VERTEX
  8
VISIBLE
  5
21AE
 10
2335.23
 20
1221.08
 30
0.000000
  70
    32
  0
VERTEX
  8
VISIBLE
  5
21AF
 10
2335.22
 20
1221.10
 30
0.000000
  70
    32
  0
VERTEX
  8
VISIBLE
  5
21B0
 10
2335.22
 20
1221.11
 30
0.000000
  70
    32
  0
VERTEX
  8
VISIBLE
  5
21B1
 10
2335.21
 20
1221.13
 30
0.000000
  70
    32
  0
VERTEX
  8
VISIBLE
  5
21B2
 10
2335.21
 20
1221.14
 30
0.000000
  70
    32
  0
VERTEX
  8
VISIBLE
  5
21B3
 10
2335.21
 20
1221.16
 30
0.000000
  70
    32
  0
VERTEX
  8
VISIBLE
  5
21B4
 10
2335.20
 20
1221.17
 30
0.000000
  70
    32
  0
VERTEX
  8
VISIBLE
  5
21B5
 10
2335.20
 20
1221.18
 30
0.000000
  70
    32
  0
VERTEX
  8
VISIBLE
  5
21B6
 10
2335.19
 20
1221.20
 30
0.000000
  70
    32
  0
VERTEX
  8
VISIBLE
  5
21B7
 10
2335.19
 20
1221.21
 30
0.000000
  70
    32
  0
VERTEX
  8
VISIBLE
  5
21B8
 10
2335.18
 20
1221.23
 30
0.000000
  70
    32
  0
VERTEX
  8
VISIBLE
  5
21B9
 10
2335.18
 20
1221.24
 30
0.000000
  70
    32
  0
VERTEX
  8
VISIBLE
  5
21BA
 10
2335.17
 20
1221.26
 30
0.000000
  70
    32
  0
VERTEX
  8
VISIBLE
  5
21BB
 10
2335.17
 20
1221.27
 30
0.000000
  70
    32
  0
VERTEX
  8
VISIBLE
  5
21BC
 10
2335.16
 20
1221.28
 30
0.000000
  70
    32
  0
VERTEX
  8
VISIBLE
  5
21BD
 10
2335.16
 20
1221.30
 30
0.000000
  70
    32
  0
VERTEX
  8
VISIBLE
  5
21BE
 10
2335.15
 20
1221.31
 30
0.000000
  70
    32
  0
VERTEX
  8
VISIBLE
  5
21BF
 10
2335.15
 20
1221.33
 30
0.000000
  70
    32
  0
VERTEX
  8
VISIBLE
  5
21C0
 10
2335.14
 20
1221.34
 30
0.000000
  70
    32
  0
VERTEX
  8
VISIBLE
  5
21C1
 10
2335.13
 20
1221.35
 30
0.000000
  70
    32
  0
VERTEX
  8
VISIBLE
  5
21C2
 10
2335.13
 20
1221.37
 30
0.000000
  70
    32
  0
VERTEX
  8
VISIBLE
  5
21C3
 10
2335.12
 20
1221.38
 30
0.000000
  70
    32
  0
VERTEX
  8
VISIBLE
  5
21C4
 10
2335.12
 20
1221.40
 30
0.000000
  70
    32
  0
VERTEX
  8
VISIBLE
  5
21C5
 10
2335.11
 20
1221.41
 30
0.000000
  70
    32
  0
VERTEX
  8
VISIBLE
  5
21C6
 10
2335.10
 20
1221.42
 30
0.000000
  70
    32
  0
VERTEX
  8
VISIBLE
  5
21C7
 10
2335.10
 20
1221.44
 30
0.000000
  70
    32
  0
VERTEX
  8
VISIBLE
  5
21C8
 10
2335.09
 20
1221.45
 30
0.000000
  70
    32
  0
VERTEX
  8
VISIBLE
  5
21C9
 10
2335.09
 20
1221.46
 30
0.000000
  70
    32
  0
VERTEX
  8
VISIBLE
  5
21CA
 10
2335.08
 20
1221.48
 30
0.000000
  70
    32
  0
VERTEX
  8
VISIBLE
  5
21CB
 10
2335.07
 20
1221.49
 30
0.000000
  70
    32
  0
VERTEX
  8
VISIBLE
  5
21CC
 10
2335.07
 20
1221.51
 30
0.000000
  70
    32
  0
VERTEX
  8
VISIBLE
  5
21CD
 10
2335.06
 20
1221.52
 30
0.000000
  70
    32
  0
VERTEX
  8
VISIBLE
  5
21CE
 10
2335.05
 20
1221.53
 30
0.000000
  70
    32
  0
VERTEX
  8
VISIBLE
  5
21CF
 10
2335.04
 20
1221.55
 30
0.000000
  70
    32
  0
VERTEX
  8
VISIBLE
  5
21D0
 10
2335.04
 20
1221.56
 30
0.000000
  70
    32
  0
VERTEX
  8
VISIBLE
  5
21D1
 10
2335.03
 20
1221.57
 30
0.000000
  70
    32
  0
VERTEX
  8
VISIBLE
  5
21D2
 10
2335.02
 20
1221.59
 30
0.000000
  70
    32
  0
VERTEX
  8
VISIBLE
  5
21D3
 10
2335.02
 20
1221.60
 30
0.000000
  70
    32
  0
VERTEX
  8
VISIBLE
  5
21D4
 10
2335.01
 20
1221.61
 30
0.000000
  70
    32
  0
VERTEX
  8
VISIBLE
  5
21D5
 10
2335.00
 20
1221.63
 30
0.000000
  70
    32
  0
VERTEX
  8
VISIBLE
  5
21D6
 10
2334.99
 20
1221.64
 30
0.000000
  70
    32
  0
VERTEX
  8
VISIBLE
  5
21D7
 10
2334.99
 20
1221.65
 30
0.000000
  70
    32
  0
VERTEX
  8
VISIBLE
  5
21D8
 10
2334.98
 20
1221.66
 30
0.000000
  70
    32
  0
VERTEX
  8
VISIBLE
  5
21D9
 10
2334.97
 20
1221.68
 30
0.000000
  70
    32
  0
VERTEX
  8
VISIBLE
  5
21DA
 10
2334.96
 20
1221.69
 30
0.000000
  70
    32
  0
VERTEX
  8
VISIBLE
  5
21DB
 10
2334.95
 20
1221.70
 30
0.000000
  70
    32
  0
VERTEX
  8
VISIBLE
  5
21DC
 10
2334.95
 20
1221.72
 30
0.000000
  70
    32
  0
VERTEX
  8
VISIBLE
  5
21DD
 10
2334.94
 20
1221.73
 30
0.000000
  70
    32
  0
VERTEX
  8
VISIBLE
  5
21DE
 10
2334.93
 20
1221.74
 30
0.000000
  70
    32
  0
VERTEX
  8
VISIBLE
  5
21DF
 10
2334.92
 20
1221.75
 30
0.000000
  70
    32
  0
VERTEX
  8
VISIBLE
  5
21E0
 10
2334.91
 20
1221.77
 30
0.000000
  70
    32
  0
VERTEX
  8
VISIBLE
  5
21E1
 10
2334.90
 20
1221.78
 30
0.000000
  70
    32
  0
VERTEX
  8
VISIBLE
  5
21E2
 10
2334.90
 20
1221.79
 30
0.000000
  70
    32
  0
VERTEX
  8
VISIBLE
  5
21E3
 10
2334.89
 20
1221.80
 30
0.000000
  70
    32
  0
VERTEX
  8
VISIBLE
  5
21E4
 10
2334.88
 20
1221.82
 30
0.000000
  70
    32
  0
VERTEX
  8
VISIBLE
  5
21E5
 10
2334.87
 20
1221.83
 30
0.000000
  70
    32
  0
VERTEX
  8
VISIBLE
  5
21E6
 10
2334.86
 20
1221.84
 30
0.000000
  70
    32
  0
VERTEX
  8
VISIBLE
  5
21E7
 10
2334.85
 20
1221.85
 30
0.000000
  70
    32
  0
VERTEX
  8
VISIBLE
  5
21E8
 10
2334.84
 20
1221.86
 30
0.000000
  70
    32
  0
VERTEX
  8
VISIBLE
  5
21E9
 10
2334.83
 20
1221.88
 30
0.000000
  70
    32
  0
VERTEX
  8
VISIBLE
  5
21EA
 10
2334.82
 20
1221.89
 30
0.000000
  70
    32
  0
VERTEX
  8
VISIBLE
  5
21EB
 10
2334.81
 20
1221.90
 30
0.000000
  70
    32
  0
VERTEX
  8
VISIBLE
  5
21EC
 10
2334.80
 20
1221.91
 30
0.000000
  70
    32
  0
VERTEX
  8
VISIBLE
  5
21ED
 10
2334.79
 20
1221.92
 30
0.000000
  70
    32
  0
VERTEX
  8
VISIBLE
  5
21EE
 10
2334.79
 20
1221.94
 30
0.000000
  70
    32
  0
VERTEX
  8
VISIBLE
  5
21EF
 10
2334.78
 20
1221.95
 30
0.000000
  70
    32
  0
VERTEX
  8
VISIBLE
  5
21F0
 10
2334.77
 20
1221.96
 30
0.000000
  70
    32
  0
VERTEX
  8
VISIBLE
  5
21F1
 10
2334.76
 20
1221.97
 30
0.000000
  70
    32
  0
VERTEX
  8
VISIBLE
  5
21F2
 10
2334.75
 20
1221.98
 30
0.000000
  70
    32
  0
VERTEX
  8
VISIBLE
  5
21F3
 10
2334.74
 20
1221.99
 30
0.000000
  70
    32
  0
VERTEX
  8
VISIBLE
  5
21F4
 10
2334.73
 20
1222.00
 30
0.000000
  70
    32
  0
VERTEX
  8
VISIBLE
  5
21F5
 10
2334.72
 20
1222.02
 30
0.000000
  70
    32
  0
VERTEX
  8
VISIBLE
  5
21F6
 10
2334.71
 20
1222.03
 30
0.000000
  70
    32
  0
VERTEX
  8
VISIBLE
  5
21F7
 10
2334.70
 20
1222.04
 30
0.000000
  70
    32
  0
VERTEX
  8
VISIBLE
  5
21F8
 10
2334.68
 20
1222.05
 30
0.000000
  70
    32
  0
VERTEX
  8
VISIBLE
  5
21F9
 10
2334.67
 20
1222.06
 30
0.000000
  70
    32
  0
VERTEX
  8
VISIBLE
  5
21FA
 10
2334.66
 20
1222.07
 30
0.000000
  70
    32
  0
VERTEX
  8
VISIBLE
  5
21FB
 10
2334.65
 20
1222.08
 30
0.000000
  70
    32
  0
VERTEX
  8
VISIBLE
  5
21FC
 10
2334.64
 20
1222.09
 30
0.000000
  70
    32
  0
VERTEX
  8
VISIBLE
  5
21FD
 10
2334.63
 20
1222.10
 30
0.000000
  70
    32
  0
VERTEX
  8
VISIBLE
  5
21FE
 10
2334.62
 20
1222.11
 30
0.000000
  70
    32
  0
VERTEX
  8
VISIBLE
  5
21FF
 10
2334.61
 20
1222.12
 30
0.000000
  70
    32
  0
VERTEX
  8
VISIBLE
  5
2200
 10
2334.60
 20
1222.13
 30
0.000000
  70
    32
  0
VERTEX
  8
VISIBLE
  5
2201
 10
2334.59
 20
1222.14
 30
0.000000
  70
    32
  0
VERTEX
  8
VISIBLE
  5
2202
 10
2334.58
 20
1222.15
 30
0.000000
  70
    32
  0
VERTEX
  8
VISIBLE
  5
2203
 10
2334.57
 20
1222.16
 30
0.000000
  70
    32
  0
VERTEX
  8
VISIBLE
  5
2204
 10
2334.55
 20
1222.17
 30
0.000000
  70
    32
  0
VERTEX
  8
VISIBLE
  5
2205
 10
2334.54
 20
1222.18
 30
0.000000
  70
    32
  0
VERTEX
  8
VISIBLE
  5
2206
 10
2334.53
 20
1222.19
 30
0.000000
  70
    32
  0
VERTEX
  8
VISIBLE
  5
2207
 10
2334.52
 20
1222.20
 30
0.000000
  70
    32
  0
VERTEX
  8
VISIBLE
  5
2208
 10
2334.51
 20
1222.21
 30
0.000000
  70
    32
  0
VERTEX
  8
VISIBLE
  5
2209
 10
2334.50
 20
1222.22
 30
0.000000
  70
    32
  0
VERTEX
  8
VISIBLE
  5
220A
 10
2334.49
 20
1222.23
 30
0.000000
  70
    32
  0
VERTEX
  8
VISIBLE
  5
220B
 10
2334.47
 20
1222.24
 30
0.000000
  70
    32
  0
VERTEX
  8
VISIBLE
  5
220C
 10
2334.46
 20
1222.25
 30
0.000000
  70
    32
  0
VERTEX
  8
VISIBLE
  5
220D
 10
2334.45
 20
1222.26
 30
0.000000
  70
    32
  0
VERTEX
  8
VISIBLE
  5
220E
 10
2334.44
 20
1222.27
 30
0.000000
  70
    32
  0
VERTEX
  8
VISIBLE
  5
220F
 10
2334.43
 20
1222.28
 30
0.000000
  70
    32
  0
VERTEX
  8
VISIBLE
  5
2210
 10
2334.42
 20
1222.29
 30
0.000000
  70
    32
  0
VERTEX
  8
VISIBLE
  5
2211
 10
2334.40
 20
1222.30
 30
0.000000
  70
    32
  0
VERTEX
  8
VISIBLE
  5
2212
 10
2334.39
 20
1222.31
 30
0.000000
  70
    32
  0
VERTEX
  8
VISIBLE
  5
2213
 10
2334.38
 20
1222.32
 30
0.000000
  70
    32
  0
VERTEX
  8
VISIBLE
  5
2214
 10
2334.37
 20
1222.33
 30
0.000000
  70
    32
  0
VERTEX
  8
VISIBLE
  5
2215
 10
2334.35
 20
1222.33
 30
0.000000
  70
    32
  0
VERTEX
  8
VISIBLE
  5
2216
 10
2334.34
 20
1222.34
 30
0.000000
  70
    32
  0
VERTEX
  8
VISIBLE
  5
2217
 10
2334.33
 20
1222.35
 30
0.000000
  70
    32
  0
VERTEX
  8
VISIBLE
  5
2218
 10
2334.32
 20
1222.36
 30
0.000000
  70
    32
  0
VERTEX
  8
VISIBLE
  5
2219
 10
2334.30
 20
1222.37
 30
0.000000
  70
    32
  0
VERTEX
  8
VISIBLE
  5
221A
 10
2334.29
 20
1222.38
 30
0.000000
  70
    32
  0
VERTEX
  8
VISIBLE
  5
221B
 10
2334.28
 20
1222.38
 30
0.000000
  70
    32
  0
VERTEX
  8
VISIBLE
  5
221C
 10
2334.27
 20
1222.39
 30
0.000000
  70
    32
  0
VERTEX
  8
VISIBLE
  5
221D
 10
2334.25
 20
1222.40
 30
0.000000
  70
    32
  0
VERTEX
  8
VISIBLE
  5
221E
 10
2334.24
 20
1222.41
 30
0.000000
  70
    32
  0
VERTEX
  8
VISIBLE
  5
221F
 10
2334.23
 20
1222.42
 30
0.000000
  70
    32
  0
VERTEX
  8
VISIBLE
  5
2220
 10
2334.21
 20
1222.42
 30
0.000000
  70
    32
  0
VERTEX
  8
VISIBLE
  5
2221
 10
2334.20
 20
1222.43
 30
0.000000
  70
    32
  0
VERTEX
  8
VISIBLE
  5
2222
 10
2334.19
 20
1222.44
 30
0.000000
  70
    32
  0
VERTEX
  8
VISIBLE
  5
2223
 10
2334.17
 20
1222.45
 30
0.000000
  70
    32
  0
VERTEX
  8
VISIBLE
  5
2224
 10
2334.16
 20
1222.45
 30
0.000000
  70
    32
  0
VERTEX
  8
VISIBLE
  5
2225
 10
2334.15
 20
1222.46
 30
0.000000
  70
    32
  0
VERTEX
  8
VISIBLE
  5
2226
 10
2334.14
 20
1222.47
 30
0.000000
  70
    32
  0
VERTEX
  8
VISIBLE
  5
2227
 10
2334.12
 20
1222.47
 30
0.000000
  70
    32
  0
VERTEX
  8
VISIBLE
  5
2228
 10
2334.11
 20
1222.48
 30
0.000000
  70
    32
  0
VERTEX
  8
VISIBLE
  5
2229
 10
2334.09
 20
1222.49
 30
0.000000
  70
    32
  0
VERTEX
  8
VISIBLE
  5
222A
 10
2334.08
 20
1222.49
 30
0.000000
  70
    32
  0
VERTEX
  8
VISIBLE
  5
222B
 10
2334.07
 20
1222.50
 30
0.000000
  70
    32
  0
VERTEX
  8
VISIBLE
  5
222C
 10
2334.05
 20
1222.51
 30
0.000000
  70
    32
  0
VERTEX
  8
VISIBLE
  5
222D
 10
2334.04
 20
1222.51
 30
0.000000
  70
    32
  0
VERTEX
  8
VISIBLE
  5
222E
 10
2334.03
 20
1222.52
 30
0.000000
  70
    32
  0
VERTEX
  8
VISIBLE
  5
222F
 10
2334.01
 20
1222.53
 30
0.000000
  70
    32
  0
VERTEX
  8
VISIBLE
  5
2230
 10
2334.00
 20
1222.53
 30
0.000000
  70
    32
  0
VERTEX
  8
VISIBLE
  5
2231
 10
2333.98
 20
1222.54
 30
0.000000
  70
    32
  0
VERTEX
  8
VISIBLE
  5
2232
 10
2333.97
 20
1222.54
 30
0.000000
  70
    32
  0
VERTEX
  8
VISIBLE
  5
2233
 10
2333.96
 20
1222.55
 30
0.000000
  70
    32
  0
VERTEX
  8
VISIBLE
  5
2234
 10
2333.94
 20
1222.56
 30
0.000000
  70
    32
  0
VERTEX
  8
VISIBLE
  5
2235
 10
2333.93
 20
1222.56
 30
0.000000
  70
    32
  0
VERTEX
  8
VISIBLE
  5
2236
 10
2333.91
 20
1222.57
 30
0.000000
  70
    32
  0
VERTEX
  8
VISIBLE
  5
2237
 10
2333.90
 20
1222.57
 30
0.000000
  70
    32
  0
VERTEX
  8
VISIBLE
  5
2238
 10
2333.89
 20
1222.58
 30
0.000000
  70
    32
  0
VERTEX
  8
VISIBLE
  5
2239
 10
2333.87
 20
1222.58
 30
0.000000
  70
    32
  0
VERTEX
  8
VISIBLE
  5
223A
 10
2333.86
 20
1222.59
 30
0.000000
  70
    32
  0
VERTEX
  8
VISIBLE
  5
223B
 10
2333.84
 20
1222.59
 30
0.000000
  70
    32
  0
VERTEX
  8
VISIBLE
  5
223C
 10
2333.83
 20
1222.60
 30
0.000000
  70
    32
  0
VERTEX
  8
VISIBLE
  5
223D
 10
2333.81
 20
1222.60
 30
0.000000
  70
    32
  0
VERTEX
  8
VISIBLE
  5
223E
 10
2333.80
 20
1222.61
 30
0.000000
  70
    32
  0
VERTEX
  8
VISIBLE
  5
223F
 10
2333.79
 20
1222.61
 30
0.000000
  70
    32
  0
VERTEX
  8
VISIBLE
  5
2240
 10
2333.77
 20
1222.62
 30
0.000000
  70
    32
  0
VERTEX
  8
VISIBLE
  5
2241
 10
2333.76
 20
1222.62
 30
0.000000
  70
    32
  0
VERTEX
  8
VISIBLE
  5
2242
 10
2333.74
 20
1222.62
 30
0.000000
  70
    32
  0
VERTEX
  8
VISIBLE
  5
2243
 10
2333.73
 20
1222.63
 30
0.000000
  70
    32
  0
VERTEX
  8
VISIBLE
  5
2244
 10
2333.71
 20
1222.63
 30
0.000000
  70
    32
  0
VERTEX
  8
VISIBLE
  5
2245
 10
2333.70
 20
1222.64
 30
0.000000
  70
    32
  0
VERTEX
  8
VISIBLE
  5
2246
 10
2333.68
 20
1222.64
 30
0.000000
  70
    32
  0
VERTEX
  8
VISIBLE
  5
2247
 10
2333.67
 20
1222.64
 30
0.000000
  70
    32
  0
VERTEX
  8
VISIBLE
  5
2248
 10
2333.65
 20
1222.65
 30
0.000000
  70
    32
  0
VERTEX
  8
VISIBLE
  5
2249
 10
2333.64
 20
1222.65
 30
0.000000
  70
    32
  0
VERTEX
  8
VISIBLE
  5
224A
 10
2333.62
 20
1222.66
 30
0.000000
  70
    32
  0
VERTEX
  8
VISIBLE
  5
224B
 10
2333.61
 20
1222.66
 30
0.000000
  70
    32
  0
VERTEX
  8
VISIBLE
  5
224C
 10
2333.60
 20
1222.66
 30
0.000000
  70
    32
  0
VERTEX
  8
VISIBLE
  5
224D
 10
2333.58
 20
1222.66
 30
0.000000
  70
    32
  0
VERTEX
  8
VISIBLE
  5
224E
 10
2333.57
 20
1222.67
 30
0.000000
  70
    32
  0
VERTEX
  8
VISIBLE
  5
224F
 10
2333.55
 20
1222.67
 30
0.000000
  70
    32
  0
VERTEX
  8
VISIBLE
  5
2250
 10
2333.54
 20
1222.67
 30
0.000000
  70
    32
  0
VERTEX
  8
VISIBLE
  5
2251
 10
2333.52
 20
1222.68
 30
0.000000
  70
    32
  0
VERTEX
  8
VISIBLE
  5
2252
 10
2333.51
 20
1222.68
 30
0.000000
  70
    32
  0
VERTEX
  8
VISIBLE
  5
2253
 10
2333.49
 20
1222.68
 30
0.000000
  70
    32
  0
VERTEX
  8
VISIBLE
  5
2254
 10
2333.48
 20
1222.68
 30
0.000000
  70
    32
  0
VERTEX
  8
VISIBLE
  5
2255
 10
2333.46
 20
1222.69
 30
0.000000
  70
    32
  0
VERTEX
  8
VISIBLE
  5
2256
 10
2333.45
 20
1222.69
 30
0.000000
  70
    32
  0
VERTEX
  8
VISIBLE
  5
2257
 10
2333.43
 20
1222.69
 30
0.000000
  70
    32
  0
VERTEX
  8
VISIBLE
  5
2258
 10
2333.42
 20
1222.69
 30
0.000000
  70
    32
  0
VERTEX
  8
VISIBLE
  5
2259
 10
2333.40
 20
1222.69
 30
0.000000
  70
    32
  0
VERTEX
  8
VISIBLE
  5
225A
 10
2333.39
 20
1222.70
 30
0.000000
  70
    32
  0
VERTEX
  8
VISIBLE
  5
225B
 10
2333.37
 20
1222.70
 30
0.000000
  70
    32
  0
VERTEX
  8
VISIBLE
  5
225C
 10
2333.36
 20
1222.70
 30
0.000000
  70
    32
  0
VERTEX
  8
VISIBLE
  5
225D
 10
2333.34
 20
1222.70
 30
0.000000
  70
    32
  0
VERTEX
  8
VISIBLE
  5
225E
 10
2333.33
 20
1222.70
 30
0.000000
  70
    32
  0
VERTEX
  8
VISIBLE
  5
225F
 10
2333.31
 20
1222.70
 30
0.000000
  70
    32
  0
VERTEX
  8
VISIBLE
  5
2260
 10
2333.30
 20
1222.70
 30
0.000000
  70
    32
  0
VERTEX
  8
VISIBLE
  5
2261
 10
2333.28
 20
1222.71
 30
0.000000
  70
    32
  0
VERTEX
  8
VISIBLE
  5
2262
 10
2333.27
 20
1222.71
 30
0.000000
  70
    32
  0
VERTEX
  8
VISIBLE
  5
2263
 10
2333.25
 20
1222.71
 30
0.000000
  70
    32
  0
VERTEX
  8
VISIBLE
  5
2264
 10
2333.24
 20
1222.71
 30
0.000000
  70
    32
  0
VERTEX
  8
VISIBLE
  5
2265
 10
2333.22
 20
1222.71
 30
0.000000
  70
    32
  0
VERTEX
  8
VISIBLE
  5
2266
 10
2333.21
 20
1222.71
 30
0.000000
  70
    32
  0
VERTEX
  8
VISIBLE
  5
2267
 10
2333.19
 20
1222.71
 30
0.000000
  70
    32
  0
VERTEX
  8
VISIBLE
  5
2268
 10
2333.17
 20
1222.71
 30
0.000000
  70
    32
  0
VERTEX
  8
VISIBLE
  5
2269
 10
2333.16
 20
1222.71
 30
0.000000
  70
    32
  0
VERTEX
  8
VISIBLE
  5
226A
 10
2333.14
 20
1222.71
 30
0.000000
  70
    32
  0
SEQEND
  8
VISIBLE
  5
226B
  0
LINE
  5
877
  8
VISIBLE
 10
2335.2944514311848252
 20
1202.7098393976780244
 30
0.0
 11
2335.2944514311861894
 21
1220.559839397677024
 31
0.0
  0
POLYLINE
  8
VISIBLE
  5
226C
  66
     1
 10
0.000000
 20
0.000000
 30
0.000000
  70
     8
  0
VERTEX
  8
VISIBLE
  5
226D
 10
1800.44
 20
1222.71
 30
0.000000
  70
    32
  0
VERTEX
  8
VISIBLE
  5
226E
 10
1800.43
 20
1222.71
 30
0.000000
  70
    32
  0
VERTEX
  8
VISIBLE
  5
226F
 10
1800.41
 20
1222.71
 30
0.000000
  70
    32
  0
VERTEX
  8
VISIBLE
  5
2270
 10
1800.40
 20
1222.71
 30
0.000000
  70
    32
  0
VERTEX
  8
VISIBLE
  5
2271
 10
1800.38
 20
1222.71
 30
0.000000
  70
    32
  0
VERTEX
  8
VISIBLE
  5
2272
 10
1800.37
 20
1222.71
 30
0.000000
  70
    32
  0
VERTEX
  8
VISIBLE
  5
2273
 10
1800.35
 20
1222.71
 30
0.000000
  70
    32
  0
VERTEX
  8
VISIBLE
  5
2274
 10
1800.34
 20
1222.71
 30
0.000000
  70
    32
  0
VERTEX
  8
VISIBLE
  5
2275
 10
1800.32
 20
1222.71
 30
0.000000
  70
    32
  0
VERTEX
  8
VISIBLE
  5
2276
 10
1800.31
 20
1222.71
 30
0.000000
  70
    32
  0
VERTEX
  8
VISIBLE
  5
2277
 10
1800.29
 20
1222.70
 30
0.000000
  70
    32
  0
VERTEX
  8
VISIBLE
  5
2278
 10
1800.28
 20
1222.70
 30
0.000000
  70
    32
  0
VERTEX
  8
VISIBLE
  5
2279
 10
1800.26
 20
1222.70
 30
0.000000
  70
    32
  0
VERTEX
  8
VISIBLE
  5
227A
 10
1800.25
 20
1222.70
 30
0.000000
  70
    32
  0
VERTEX
  8
VISIBLE
  5
227B
 10
1800.23
 20
1222.70
 30
0.000000
  70
    32
  0
VERTEX
  8
VISIBLE
  5
227C
 10
1800.22
 20
1222.70
 30
0.000000
  70
    32
  0
VERTEX
  8
VISIBLE
  5
227D
 10
1800.20
 20
1222.70
 30
0.000000
  70
    32
  0
VERTEX
  8
VISIBLE
  5
227E
 10
1800.19
 20
1222.69
 30
0.000000
  70
    32
  0
VERTEX
  8
VISIBLE
  5
227F
 10
1800.17
 20
1222.69
 30
0.000000
  70
    32
  0
VERTEX
  8
VISIBLE
  5
2280
 10
1800.16
 20
1222.69
 30
0.000000
  70
    32
  0
VERTEX
  8
VISIBLE
  5
2281
 10
1800.14
 20
1222.69
 30
0.000000
  70
    32
  0
VERTEX
  8
VISIBLE
  5
2282
 10
1800.13
 20
1222.68
 30
0.000000
  70
    32
  0
VERTEX
  8
VISIBLE
  5
2283
 10
1800.11
 20
1222.68
 30
0.000000
  70
    32
  0
VERTEX
  8
VISIBLE
  5
2284
 10
1800.10
 20
1222.68
 30
0.000000
  70
    32
  0
VERTEX
  8
VISIBLE
  5
2285
 10
1800.08
 20
1222.68
 30
0.000000
  70
    32
  0
VERTEX
  8
VISIBLE
  5
2286
 10
1800.07
 20
1222.67
 30
0.000000
  70
    32
  0
VERTEX
  8
VISIBLE
  5
2287
 10
1800.05
 20
1222.67
 30
0.000000
  70
    32
  0
VERTEX
  8
VISIBLE
  5
2288
 10
1800.04
 20
1222.67
 30
0.000000
  70
    32
  0
VERTEX
  8
VISIBLE
  5
2289
 10
1800.02
 20
1222.67
 30
0.000000
  70
    32
  0
VERTEX
  8
VISIBLE
  5
228A
 10
1800.01
 20
1222.66
 30
0.000000
  70
    32
  0
VERTEX
  8
VISIBLE
  5
228B
 10
1800.00
 20
1222.66
 30
0.000000
  70
    32
  0
VERTEX
  8
VISIBLE
  5
228C
 10
1799.98
 20
1222.66
 30
0.000000
  70
    32
  0
VERTEX
  8
VISIBLE
  5
228D
 10
1799.97
 20
1222.65
 30
0.000000
  70
    32
  0
VERTEX
  8
VISIBLE
  5
228E
 10
1799.95
 20
1222.65
 30
0.000000
  70
    32
  0
VERTEX
  8
VISIBLE
  5
228F
 10
1799.94
 20
1222.64
 30
0.000000
  70
    32
  0
VERTEX
  8
VISIBLE
  5
2290
 10
1799.92
 20
1222.64
 30
0.000000
  70
    32
  0
VERTEX
  8
VISIBLE
  5
2291
 10
1799.91
 20
1222.64
 30
0.000000
  70
    32
  0
VERTEX
  8
VISIBLE
  5
2292
 10
1799.89
 20
1222.63
 30
0.000000
  70
    32
  0
VERTEX
  8
VISIBLE
  5
2293
 10
1799.88
 20
1222.63
 30
0.000000
  70
    32
  0
VERTEX
  8
VISIBLE
  5
2294
 10
1799.86
 20
1222.62
 30
0.000000
  70
    32
  0
VERTEX
  8
VISIBLE
  5
2295
 10
1799.85
 20
1222.62
 30
0.000000
  70
    32
  0
VERTEX
  8
VISIBLE
  5
2296
 10
1799.83
 20
1222.62
 30
0.000000
  70
    32
  0
VERTEX
  8
VISIBLE
  5
2297
 10
1799.82
 20
1222.61
 30
0.000000
  70
    32
  0
VERTEX
  8
VISIBLE
  5
2298
 10
1799.81
 20
1222.61
 30
0.000000
  70
    32
  0
VERTEX
  8
VISIBLE
  5
2299
 10
1799.79
 20
1222.60
 30
0.000000
  70
    32
  0
VERTEX
  8
VISIBLE
  5
229A
 10
1799.78
 20
1222.60
 30
0.000000
  70
    32
  0
VERTEX
  8
VISIBLE
  5
229B
 10
1799.76
 20
1222.59
 30
0.000000
  70
    32
  0
VERTEX
  8
VISIBLE
  5
229C
 10
1799.75
 20
1222.59
 30
0.000000
  70
    32
  0
VERTEX
  8
VISIBLE
  5
229D
 10
1799.73
 20
1222.58
 30
0.000000
  70
    32
  0
VERTEX
  8
VISIBLE
  5
229E
 10
1799.72
 20
1222.58
 30
0.000000
  70
    32
  0
VERTEX
  8
VISIBLE
  5
229F
 10
1799.71
 20
1222.57
 30
0.000000
  70
    32
  0
VERTEX
  8
VISIBLE
  5
22A0
 10
1799.69
 20
1222.57
 30
0.000000
  70
    32
  0
VERTEX
  8
VISIBLE
  5
22A1
 10
1799.68
 20
1222.56
 30
0.000000
  70
    32
  0
VERTEX
  8
VISIBLE
  5
22A2
 10
1799.66
 20
1222.56
 30
0.000000
  70
    32
  0
VERTEX
  8
VISIBLE
  5
22A3
 10
1799.65
 20
1222.55
 30
0.000000
  70
    32
  0
VERTEX
  8
VISIBLE
  5
22A4
 10
1799.64
 20
1222.54
 30
0.000000
  70
    32
  0
VERTEX
  8
VISIBLE
  5
22A5
 10
1799.62
 20
1222.54
 30
0.000000
  70
    32
  0
VERTEX
  8
VISIBLE
  5
22A6
 10
1799.61
 20
1222.53
 30
0.000000
  70
    32
  0
VERTEX
  8
VISIBLE
  5
22A7
 10
1799.59
 20
1222.53
 30
0.000000
  70
    32
  0
VERTEX
  8
VISIBLE
  5
22A8
 10
1799.58
 20
1222.52
 30
0.000000
  70
    32
  0
VERTEX
  8
VISIBLE
  5
22A9
 10
1799.57
 20
1222.51
 30
0.000000
  70
    32
  0
VERTEX
  8
VISIBLE
  5
22AA
 10
1799.55
 20
1222.51
 30
0.000000
  70
    32
  0
VERTEX
  8
VISIBLE
  5
22AB
 10
1799.54
 20
1222.50
 30
0.000000
  70
    32
  0
VERTEX
  8
VISIBLE
  5
22AC
 10
1799.53
 20
1222.49
 30
0.000000
  70
    32
  0
VERTEX
  8
VISIBLE
  5
22AD
 10
1799.51
 20
1222.49
 30
0.000000
  70
    32
  0
VERTEX
  8
VISIBLE
  5
22AE
 10
1799.50
 20
1222.48
 30
0.000000
  70
    32
  0
VERTEX
  8
VISIBLE
  5
22AF
 10
1799.49
 20
1222.47
 30
0.000000
  70
    32
  0
VERTEX
  8
VISIBLE
  5
22B0
 10
1799.47
 20
1222.47
 30
0.000000
  70
    32
  0
VERTEX
  8
VISIBLE
  5
22B1
 10
1799.46
 20
1222.46
 30
0.000000
  70
    32
  0
VERTEX
  8
VISIBLE
  5
22B2
 10
1799.45
 20
1222.45
 30
0.000000
  70
    32
  0
VERTEX
  8
VISIBLE
  5
22B3
 10
1799.43
 20
1222.45
 30
0.000000
  70
    32
  0
VERTEX
  8
VISIBLE
  5
22B4
 10
1799.42
 20
1222.44
 30
0.000000
  70
    32
  0
VERTEX
  8
VISIBLE
  5
22B5
 10
1799.41
 20
1222.43
 30
0.000000
  70
    32
  0
VERTEX
  8
VISIBLE
  5
22B6
 10
1799.39
 20
1222.42
 30
0.000000
  70
    32
  0
VERTEX
  8
VISIBLE
  5
22B7
 10
1799.38
 20
1222.42
 30
0.000000
  70
    32
  0
VERTEX
  8
VISIBLE
  5
22B8
 10
1799.37
 20
1222.41
 30
0.000000
  70
    32
  0
VERTEX
  8
VISIBLE
  5
22B9
 10
1799.35
 20
1222.40
 30
0.000000
  70
    32
  0
VERTEX
  8
VISIBLE
  5
22BA
 10
1799.34
 20
1222.39
 30
0.000000
  70
    32
  0
VERTEX
  8
VISIBLE
  5
22BB
 10
1799.33
 20
1222.39
 30
0.000000
  70
    32
  0
VERTEX
  8
VISIBLE
  5
22BC
 10
1799.31
 20
1222.38
 30
0.000000
  70
    32
  0
VERTEX
  8
VISIBLE
  5
22BD
 10
1799.30
 20
1222.37
 30
0.000000
  70
    32
  0
VERTEX
  8
VISIBLE
  5
22BE
 10
1799.29
 20
1222.36
 30
0.000000
  70
    32
  0
VERTEX
  8
VISIBLE
  5
22BF
 10
1799.28
 20
1222.35
 30
0.000000
  70
    32
  0
VERTEX
  8
VISIBLE
  5
22C0
 10
1799.26
 20
1222.34
 30
0.000000
  70
    32
  0
VERTEX
  8
VISIBLE
  5
22C1
 10
1799.25
 20
1222.34
 30
0.000000
  70
    32
  0
VERTEX
  8
VISIBLE
  5
22C2
 10
1799.24
 20
1222.33
 30
0.000000
  70
    32
  0
VERTEX
  8
VISIBLE
  5
22C3
 10
1799.23
 20
1222.32
 30
0.000000
  70
    32
  0
VERTEX
  8
VISIBLE
  5
22C4
 10
1799.21
 20
1222.31
 30
0.000000
  70
    32
  0
VERTEX
  8
VISIBLE
  5
22C5
 10
1799.20
 20
1222.30
 30
0.000000
  70
    32
  0
VERTEX
  8
VISIBLE
  5
22C6
 10
1799.19
 20
1222.29
 30
0.000000
  70
    32
  0
VERTEX
  8
VISIBLE
  5
22C7
 10
1799.18
 20
1222.28
 30
0.000000
  70
    32
  0
VERTEX
  8
VISIBLE
  5
22C8
 10
1799.16
 20
1222.28
 30
0.000000
  70
    32
  0
VERTEX
  8
VISIBLE
  5
22C9
 10
1799.15
 20
1222.27
 30
0.000000
  70
    32
  0
VERTEX
  8
VISIBLE
  5
22CA
 10
1799.14
 20
1222.26
 30
0.000000
  70
    32
  0
VERTEX
  8
VISIBLE
  5
22CB
 10
1799.13
 20
1222.25
 30
0.000000
  70
    32
  0
VERTEX
  8
VISIBLE
  5
22CC
 10
1799.12
 20
1222.24
 30
0.000000
  70
    32
  0
VERTEX
  8
VISIBLE
  5
22CD
 10
1799.10
 20
1222.23
 30
0.000000
  70
    32
  0
VERTEX
  8
VISIBLE
  5
22CE
 10
1799.09
 20
1222.22
 30
0.000000
  70
    32
  0
VERTEX
  8
VISIBLE
  5
22CF
 10
1799.08
 20
1222.21
 30
0.000000
  70
    32
  0
VERTEX
  8
VISIBLE
  5
22D0
 10
1799.07
 20
1222.20
 30
0.000000
  70
    32
  0
VERTEX
  8
VISIBLE
  5
22D1
 10
1799.06
 20
1222.19
 30
0.000000
  70
    32
  0
VERTEX
  8
VISIBLE
  5
22D2
 10
1799.05
 20
1222.18
 30
0.000000
  70
    32
  0
VERTEX
  8
VISIBLE
  5
22D3
 10
1799.03
 20
1222.17
 30
0.000000
  70
    32
  0
VERTEX
  8
VISIBLE
  5
22D4
 10
1799.02
 20
1222.16
 30
0.000000
  70
    32
  0
VERTEX
  8
VISIBLE
  5
22D5
 10
1799.01
 20
1222.15
 30
0.000000
  70
    32
  0
VERTEX
  8
VISIBLE
  5
22D6
 10
1799.00
 20
1222.14
 30
0.000000
  70
    32
  0
VERTEX
  8
VISIBLE
  5
22D7
 10
1798.99
 20
1222.13
 30
0.000000
  70
    32
  0
VERTEX
  8
VISIBLE
  5
22D8
 10
1798.98
 20
1222.12
 30
0.000000
  70
    32
  0
VERTEX
  8
VISIBLE
  5
22D9
 10
1798.97
 20
1222.11
 30
0.000000
  70
    32
  0
VERTEX
  8
VISIBLE
  5
22DA
 10
1798.96
 20
1222.10
 30
0.000000
  70
    32
  0
VERTEX
  8
VISIBLE
  5
22DB
 10
1798.94
 20
1222.09
 30
0.000000
  70
    32
  0
VERTEX
  8
VISIBLE
  5
22DC
 10
1798.93
 20
1222.08
 30
0.000000
  70
    32
  0
VERTEX
  8
VISIBLE
  5
22DD
 10
1798.92
 20
1222.07
 30
0.000000
  70
    32
  0
VERTEX
  8
VISIBLE
  5
22DE
 10
1798.91
 20
1222.06
 30
0.000000
  70
    32
  0
VERTEX
  8
VISIBLE
  5
22DF
 10
1798.90
 20
1222.05
 30
0.000000
  70
    32
  0
VERTEX
  8
VISIBLE
  5
22E0
 10
1798.89
 20
1222.04
 30
0.000000
  70
    32
  0
VERTEX
  8
VISIBLE
  5
22E1
 10
1798.88
 20
1222.03
 30
0.000000
  70
    32
  0
VERTEX
  8
VISIBLE
  5
22E2
 10
1798.87
 20
1222.01
 30
0.000000
  70
    32
  0
VERTEX
  8
VISIBLE
  5
22E3
 10
1798.86
 20
1222.00
 30
0.000000
  70
    32
  0
VERTEX
  8
VISIBLE
  5
22E4
 10
1798.85
 20
1221.99
 30
0.000000
  70
    32
  0
VERTEX
  8
VISIBLE
  5
22E5
 10
1798.84
 20
1221.98
 30
0.000000
  70
    32
  0
VERTEX
  8
VISIBLE
  5
22E6
 10
1798.83
 20
1221.97
 30
0.000000
  70
    32
  0
VERTEX
  8
VISIBLE
  5
22E7
 10
1798.82
 20
1221.96
 30
0.000000
  70
    32
  0
VERTEX
  8
VISIBLE
  5
22E8
 10
1798.81
 20
1221.95
 30
0.000000
  70
    32
  0
VERTEX
  8
VISIBLE
  5
22E9
 10
1798.80
 20
1221.94
 30
0.000000
  70
    32
  0
VERTEX
  8
VISIBLE
  5
22EA
 10
1798.79
 20
1221.92
 30
0.000000
  70
    32
  0
VERTEX
  8
VISIBLE
  5
22EB
 10
1798.78
 20
1221.91
 30
0.000000
  70
    32
  0
VERTEX
  8
VISIBLE
  5
22EC
 10
1798.77
 20
1221.90
 30
0.000000
  70
    32
  0
VERTEX
  8
VISIBLE
  5
22ED
 10
1798.76
 20
1221.89
 30
0.000000
  70
    32
  0
VERTEX
  8
VISIBLE
  5
22EE
 10
1798.75
 20
1221.88
 30
0.000000
  70
    32
  0
VERTEX
  8
VISIBLE
  5
22EF
 10
1798.74
 20
1221.87
 30
0.000000
  70
    32
  0
VERTEX
  8
VISIBLE
  5
22F0
 10
1798.73
 20
1221.85
 30
0.000000
  70
    32
  0
VERTEX
  8
VISIBLE
  5
22F1
 10
1798.72
 20
1221.84
 30
0.000000
  70
    32
  0
VERTEX
  8
VISIBLE
  5
22F2
 10
1798.71
 20
1221.83
 30
0.000000
  70
    32
  0
VERTEX
  8
VISIBLE
  5
22F3
 10
1798.71
 20
1221.82
 30
0.000000
  70
    32
  0
VERTEX
  8
VISIBLE
  5
22F4
 10
1798.70
 20
1221.81
 30
0.000000
  70
    32
  0
VERTEX
  8
VISIBLE
  5
22F5
 10
1798.69
 20
1221.79
 30
0.000000
  70
    32
  0
VERTEX
  8
VISIBLE
  5
22F6
 10
1798.68
 20
1221.78
 30
0.000000
  70
    32
  0
VERTEX
  8
VISIBLE
  5
22F7
 10
1798.67
 20
1221.77
 30
0.000000
  70
    32
  0
VERTEX
  8
VISIBLE
  5
22F8
 10
1798.66
 20
1221.76
 30
0.000000
  70
    32
  0
VERTEX
  8
VISIBLE
  5
22F9
 10
1798.65
 20
1221.74
 30
0.000000
  70
    32
  0
VERTEX
  8
VISIBLE
  5
22FA
 10
1798.64
 20
1221.73
 30
0.000000
  70
    32
  0
VERTEX
  8
VISIBLE
  5
22FB
 10
1798.64
 20
1221.72
 30
0.000000
  70
    32
  0
VERTEX
  8
VISIBLE
  5
22FC
 10
1798.63
 20
1221.71
 30
0.000000
  70
    32
  0
VERTEX
  8
VISIBLE
  5
22FD
 10
1798.62
 20
1221.69
 30
0.000000
  70
    32
  0
VERTEX
  8
VISIBLE
  5
22FE
 10
1798.61
 20
1221.68
 30
0.000000
  70
    32
  0
VERTEX
  8
VISIBLE
  5
22FF
 10
1798.60
 20
1221.67
 30
0.000000
  70
    32
  0
VERTEX
  8
VISIBLE
  5
2300
 10
1798.60
 20
1221.66
 30
0.000000
  70
    32
  0
VERTEX
  8
VISIBLE
  5
2301
 10
1798.59
 20
1221.64
 30
0.000000
  70
    32
  0
VERTEX
  8
VISIBLE
  5
2302
 10
1798.58
 20
1221.63
 30
0.000000
  70
    32
  0
VERTEX
  8
VISIBLE
  5
2303
 10
1798.57
 20
1221.62
 30
0.000000
  70
    32
  0
VERTEX
  8
VISIBLE
  5
2304
 10
1798.57
 20
1221.60
 30
0.000000
  70
    32
  0
VERTEX
  8
VISIBLE
  5
2305
 10
1798.56
 20
1221.59
 30
0.000000
  70
    32
  0
VERTEX
  8
VISIBLE
  5
2306
 10
1798.55
 20
1221.58
 30
0.000000
  70
    32
  0
VERTEX
  8
VISIBLE
  5
2307
 10
1798.54
 20
1221.56
 30
0.000000
  70
    32
  0
VERTEX
  8
VISIBLE
  5
2308
 10
1798.54
 20
1221.55
 30
0.000000
  70
    32
  0
VERTEX
  8
VISIBLE
  5
2309
 10
1798.53
 20
1221.54
 30
0.000000
  70
    32
  0
VERTEX
  8
VISIBLE
  5
230A
 10
1798.52
 20
1221.52
 30
0.000000
  70
    32
  0
VERTEX
  8
VISIBLE
  5
230B
 10
1798.52
 20
1221.51
 30
0.000000
  70
    32
  0
VERTEX
  8
VISIBLE
  5
230C
 10
1798.51
 20
1221.50
 30
0.000000
  70
    32
  0
VERTEX
  8
VISIBLE
  5
230D
 10
1798.50
 20
1221.48
 30
0.000000
  70
    32
  0
VERTEX
  8
VISIBLE
  5
230E
 10
1798.50
 20
1221.47
 30
0.000000
  70
    32
  0
VERTEX
  8
VISIBLE
  5
230F
 10
1798.49
 20
1221.46
 30
0.000000
  70
    32
  0
VERTEX
  8
VISIBLE
  5
2310
 10
1798.48
 20
1221.44
 30
0.000000
  70
    32
  0
VERTEX
  8
VISIBLE
  5
2311
 10
1798.48
 20
1221.43
 30
0.000000
  70
    32
  0
VERTEX
  8
VISIBLE
  5
2312
 10
1798.47
 20
1221.41
 30
0.000000
  70
    32
  0
VERTEX
  8
VISIBLE
  5
2313
 10
1798.47
 20
1221.40
 30
0.000000
  70
    32
  0
VERTEX
  8
VISIBLE
  5
2314
 10
1798.46
 20
1221.39
 30
0.000000
  70
    32
  0
VERTEX
  8
VISIBLE
  5
2315
 10
1798.45
 20
1221.37
 30
0.000000
  70
    32
  0
VERTEX
  8
VISIBLE
  5
2316
 10
1798.45
 20
1221.36
 30
0.000000
  70
    32
  0
VERTEX
  8
VISIBLE
  5
2317
 10
1798.44
 20
1221.34
 30
0.000000
  70
    32
  0
VERTEX
  8
VISIBLE
  5
2318
 10
1798.44
 20
1221.33
 30
0.000000
  70
    32
  0
VERTEX
  8
VISIBLE
  5
2319
 10
1798.43
 20
1221.32
 30
0.000000
  70
    32
  0
VERTEX
  8
VISIBLE
  5
231A
 10
1798.43
 20
1221.30
 30
0.000000
  70
    32
  0
VERTEX
  8
VISIBLE
  5
231B
 10
1798.42
 20
1221.29
 30
0.000000
  70
    32
  0
VERTEX
  8
VISIBLE
  5
231C
 10
1798.42
 20
1221.27
 30
0.000000
  70
    32
  0
VERTEX
  8
VISIBLE
  5
231D
 10
1798.41
 20
1221.26
 30
0.000000
  70
    32
  0
VERTEX
  8
VISIBLE
  5
231E
 10
1798.41
 20
1221.24
 30
0.000000
  70
    32
  0
VERTEX
  8
VISIBLE
  5
231F
 10
1798.40
 20
1221.23
 30
0.000000
  70
    32
  0
VERTEX
  8
VISIBLE
  5
2320
 10
1798.40
 20
1221.22
 30
0.000000
  70
    32
  0
VERTEX
  8
VISIBLE
  5
2321
 10
1798.39
 20
1221.20
 30
0.000000
  70
    32
  0
VERTEX
  8
VISIBLE
  5
2322
 10
1798.39
 20
1221.19
 30
0.000000
  70
    32
  0
VERTEX
  8
VISIBLE
  5
2323
 10
1798.38
 20
1221.17
 30
0.000000
  70
    32
  0
VERTEX
  8
VISIBLE
  5
2324
 10
1798.38
 20
1221.16
 30
0.000000
  70
    32
  0
VERTEX
  8
VISIBLE
  5
2325
 10
1798.38
 20
1221.14
 30
0.000000
  70
    32
  0
VERTEX
  8
VISIBLE
  5
2326
 10
1798.37
 20
1221.13
 30
0.000000
  70
    32
  0
VERTEX
  8
VISIBLE
  5
2327
 10
1798.37
 20
1221.11
 30
0.000000
  70
    32
  0
VERTEX
  8
VISIBLE
  5
2328
 10
1798.36
 20
1221.10
 30
0.000000
  70
    32
  0
VERTEX
  8
VISIBLE
  5
2329
 10
1798.36
 20
1221.08
 30
0.000000
  70
    32
  0
VERTEX
  8
VISIBLE
  5
232A
 10
1798.36
 20
1221.07
 30
0.000000
  70
    32
  0
VERTEX
  8
VISIBLE
  5
232B
 10
1798.35
 20
1221.06
 30
0.000000
  70
    32
  0
VERTEX
  8
VISIBLE
  5
232C
 10
1798.35
 20
1221.04
 30
0.000000
  70
    32
  0
VERTEX
  8
VISIBLE
  5
232D
 10
1798.35
 20
1221.03
 30
0.000000
  70
    32
  0
VERTEX
  8
VISIBLE
  5
232E
 10
1798.34
 20
1221.01
 30
0.000000
  70
    32
  0
VERTEX
  8
VISIBLE
  5
232F
 10
1798.34
 20
1221.00
 30
0.000000
  70
    32
  0
VERTEX
  8
VISIBLE
  5
2330
 10
1798.34
 20
1220.98
 30
0.000000
  70
    32
  0
VERTEX
  8
VISIBLE
  5
2331
 10
1798.33
 20
1220.97
 30
0.000000
  70
    32
  0
VERTEX
  8
VISIBLE
  5
2332
 10
1798.33
 20
1220.95
 30
0.000000
  70
    32
  0
VERTEX
  8
VISIBLE
  5
2333
 10
1798.33
 20
1220.94
 30
0.000000
  70
    32
  0
VERTEX
  8
VISIBLE
  5
2334
 10
1798.33
 20
1220.92
 30
0.000000
  70
    32
  0
VERTEX
  8
VISIBLE
  5
2335
 10
1798.32
 20
1220.91
 30
0.000000
  70
    32
  0
VERTEX
  8
VISIBLE
  5
2336
 10
1798.32
 20
1220.89
 30
0.000000
  70
    32
  0
VERTEX
  8
VISIBLE
  5
2337
 10
1798.32
 20
1220.88
 30
0.000000
  70
    32
  0
VERTEX
  8
VISIBLE
  5
2338
 10
1798.32
 20
1220.86
 30
0.000000
  70
    32
  0
VERTEX
  8
VISIBLE
  5
2339
 10
1798.31
 20
1220.85
 30
0.000000
  70
    32
  0
VERTEX
  8
VISIBLE
  5
233A
 10
1798.31
 20
1220.83
 30
0.000000
  70
    32
  0
VERTEX
  8
VISIBLE
  5
233B
 10
1798.31
 20
1220.82
 30
0.000000
  70
    32
  0
VERTEX
  8
VISIBLE
  5
233C
 10
1798.31
 20
1220.80
 30
0.000000
  70
    32
  0
VERTEX
  8
VISIBLE
  5
233D
 10
1798.31
 20
1220.79
 30
0.000000
  70
    32
  0
VERTEX
  8
VISIBLE
  5
233E
 10
1798.30
 20
1220.77
 30
0.000000
  70
    32
  0
VERTEX
  8
VISIBLE
  5
233F
 10
1798.30
 20
1220.76
 30
0.000000
  70
    32
  0
VERTEX
  8
VISIBLE
  5
2340
 10
1798.30
 20
1220.74
 30
0.000000
  70
    32
  0
VERTEX
  8
VISIBLE
  5
2341
 10
1798.30
 20
1220.73
 30
0.000000
  70
    32
  0
VERTEX
  8
VISIBLE
  5
2342
 10
1798.30
 20
1220.71
 30
0.000000
  70
    32
  0
VERTEX
  8
VISIBLE
  5
2343
 10
1798.30
 20
1220.70
 30
0.000000
  70
    32
  0
VERTEX
  8
VISIBLE
  5
2344
 10
1798.30
 20
1220.68
 30
0.000000
  70
    32
  0
VERTEX
  8
VISIBLE
  5
2345
 10
1798.30
 20
1220.67
 30
0.000000
  70
    32
  0
VERTEX
  8
VISIBLE
  5
2346
 10
1798.30
 20
1220.65
 30
0.000000
  70
    32
  0
VERTEX
  8
VISIBLE
  5
2347
 10
1798.30
 20
1220.64
 30
0.000000
  70
    32
  0
VERTEX
  8
VISIBLE
  5
2348
 10
1798.30
 20
1220.62
 30
0.000000
  70
    32
  0
VERTEX
  8
VISIBLE
  5
2349
 10
1798.29
 20
1220.61
 30
0.000000
  70
    32
  0
VERTEX
  8
VISIBLE
  5
234A
 10
1798.29
 20
1220.59
 30
0.000000
  70
    32
  0
VERTEX
  8
VISIBLE
  5
234B
 10
1798.29
 20
1220.57
 30
0.000000
  70
    32
  0
VERTEX
  8
VISIBLE
  5
234C
 10
1798.29
 20
1220.56
 30
0.000000
  70
    32
  0
SEQEND
  8
VISIBLE
  5
234D
  0
LINE
  5
87F
  8
VISIBLE
 10
1798.2944514311850526
 20
1220.5598393976779334
 30
0.0
 11
1798.2944514311850526
 21
1202.7098393976780244
 31
0.0
  0
LINE
  5
885
  8
VISIBLE
 10
1800.4444514311849161
 20
1222.7098393976780244
 30
0.0
 11
2333.144451431185189
 21
1222.7098393976780244
 31
0.0
  0
LINE
  5
886
  8
VISIBLE
 10
2335.2944514311848252
 20
1202.7098393976780244
 30
0.0
 11
1798.2944514311859621
 21
1202.7098393976780244
 31
0.0
  0
LINE
  5
895
  8
VISIBLE
 10
2328.9944514311841886
 20
163.3098393976779903
 30
0.0
 11
1804.5944514311840976
 21
163.3098393976779903
 31
0.0
  0
LINE
  5
8AF
  8
VISIBLE
 10
2096.1944514311430794
 20
1257.7098393976780244
 30
0.0
 11
2306.1444514311428975
 21
1257.7098393976780244
 31
0.0
  0
LINE
  5
8B0
  8
VISIBLE
 10
2096.1944514311430794
 20
1222.7098393976780244
 30
0.0
 11
2096.1944514311430794
 21
1257.7098393976780244
 31
0.0
  0
LINE
  5
8B3
  8
VISIBLE
 10
2308.0944514311418061
 20
1222.7098393976780244
 30
0.0
 11
2308.0944514311418061
 21
1257.7098393976780244
 31
0.0
  0
LINE
  5
8B4
  8
VISIBLE
 10
2308.0944514311408966
 20
1257.7098393976780244
 30
0.0
 11
2306.144451431141988
 21
1257.7098393976780244
 31
0.0
  0
LINE
  5
8CC
  8
VISIBLE
 10
1766.894451431177913
 20
508.8876113996371942
 30
0.0
 11
1766.894451431177913
 21
489.8376113996371828
 31
0.0
  0
LINE
  5
8CD
  8
VISIBLE
 10
1766.894451431177913
 20
508.8876113996371942
 30
0.0
 11
1800.8444514311779585
 21
508.8876113996371942
 31
0.0
  0
LINE
  5
8CE
  8
VISIBLE
 10
1766.894451431177913
 20
489.8376113996371828
 30
0.0
 11
1800.8444514311779585
 21
489.8376113996371828
 31
0.0
  0
LINE
  5
8CF
  8
VISIBLE
 10
1934.7944514311730018
 20
1231.3288992900029371
 30
0.0
 11
1934.7944514311730018
 21
1222.7098393976780244
 31
0.0
  0
LINE
  5
8D2
  8
VISIBLE
 10
1961.7944514311730018
 20
1222.7098393976780244
 30
0.0
 11
1961.7944514311730018
 21
1231.3288992900008907
 31
0.0
  0
LINE
  5
8DC
  8
VISIBLE
 10
1935.1944514311710464
 20
1231.5598393976779334
 30
0.0
 11
1961.3944514311710918
 21
1231.5598393976779334
 31
0.0
  0
LINE
  5
8DD
  8
VISIBLE
 10
1961.3944514311710918
 20
1231.5598393976779334
 30
0.0
 11
1961.7944514311709554
 21
1231.3288992900020276
 31
0.0
  0
LINE
  5
8DE
  8
VISIBLE
 10
1935.1944514311710464
 20
1231.5598393976779334
 30
0.0
 11
1934.7944514311709554
 21
1231.3288992900020276
 31
0.0
  0
LINE
  5
8DF
  8
VISIBLE
 10
1961.3944514311710918
 20
1246.9298393976780517
 30
0.0
 11
1961.3944514311710918
 21
1231.5598393976779334
 31
0.0
  0
LINE
  5
8E0
  8
VISIBLE
 10
1935.1944514311710464
 20
1246.9298393976780517
 30
0.0
 11
1935.1944514311710464
 21
1231.5598393976779334
 31
0.0
  0
LINE
  5
8E1
  8
VISIBLE
 10
1859.7944514311730018
 20
1231.3288992900029371
 30
0.0
 11
1859.7944514311730018
 21
1222.7098393976780244
 31
0.0
  0
LINE
  5
8E4
  8
VISIBLE
 10
1886.7944514311730018
 20
1222.7098393976780244
 30
0.0
 11
1886.7944514311730018
 21
1231.3288992900008907
 31
0.0
  0
LINE
  5
8EE
  8
VISIBLE
 10
1860.1944514311710464
 20
1231.5598393976779334
 30
0.0
 11
1886.3944514311710918
 21
1231.5598393976779334
 31
0.0
  0
LINE
  5
8EF
  8
VISIBLE
 10
1886.3944514311710918
 20
1231.5598393976779334
 30
0.0
 11
1886.7944514311709554
 21
1231.3288992900020276
 31
0.0
  0
LINE
  5
8F0
  8
VISIBLE
 10
1860.1944514311710464
 20
1231.5598393976779334
 30
0.0
 11
1859.7944514311709554
 21
1231.3288992900020276
 31
0.0
  0
LINE
  5
8F1
  8
VISIBLE
 10
1886.3944514311710918
 20
1246.9298393976780517
 30
0.0
 11
1886.3944514311710918
 21
1231.5598393976779334
 31
0.0
  0
LINE
  5
8F2
  8
VISIBLE
 10
1860.1944514311710464
 20
1246.9298393976780517
 30
0.0
 11
1860.1944514311710464
 21
1231.5598393976779334
 31
0.0
  0
LINE
  5
8F4
  8
VISIBLE
 10
1800.8444514311800049
 20
429.8098393976778766
 30
0.0
 11
1792.0253915388539099
 21
429.8098393976778766
 31
0.0
  0
LINE
  5
8F5
  8
VISIBLE
 10
1792.0253915388539099
 20
402.8098393976779903
 30
0.0
 11
1800.8444514311800049
 21
402.8098393976778766
 31
0.0
  0
LINE
  5
8FF
  8
VISIBLE
 10
1766.794451431178004
 20
404.2704995694576837
 30
0.0
 11
1766.794451431178004
 21
428.3491792258981263
 31
0.0
  0
LINE
  5
902
  8
VISIBLE
 10
1791.794451431178004
 20
403.2098393976779107
 30
0.0
 11
1791.794451431178004
 21
429.4098393976778993
 31
0.0
  0
LINE
  5
903
  8
VISIBLE
 10
1766.794451431178004
 20
428.3491792258981263
 30
0.0
 11
1767.8551116029580044
 21
429.4098393976778993
 31
0.0
  0
LINE
  5
904
  8
VISIBLE
 10
1766.794451431178004
 20
404.2704995694576837
 30
0.0
 11
1767.8551116029580044
 21
403.2098393976779107
 31
0.0
  0
LINE
  5
905
  8
VISIBLE
 10
1791.794451431178004
 20
429.4098393976778993
 30
0.0
 11
1792.0253915388539099
 21
429.8098393976778766
 31
0.0
  0
LINE
  5
906
  8
VISIBLE
 10
1791.794451431178004
 20
403.2098393976779107
 30
0.0
 11
1792.0253915388539099
 21
402.8098393976778766
 31
0.0
  0
LINE
  5
907
  8
VISIBLE
 10
1767.8551116029580044
 20
429.4098393976778993
 30
0.0
 11
1791.794451431178004
 21
429.4098393976778993
 31
0.0
  0
LINE
  5
908
  8
VISIBLE
 10
1767.8551116029580044
 20
403.2098393976779107
 30
0.0
 11
1791.794451431178004
 21
403.2098393976779107
 31
0.0
  0
LINE
  5
90A
  8
VISIBLE
 10
1800.8444514311800049
 20
354.8098393976779903
 30
0.0
 11
1792.0253915388539099
 21
354.8098393976779903
 31
0.0
  0
LINE
  5
90B
  8
VISIBLE
 10
1792.0253915388539099
 20
327.8098393976779903
 30
0.0
 11
1800.8444514311800049
 21
327.8098393976779903
 31
0.0
  0
LINE
  5
915
  8
VISIBLE
 10
1766.794451431178004
 20
329.2704995694577974
 30
0.0
 11
1766.794451431178004
 21
353.3491792258981263
 31
0.0
  0
LINE
  5
918
  8
VISIBLE
 10
1791.794451431178004
 20
328.2098393976780244
 30
0.0
 11
1791.794451431178004
 21
354.409839397678013
 31
0.0
  0
LINE
  5
919
  8
VISIBLE
 10
1766.794451431178004
 20
353.3491792258981263
 30
0.0
 11
1767.8551116029580044
 21
354.409839397678013
 31
0.0
  0
LINE
  5
91A
  8
VISIBLE
 10
1766.794451431178004
 20
329.2704995694577974
 30
0.0
 11
1767.8551116029580044
 21
328.2098393976780244
 31
0.0
  0
LINE
  5
91B
  8
VISIBLE
 10
1791.794451431178004
 20
354.409839397678013
 30
0.0
 11
1792.0253915388539099
 21
354.8098393976779903
 31
0.0
  0
LINE
  5
91C
  8
VISIBLE
 10
1791.794451431178004
 20
328.2098393976779107
 30
0.0
 11
1792.0253915388539099
 21
327.8098393976779903
 31
0.0
  0
LINE
  5
91D
  8
VISIBLE
 10
1767.8551116029580044
 20
354.409839397678013
 30
0.0
 11
1791.794451431178004
 21
354.409839397678013
 31
0.0
  0
LINE
  5
91E
  8
VISIBLE
 10
1767.8551116029580044
 20
328.2098393976779107
 30
0.0
 11
1791.794451431178004
 21
328.2098393976779107
 31
0.0
  0
LINE
  5
9F9
  8
VISIBLE
 10
1965.2649595068598956
 20
1248.09066355320806
 30
0.0
 11
1965.2649595068598956
 21
1248.0798393976779153
 31
0.0
  0
LINE
  5
9FA
  8
VISIBLE
 10
1965.2649595068598956
 20
1259.7798393976779607
 30
0.0
 11
1965.2649595068598956
 21
1259.7690152421480434
 31
0.0
  0
LINE
  5
A0E
  8
VISIBLE
 10
1931.3239433554820152
 20
1248.0798393976779153
 30
0.0
 11
1931.3239433554829247
 21
1248.09066355320806
 31
0.0
  0
LINE
  5
A0F
  8
VISIBLE
 10
1931.3239433554829247
 20
1259.7690152421480434
 30
0.0
 11
1931.3239433554820152
 21
1259.7798393976779607
 31
0.0
  0
LINE
  5
A11
  8
VISIBLE
 10
1964.114959506860032
 20
1260.9298393976780517
 30
0.0
 11
1965.2649595068598956
 21
1259.7798393976779607
 31
0.0
  0
LINE
  5
A12
  8
VISIBLE
 10
1932.4739433554821062
 20
1260.9298393976780517
 30
0.0
 11
1931.3239433554820152
 21
1259.7798393976779607
 31
0.0
  0
LINE
  5
A13
  8
VISIBLE
 10
1964.114959506860032
 20
1246.9298393976780517
 30
0.0
 11
1965.2649595068598956
 21
1248.0798393976779153
 31
0.0
  0
LINE
  5
A14
  8
VISIBLE
 10
1932.4739433554821062
 20
1246.9298393976780517
 30
0.0
 11
1931.3239433554820152
 21
1248.0798393976779153
 31
0.0
  0
LINE
  5
A17
  8
VISIBLE
 10
1932.4739433554821062
 20
1246.9298393976780517
 30
0.0
 11
1964.114959506860032
 21
1246.9298393976780517
 31
0.0
  0
LINE
  5
A19
  8
VISIBLE
 10
1964.114959506860032
 20
1260.9298393976780517
 30
0.0
 11
1932.4739433554821062
 21
1260.9298393976780517
 31
0.0
  0
LINE
  5
A1B
  8
VISIBLE
 10
1965.2649595068598956
 20
1259.7690152421480434
 30
0.0
 11
1965.2649595068598956
 21
1248.09066355320806
 31
0.0
  0
LINE
  5
A20
  8
VISIBLE
 10
1931.3239433554820152
 20
1248.09066355320806
 30
0.0
 11
1931.3239433554820152
 21
1259.7690152421480434
 31
0.0
  0
LINE
  5
A25
  8
VISIBLE
 10
1890.2649595068598956
 20
1248.09066355320806
 30
0.0
 11
1890.2649595068598956
 21
1248.0798393976779153
 31
0.0
  0
LINE
  5
A26
  8
VISIBLE
 10
1890.2649595068598956
 20
1259.7798393976779607
 30
0.0
 11
1890.2649595068598956
 21
1259.7690152421480434
 31
0.0
  0
LINE
  5
A3A
  8
VISIBLE
 10
1856.3239433554820152
 20
1248.0798393976779153
 30
0.0
 11
1856.3239433554820152
 21
1248.09066355320806
 31
0.0
  0
LINE
  5
A3B
  8
VISIBLE
 10
1856.3239433554829247
 20
1259.7690152421480434
 30
0.0
 11
1856.3239433554820152
 21
1259.7798393976779607
 31
0.0
  0
LINE
  5
A3D
  8
VISIBLE
 10
1889.114959506860032
 20
1260.9298393976780517
 30
0.0
 11
1890.2649595068598956
 21
1259.7798393976779607
 31
0.0
  0
LINE
  5
A3E
  8
VISIBLE
 10
1857.4739433554821062
 20
1260.9298393976780517
 30
0.0
 11
1856.3239433554820152
 21
1259.7798393976779607
 31
0.0
  0
LINE
  5
A3F
  8
VISIBLE
 10
1889.114959506860032
 20
1246.9298393976780517
 30
0.0
 11
1890.2649595068598956
 21
1248.0798393976779153
 31
0.0
  0
LINE
  5
A40
  8
VISIBLE
 10
1857.4739433554821062
 20
1246.9298393976780517
 30
0.0
 11
1856.3239433554820152
 21
1248.0798393976779153
 31
0.0
  0
LINE
  5
A43
  8
VISIBLE
 10
1857.4739433554821062
 20
1246.9298393976780517
 30
0.0
 11
1889.114959506860032
 21
1246.9298393976780517
 31
0.0
  0
LINE
  5
A45
  8
VISIBLE
 10
1889.114959506860032
 20
1260.9298393976780517
 30
0.0
 11
1857.4739433554821062
 21
1260.9298393976780517
 31
0.0
  0
LINE
  5
A47
  8
VISIBLE
 10
1890.2649595068598956
 20
1259.7690152421480434
 30
0.0
 11
1890.2649595068598956
 21
1248.09066355320806
 31
0.0
  0
LINE
  5
A4C
  8
VISIBLE
 10
1856.3239433554820152
 20
1248.09066355320806
 30
0.0
 11
1856.3239433554820152
 21
1259.7690152421480434
 31
0.0
  0
INSERT
  5
16E4
  8
0
  2
*U35
 10
0.0
 20
0.0
 30
0.0
1001
ACAD
1000
DSTYLE
1002
{
1070
    77
1070
     0
1002
}
  0
INSERT
  5
16E6
  8
0
  2
*U36
 10
0.0
 20
0.0
 30
0.0
1001
ACAD
1000
DSTYLE
1002
{
1070
    77
1070
     0
1002
}
  0
INSERT
  5
16E8
  8
0
  2
*U37
 10
0.0
 20
0.0
 30
0.0
1001
ACAD
1000
DSTYLE
1002
{
1070
    77
1070
     0
1002
}
  0
INSERT
  5
16EA
  8
0
  2
*U38
 10
0.0
 20
0.0
 30
0.0
1001
ACAD
1000
DSTYLE
1002
{
1070
    77
1070
     0
1002
}
  0
INSERT
  5
1BCC
  8
0
  2
*U39
 10
0.0
 20
0.0
 30
0.0
1001
ACAD
1000
DSTYLE
1002
{
1070
    77
1070
     0
1002
}
  0
INSERT
  5
1BCE
  8
0
  2
*U40
 10
0.0
 20
0.0
 30
0.0
1001
ACAD
1000
DSTYLE
1002
{
1070
    77
1070
     0
1002
}
  0
INSERT
  5
1BD0
  8
0
  2
*U41
 10
0.0
 20
0.0
 30
0.0
1001
ACAD
1000
DSTYLE
1002
{
1070
    77
1070
     0
1002
}
  0
INSERT
  5
1BD2
  8
0
  2
*U42
 10
0.0
 20
0.0
 30
0.0
1001
ACAD
1000
DSTYLE
1002
{
1070
    77
1070
     0
1002
}
  0
TEXT
  5
1C5C
  8
0
 62
     7
 10
2465.4958144420261306
 20
132.1439411481514128
 30
0.0
 40
28.620000000000001
  1
temperzone CWP 90RELSY-S1
  7
TITLE5
 72
     1
 11
2790.5372430134548267
 21
132.1439411481514128
 31
0.0
  0
TEXT
  5
1C5D
  8
0
 62
     7
 10
2856.4882735038440842
 20
-47.0230078035132522
 30
0.0
 40
21.5999999994599996
  1
CWP90RELSY-S1
 41
0.7992125984251958
  7
TITLE3
 72
     5
 11
3065.288273498622857
 21
-47.0230078035132522
 31
0.0
  0
TEXT
  5
1C5E
  8
0
 62
     7
 10
2431.2039096801217966
 20
84.4004083999378025
 30
0.0
 40
28.0
  1
CLOSET WATER HEAT EXCHANGER
  7
TITLE5
 72
     1
 11
2790.5372430134548267
 21
84.4004083999378025
 31
0.0
  0
TEXT
  5
1C5F
  8
0
 62
     7
 10
2528.4500089213179308
 20
-18.2230078042335286
 30
0.0
 40
21.5999999994599996
  1
20-01-20
 41
0.6913580246913767
  7
TITLE3
 72
     5
 11
2643.6500089184410172
 21
-18.2230078042335286
 31
0.0
  0
TEXT
  5
1C60
  8
0
 62
     7
 10
2434.3434718537178014
 20
-17.6245338229809896
 30
0.0
 40
17.2799999999999905
  1
Date
  7
SIMPLEX
  0
TEXT
  5
1C61
  8
0
 62
     7
 10
3084.0883320745779201
 20
-4.1806303453977023
 30
0.0
 40
17.2799999999999905
  1
Revision
 41
0.7812095035934709
  7
SIMPLEX
 72
     5
 11
3159.9415428463507851
 21
-4.1806303453977023
 31
0.0
  0
LINE
  5
1C62
  8
0
 62
     7
 10
3075.7220455584988485
 20
-82.4164129514652473
 30
0.0
 11
3075.7220455584988485
 21
23.7304243078998489
 31
0.0
  0
LINE
  5
1C63
  8
0
 62
     7
 10
2416.8213747747308844
 20
174.1715966938816962
 30
0.0
 11
2416.8213747747308844
 21
-82.4164129514652473
 31
0.0
  0
LINE
  5
1C64
  8
0
 62
     7
 10
2847.0661217350129846
 20
-82.4164129514652473
 30
0.0
 11
2847.0661217350129846
 21
23.7304243078998489
 31
0.0
  0
LINE
  5
1C65
  8
0
 62
     7
 10
2847.0661217350129846
 20
-30.2379363282397797
 30
0.0
 11
2416.8213747747308844
 21
-30.2379363282397797
 31
0.0
  0
LINE
  5
1C66
  8
0
 62
     7
 10
3167.2226085368301938
 20
23.7304243078998489
 30
0.0
 11
2416.8213747747308844
 21
23.7304243078998489
 31
0.0
  0
LINE
  5
1C67
  8
0
 62
     7
 10
2416.8213747747308844
 20
-82.4164129514652473
 30
0.0
 11
3167.0084033684161113
 21
-82.4164129514652473
 31
0.0
  0
LINE
  5
1C68
  8
0
 62
     7
 10
3167.0084033684161113
 20
-82.4164129514652473
 30
0.0
 11
3167.0084033684161113
 21
174.1715966938816962
 31
0.0
  0
LINE
  5
1C69
  8
0
 62
     7
 10
3167.0084033684161113
 20
174.1715966938816962
 30
0.0
 11
2416.8213747747308844
 21
174.1715966938816962
 31
0.0
  0
TEXT
  5
1C6A
  8
0
 62
     7
 10
2434.9161913198217917
 20
-62.9188163951959893
 30
0.0
 40
14.4000000000000004
  1
Scale
 41
1.3701747965659921
  7
SIMPLEX
 72
     5
 11
2507.2614205785071135
 21
-62.9188163951959893
 31
0.0
  0
TEXT
  5
1C6B
  8
0
 62
     7
 10
2888.7868425581577867
 20
-4.619737117422658
 30
0.0
 40
14.4000000000000004
  1
Drawing No.
  7
SIMPLEX
 72
     2
 11
3014.2725568438731898
 21
-4.619737117422658
 31
0.0
  0
LINE
  5
1C6C
  8
0
 62
     7
 10
134.2841766161265866
 20
-101.1746565149505983
 30
0.0
 11
3192.858241114878183
 21
-101.1746565149505983
 31
0.0
  0
LINE
  5
1C6D
  8
0
 62
     7
 10
3192.858241114878183
 20
-101.1746565149505983
 30
0.0
 11
3192.2659671466299187
 21
2539.492483020023883
 31
0.0
  0
LINE
  5
1C6E
  8
0
 62
     7
 10
3192.2659671466299187
 20
2539.492483020023883
 30
0.0
 11
134.2789580534162042
 21
2538.8402881563220035
 31
0.0
  0
LINE
  5
1C6F
  8
0
 62
     7
 10
134.2789580534162042
 20
2538.8402881563220035
 30
0.0
 11
134.2841766161265866
 21
-101.1746565149505983
 31
0.0
  0
TEXT
  5
1C70
  8
0
 62
     7
 10
2545.7146162271337744
 20
-64.69039534846479
 30
0.0
 40
21.6000000000000014
  1
1:1
  7
TITLE3
  0
TEXT
  5
1C71
  8
0
 62
     7
 10
2576.5818032395682167
 20
268.2351726788722885
 30
0.0
 40
25.9200000000000017
  1
available on request
  7
TITLE3
  0
TEXT
  5
1C72
  8
0
 62
     7
 10
2576.5818032395682167
 20
312.6694583931575266
 30
0.0
 40
25.9200000000000017
  1
Certified dimensions
  7
TITLE3
  0
TEXT
  5
1C73
  8
0
 62
     7
 10
2576.5818032395682167
 20
357.1037441074429921
 30
0.0
 40
25.9200000000000017
  1
without notice or obligation.
  7
TITLE3
  0
TEXT
  5
1C74
  8
0
 62
     7
 10
2576.5818032395682167
 20
401.538029821729026
 30
0.0
 40
25.9200000000000017
  1
specifications at any time
  7
TITLE3
  0
TEXT
  5
1C75
  8
0
 62
     7
 10
2576.5818032395682167
 20
445.9723155360150031
 30
0.0
 40
25.9200000000000017
  1
the right to change 
  7
TITLE3
  0
TEXT
  5
1C76
  8
0
 62
     7
 10
2576.5818032395682167
 20
534.840886964585934
 30
0.0
 40
25.9200000000000017
  1
NOTE
  7
TITLE3
  0
TEXT
  5
1C77
  8
0
 62
     7
 10
2576.5818032395682167
 20
490.406601250300298
 30
0.0
 40
25.9200000000000017
  1
The manufacturer reserves
  7
TITLE3
  0
LINE
  5
1CCC
  8
VISIBLE
 10
791.106058739128116
 20
2413.5219115099462215
 30
0.0
 11
1028.1060587391280023
 21
2413.5219115099462215
 31
0.0
  0
LINE
  5
1CCD
  8
VISIBLE
 10
791.1060587391283434
 20
2201.5219115099448572
 30
0.0
 11
791.106058739128116
 21
2413.5219115099462215
 31
0.0
  0
LINE
  5
1CCE
  8
VISIBLE
 10
1028.1060587391280023
 20
2201.5219115099462215
 30
0.0
 11
1028.1060587391280023
 21
2413.5219115099462215
 31
0.0
  0
LINE
  5
1CCF
  8
VISIBLE
 10
791.1060587391283434
 20
2201.5219115099448572
 30
0.0
 11
1028.1060587391280023
 21
2201.5219115099462215
 31
0.0
  0
CIRCLE
  5
1CD0
  8
VISIBLE
 10
1124.0560587391280478
 20
2053.5219115099462215
 30
0.0
 40
16.0000000000001315
  0
CIRCLE
  5
1CD1
  8
VISIBLE
 10
1124.0560587391280478
 20
1978.5219115099459941
 30
0.0
 40
16.0000000000000711
  0
LINE
  5
1CD3
  8
0
 10
2344.5744514311859348
 20
1222.7098393976780244
 30
0.0
 11
2427.2515942883292155
 21
1222.7098393976780244
 31
0.0
  0
LINE
  5
1CD4
  8
0
 10
2319.5244514311430066
 20
1257.7098393976780244
 30
0.0
 11
2427.2515942883292155
 21
1257.7098393976780244
 31
0.0
  0
LINE
  5
1CD5
  8
0
 10
2404.5730228597572022
 20
1275.566982254820914
 30
0.0
 11
2404.5730228597572022
 21
1293.424125111964031
 31
0.0
  0
LINE
  5
1CD6
  8
0
 10
2404.5730228597572022
 20
1204.8526965405349074
 30
0.0
 11
2404.5730228597572022
 21
1183.7832391203580755
 31
0.0
  0
SOLID
  5
1CD7
  8
0
 10
2401.5968323835668343
 20
1275.566982254820914
 30
0.0
 11
2407.5492133359471154
 21
1275.566982254820914
 31
0.0
 12
2404.5730228597572022
 22
1257.7098393976780244
 32
0.0
 13
2404.5730228597572022
 23
1257.7098393976780244
 33
0.0
  0
SOLID
  5
1CD8
  8
0
 10
2401.5968323835668343
 20
1204.8526965405349074
 30
0.0
 11
2407.5492133359471154
 21
1204.8526965405349074
 31
0.0
 12
2404.5730228597572022
 22
1222.7098393976780244
 32
0.0
 13
2404.5730228597572022
 23
1222.7098393976780244
 33
0.0
  0
INSERT
  5
1CD9
  8
0
  2
*U45
 10
0.0
 20
0.0
 30
0.0
  0
LINE
  5
1CE5
  8
DIMENSION
 10
2335.2944514311861894
 20
1231.9898393976779971
 30
0.0
 11
2335.2944514311861894
 21
1350.716982254821005
 31
0.0
  0
LINE
  5
1CE6
  8
DIMENSION
 10
2308.0944514311418061
 20
1269.1398393976780881
 30
0.0
 11
2308.0944514311418061
 21
1350.716982254821005
 31
0.0
  0
LINE
  5
1CE7
  8
DIMENSION
 10
2290.2373085739991438
 20
1328.0384108262489917
 30
0.0
 11
2272.3801657168560268
 21
1328.0384108262489917
 31
0.0
  0
LINE
  5
1CE8
  8
DIMENSION
 10
2353.1515942883288517
 20
1328.0384108262489917
 30
0.0
 11
2374.0674251038699367
 21
1328.0384108262489917
 31
0.0
  0
SOLID
  5
1CE9
  8
DIMENSION
 10
2290.2373085739991438
 20
1331.0146013024400418
 30
0.0
 11
2290.2373085739991438
 21
1325.0622203500590786
 31
0.0
 12
2308.0944514311418061
 22
1328.0384108262489917
 32
0.0
 13
2308.0944514311418061
 23
1328.0384108262489917
 33
0.0
  0
SOLID
  5
1CEA
  8
DIMENSION
 10
2353.1515942883288517
 20
1331.0146013024400418
 30
0.0
 11
2353.1515942883288517
 21
1325.0622203500590786
 31
0.0
 12
2335.2944514311861894
 22
1328.0384108262489917
 32
0.0
 13
2335.2944514311861894
 23
1328.0384108262489917
 33
0.0
  0
INSERT
  5
1CEB
  8
0
  2
*U47
 10
0.0
 20
0.0
 30
0.0
  0
LINE
  5
1CEC
  8
DIMENSION
 10
2308.0944514311418061
 20
1269.1398393976780881
 30
0.0
 11
2308.0944514311418061
 21
1350.716982254821005
 31
0.0
  0
LINE
  5
1CED
  8
DIMENSION
 10
2096.1944514311421699
 20
1269.1398393976780881
 30
0.0
 11
2096.1944514311421699
 21
1350.716982254821005
 31
0.0
  0
LINE
  5
1CEE
  8
DIMENSION
 10
2290.2373085739991438
 20
1328.0384108262489917
 30
0.0
 11
2230.9393054549250337
 21
1328.0384108262489917
 31
0.0
  0
LINE
  5
1CEF
  8
DIMENSION
 10
2114.0515942882848321
 20
1328.0384108262489917
 30
0.0
 11
2173.3495974073598518
 21
1328.0384108262489917
 31
0.0
  0
SOLID
  5
1CF0
  8
DIMENSION
 10
2290.2373085739991438
 20
1331.0146013024400418
 30
0.0
 11
2290.2373085739991438
 21
1325.0622203500590786
 31
0.0
 12
2308.0944514311418061
 22
1328.0384108262489917
 32
0.0
 13
2308.0944514311418061
 23
1328.0384108262489917
 33
0.0
  0
SOLID
  5
1CF1
  8
DIMENSION
 10
2114.0515942882848321
 20
1331.0146013024400418
 30
0.0
 11
2114.0515942882848321
 21
1325.0622203500590786
 31
0.0
 12
2096.1944514311421699
 22
1328.0384108262489917
 32
0.0
 13
2096.1944514311421699
 23
1328.0384108262489917
 33
0.0
  0
INSERT
  5
1CF2
  8
0
  2
*U48
 10
0.0
 20
0.0
 30
0.0
  0
LINE
  5
1CF3
  8
DIMENSION
 10
1948.2944514311709554
 20
1267.9898393976779971
 30
0.0
 11
1948.2944514311709554
 21
1351.6169822548019965
 31
0.0
  0
LINE
  5
1CF4
  8
DIMENSION
 10
1798.2944514311850526
 20
1231.9898393976779971
 30
0.0
 11
1798.2944514311850526
 21
1351.6169822548019965
 31
0.0
  0
LINE
  5
1CF5
  8
DIMENSION
 10
1930.4373085740280658
 20
1328.9384108262308928
 30
0.0
 11
1901.2845946739639658
 21
1328.9384108262308928
 31
0.0
  0
LINE
  5
1CF6
  8
DIMENSION
 10
1816.1515942883279422
 20
1328.9384108262308928
 30
0.0
 11
1845.3043081883920422
 21
1328.9384108262308928
 31
0.0
  0
SOLID
  5
1CF7
  8
DIMENSION
 10
1930.4373085740280658
 20
1331.9146013024219428
 30
0.0
 11
1930.4373085740280658
 21
1325.9622203500409796
 31
0.0
 12
1948.2944514311709554
 22
1328.9384108262308928
 32
0.0
 13
1948.2944514311709554
 23
1328.9384108262308928
 33
0.0
  0
SOLID
  5
1CF8
  8
DIMENSION
 10
1816.1515942883279422
 20
1331.9146013024219428
 30
0.0
 11
1816.1515942883279422
 21
1325.9622203500409796
 31
0.0
 12
1798.2944514311850526
 22
1328.9384108262308928
 32
0.0
 13
1798.2944514311850526
 23
1328.9384108262308928
 33
0.0
  0
INSERT
  5
1CF9
  8
0
  2
*U49
 10
0.0
 20
0.0
 30
0.0
  0
LINE
  5
1CFA
  8
DIMENSION
 10
1798.2944514311850526
 20
1231.9898393976779971
 30
0.0
 11
1798.2944514311850526
 21
1314.6669822548210504
 31
0.0
  0
LINE
  5
1CFB
  8
DIMENSION
 10
1873.2944514311709554
 20
1267.9898393976779971
 30
0.0
 11
1873.2944514311709554
 21
1314.6669822548210504
 31
0.0
  0
LINE
  5
1CFC
  8
DIMENSION
 10
1855.4373085740280658
 20
1291.9884108262499467
 30
0.0
 11
1816.1515942883279422
 21
1291.9884108262499467
 31
0.0
  0
LINE
  5
1CFD
  8
DIMENSION
 10
1798.2944514311850526
 20
1291.9884108262499467
 30
0.0
 11
1777.2103628098529953
 21
1291.9884108262499467
 31
0.0
  0
SOLID
  5
1CFE
  8
DIMENSION
 10
1855.4373085740280658
 20
1294.9646013024400872
 30
0.0
 11
1855.4373085740280658
 21
1289.0122203500588967
 31
0.0
 12
1873.2944514311709554
 22
1291.9884108262499467
 32
0.0
 13
1873.2944514311709554
 23
1291.9884108262499467
 33
0.0
  0
SOLID
  5
1CFF
  8
DIMENSION
 10
1816.1515942883279422
 20
1294.9646013024400872
 30
0.0
 11
1816.1515942883279422
 21
1289.0122203500588967
 31
0.0
 12
1798.2944514311850526
 22
1291.9884108262499467
 32
0.0
 13
1798.2944514311850526
 23
1291.9884108262499467
 33
0.0
  0
INSERT
  5
1D00
  8
0
  2
*U50
 10
0.0
 20
0.0
 30
0.0
  0
TEXT
  5
1D02
  8
DIMENSION
 10
2184.8254621857190614
 20
1404.7161005872198984
 30
0.0
 40
20.0
  1
Air
  7
TITLE3
  0
TEXT
  5
1D04
  8
DIMENSION
 10
2171.1909038285880342
 20
1368.870017627119978
 30
0.0
 40
20.0
  1
Flow
  7
TITLE3
  0
TEXT
  5
1D05
  8
DIMENSION
 10
1691.2007258207020186
 20
785.3400408406216684
 30
0.0
 40
20.0
  1
Air
  7
TITLE3
  0
TEXT
  5
1D06
  8
DIMENSION
 10
1677.566167463571901
 20
749.493957880522089
 30
0.0
 40
20.0
  1
Flow
  7
TITLE3
  0
TEXT
  5
1D07
  8
DIMENSION
 10
1217.3839274877079788
 20
490.2783063707215092
 30
0.0
 40
20.0
  1
Drain Pipe
  7
TITLE3
  0
TEXT
  5
1D08
  8
DIMENSION
 10
1216.6809160159950807
 20
403.3495869945535901
 30
0.0
 40
20.0
  1
Water Out 3/4" BSP
  7
TITLE3
  0
TEXT
  5
1D09
  8
DIMENSION
 10
1216.6809160159950807
 20
328.9094953718607144
 30
0.0
 40
20.0
  1
Water In 3/4" BSP
  7
TITLE3
  0
TEXT
  5
1D0A
  8
DIMENSION
 10
1217.0301436855720567
 20
995.7719460159556775
 30
0.0
 40
20.0
  1
Auto reset t-stat
  7
TITLE3
  0
TEXT
  5
1D0B
  8
DIMENSION
 10
1217.0301436855720567
 20
962.4386126826223062
 30
0.0
 40
20.0
  1
Access
  7
TITLE3
  0
LINE
  5
1D0C
  8
DIMENSION
 10
1774.4144514311799412
 20
142.3098393976777061
 30
0.0
 11
1618.8808277330510919
 21
142.3098393976775924
 31
0.0
  0
LINE
  5
1D0D
  8
DIMENSION
 10
1755.4644514311789862
 20
499.3626113996373874
 30
0.0
 11
1618.8808277330510919
 21
499.3626113996373874
 31
0.0
  0
LINE
  5
1D0E
  8
DIMENSION
 10
1641.5593991616219682
 20
160.1669822548205104
 30
0.0
 11
1641.5593991616219682
 21
291.8365359033487039
 31
0.0
  0
LINE
  5
1D0F
  8
DIMENSION
 10
1641.5593991616219682
 20
481.5054685424946115
 30
0.0
 11
1641.5593991616219682
 21
349.8359148939666738
 31
0.0
  0
SOLID
  5
1D10
  8
DIMENSION
 10
1638.5832086854320551
 20
160.1669822548205104
 30
0.0
 11
1644.5355896378121088
 21
160.1669822548205104
 31
0.0
 12
1641.5593991616219682
 22
142.3098393976775924
 32
0.0
 13
1641.5593991616219682
 23
142.3098393976775924
 33
0.0
  0
SOLID
  5
1D11
  8
DIMENSION
 10
1638.5832086854320551
 20
481.5054685424946115
 30
0.0
 11
1644.5355896378121088
 21
481.5054685424946115
 31
0.0
 12
1641.5593991616219682
 22
499.3626113996373874
 32
0.0
 13
1641.5593991616219682
 23
499.3626113996373874
 33
0.0
  0
INSERT
  5
1D12
  8
0
  2
*U51
 10
0.0
 20
0.0
 30
0.0
  0
LINE
  5
1D13
  8
DIMENSION
 10
1774.4144514311799412
 20
142.3098393976777061
 30
0.0
 11
1674.8373085740349779
 21
142.3098393976775924
 31
0.0
  0
LINE
  5
1D14
  8
DIMENSION
 10
1755.3644514311790772
 20
416.309839397678104
 30
0.0
 11
1674.8373085740349779
 21
416.309839397678104
 31
0.0
  0
LINE
  5
1D15
  8
DIMENSION
 10
1697.5158800026069912
 20
160.1669822548205104
 30
0.0
 11
1697.5158800026069912
 21
250.2296788242697119
 31
0.0
  0
LINE
  5
1D16
  8
DIMENSION
 10
1697.5158800026069912
 20
398.452696540535328
 30
0.0
 11
1697.5158800026069912
 21
308.3899999710869793
 31
0.0
  0
SOLID
  5
1D17
  8
DIMENSION
 10
1694.539689526417078
 20
160.1669822548205104
 30
0.0
 11
1700.4920704787969044
 21
160.1669822548205104
 31
0.0
 12
1697.5158800026069912
 22
142.3098393976775924
 32
0.0
 13
1697.5158800026069912
 23
142.3098393976775924
 33
0.0
  0
SOLID
  5
1D18
  8
DIMENSION
 10
1694.539689526417078
 20
398.452696540535328
 30
0.0
 11
1700.4920704787969044
 21
398.452696540535328
 31
0.0
 12
1697.5158800026069912
 22
416.309839397678104
 32
0.0
 13
1697.5158800026069912
 23
416.309839397678104
 33
0.0
  0
INSERT
  5
1D19
  8
0
  2
*U52
 10
0.0
 20
0.0
 30
0.0
  0
LINE
  5
1D1A
  8
DIMENSION
 10
1774.4144514311799412
 20
142.3098393976777061
 30
0.0
 11
1713.5175713430219275
 21
142.3098393976775924
 31
0.0
  0
LINE
  5
1D1B
  8
DIMENSION
 10
1755.3644514311790772
 20
341.309839397678104
 30
0.0
 11
1713.5175713430219275
 21
341.309839397678104
 31
0.0
  0
LINE
  5
1D1C
  8
DIMENSION
 10
1736.1961427715930313
 20
160.1669822548205104
 30
0.0
 11
1736.1961427715930313
 21
213.8343272600016007
 31
0.0
  0
LINE
  5
1D1D
  8
DIMENSION
 10
1736.1961427715930313
 20
323.452696540535328
 30
0.0
 11
1736.1961427715930313
 21
269.7853515353551757
 31
0.0
  0
SOLID
  5
1D1E
  8
DIMENSION
 10
1733.2199522954028907
 20
160.1669822548205104
 30
0.0
 11
1739.1723332477840813
 21
160.1669822548205104
 31
0.0
 12
1736.1961427715930313
 22
142.3098393976777061
 32
0.0
 13
1736.1961427715930313
 23
142.3098393976777061
 33
0.0
  0
SOLID
  5
1D1F
  8
DIMENSION
 10
1733.2199522954028907
 20
323.452696540535328
 30
0.0
 11
1739.1723332477840813
 21
323.452696540535328
 31
0.0
 12
1736.1961427715930313
 22
341.309839397678104
 32
0.0
 13
1736.1961427715930313
 23
341.309839397678104
 33
0.0
  0
INSERT
  5
1D20
  8
0
  2
*U53
 10
0.0
 20
0.0
 30
0.0
  0
LINE
  5
1D21
  8
0
 10
1801.8444514311729563
 20
130.8798393976776993
 30
0.0
 11
1801.8444514311729563
 21
58.580905411475463
 31
0.0
  0
LINE
  5
1D22
  8
0
 10
2331.7444514311728199
 20
130.8798393976776993
 30
0.0
 11
2331.7444514311728199
 21
58.580905411475463
 31
0.0
  0
LINE
  5
1D23
  8
0
 10
1819.7015942883160733
 20
81.2594768400468865
 30
0.0
 11
1920.0283292531019015
 21
81.2594768400468865
 31
0.0
  0
LINE
  5
1D24
  8
0
 10
2313.8873085740310671
 20
81.2594768400468865
 30
0.0
 11
2214.7925361964880722
 21
81.2594768400468865
 31
0.0
  0
SOLID
  5
1D25
  8
0
 10
1819.7015942883160733
 20
84.2356673162373539
 30
0.0
 11
1819.7015942883160733
 21
78.2832863638564049
 31
0.0
 12
1801.8444514311729563
 22
81.2594768400468865
 32
0.0
 13
1801.8444514311729563
 23
81.2594768400468865
 33
0.0
  0
SOLID
  5
1D26
  8
0
 10
2313.8873085740310671
 20
84.2356673162373539
 30
0.0
 11
2313.8873085740310671
 21
78.2832863638564049
 31
0.0
 12
2331.7444514311728199
 22
81.2594768400468865
 32
0.0
 13
2331.7444514311728199
 23
81.2594768400468865
 33
0.0
  0
TEXT
  5
1D28
  8
DIMENSION
 10
1928.5706791960160444
 20
73.4611033679179286
 30
0.0
 40
20.0
  1
530 Mounting CTS
  7
TITLE3
  0
LINE
  5
1D8A
  8
DIMENSION
 10
686.6560587391298895
 20
130.8798393976784951
 30
0.0
 11
686.6560587391298895
 21
58.5809054114737293
 31
0.0
  0
LINE
  5
1D8B
  8
DIMENSION
 10
1131.5560587391280478
 20
130.8798393976776993
 30
0.0
 11
1131.5560587391280478
 21
58.5809054114737293
 31
0.0
  0
LINE
  5
1D8C
  8
DIMENSION
 10
704.5132015962727792
 20
81.259476840045167
 30
0.0
 11
755.6224835113462177
 21
81.259476840045167
 31
0.0
  0
LINE
  5
1D8D
  8
DIMENSION
 10
1113.6989158819849308
 20
81.259476840045167
 30
0.0
 11
1045.4083208441950319
 21
81.259476840045167
 31
0.0
  0
SOLID
  5
1D8E
  8
DIMENSION
 10
704.5132015962727792
 20
84.2356673162356344
 30
0.0
 11
704.5132015962727792
 21
78.2832863638546854
 31
0.0
 12
686.6560587391298895
 22
81.259476840045167
 32
0.0
 13
686.6560587391298895
 23
81.259476840045167
 33
0.0
  0
SOLID
  5
1D8F
  8
DIMENSION
 10
1113.6989158819849308
 20
84.2356673162356344
 30
0.0
 11
1113.6989158819849308
 21
78.2832863638546854
 31
0.0
 12
1131.5560587391280478
 22
81.259476840045167
 32
0.0
 13
1131.5560587391280478
 23
81.259476840045167
 33
0.0
  0
TEXT
  5
1D91
  8
DIMENSION
 10
760.5778908315445506
 20
73.4611033679162233
 30
0.0
 40
20.0
  1
445 Mounting CTS
  7
TITLE3
  0
TEXT
  5
1D92
  8
DIMENSION
 10
202.5135326859316081
 20
172.3895829571968932
 30
0.0
 40
20.0
  1
Electrical Cables
  7
TITLE3
  0
TEXT
  5
1D93
  8
DIMENSION
 10
375.3764179717293814
 20
136.5434999970973138
 30
0.0
 40
20.0
  1
Front
  7
TITLE3
  0
LINE
  5
1D94
  8
DIMENSION
 10
779.2260587391280069
 20
1257.7098393976780244
 30
0.0
 11
482.2632015962702212
 21
1257.7098393976780244
 31
0.0
  0
LINE
  5
1D95
  8
DIMENSION
 10
654.1528124366870998
 20
142.3098393976785871
 30
0.0
 11
482.2632015962703917
 21
142.3098393976785871
 31
0.0
  0
LINE
  5
1D96
  8
DIMENSION
 10
504.9417730248416092
 20
1239.8526965405349074
 30
0.0
 11
504.9417730248417797
 21
785.0656033992345328
 31
0.0
  0
LINE
  5
1D97
  8
DIMENSION
 10
504.9417730248418934
 20
160.1669822548215052
 30
0.0
 11
504.9417730248417797
 21
632.5303874308740433
 31
0.0
  0
SOLID
  5
1D98
  8
DIMENSION
 10
501.9655825486511844
 20
1239.8526965405349074
 30
0.0
 11
507.9179635010320908
 21
1239.8526965405349074
 31
0.0
 12
504.9417730248416092
 22
1257.7098393976780244
 32
0.0
 13
504.9417730248416092
 23
1257.7098393976780244
 33
0.0
  0
SOLID
  5
1D99
  8
DIMENSION
 10
501.9655825486514118
 20
160.1669822548215052
 30
0.0
 11
507.917963501032375
 21
160.1669822548215052
 31
0.0
 12
504.9417730248418934
 22
142.3098393976785871
 32
0.0
 13
504.9417730248418934
 23
142.3098393976785871
 33
0.0
  0
LINE
  5
1D9B
  8
DIMENSION
 10
644.1060587391282297
 20
1231.9898393976779971
 30
0.0
 11
644.1060587391282297
 21
1334.086533847399096
 31
0.0
  0
LINE
  5
1D9C
  8
DIMENSION
 10
790.6560587391273884
 20
1269.1398393976780881
 30
0.0
 11
790.6560587391273884
 21
1334.086533847399096
 31
0.0
  0
LINE
  5
1D9D
  8
DIMENSION
 10
661.9632015962711193
 20
1311.4079624188279922
 30
0.0
 11
684.3250753790008503
 21
1311.4079624188279922
 31
0.0
  0
LINE
  5
1D9E
  8
DIMENSION
 10
772.7989158819846125
 20
1311.4079624188279922
 30
0.0
 11
740.4370420992555637
 21
1311.4079624188279922
 31
0.0
  0
SOLID
  5
1D9F
  8
DIMENSION
 10
661.9632015962711193
 20
1314.3841528950190423
 30
0.0
 11
661.9632015962711193
 21
1308.4317719426380791
 31
0.0
 12
644.1060587391282297
 22
1311.4079624188279922
 32
0.0
 13
644.1060587391282297
 23
1311.4079624188279922
 33
0.0
  0
SOLID
  5
1DA0
  8
DIMENSION
 10
772.7989158819846125
 20
1314.3841528950190423
 30
0.0
 11
772.7989158819846125
 21
1308.4317719426380791
 31
0.0
 12
790.6560587391273884
 22
1311.4079624188279922
 32
0.0
 13
790.6560587391273884
 23
1311.4079624188279922
 33
0.0
  0
INSERT
  5
1DA1
  8
0
  2
*U62
 10
0.0
 20
0.0
 30
0.0
  0
LINE
  5
1DA2
  8
DIMENSION
 10
790.6560587391273884
 20
1269.1398393976780881
 30
0.0
 11
790.6560587391273884
 21
1334.086533847399096
 31
0.0
  0
LINE
  5
1DA3
  8
DIMENSION
 10
1027.5560587391280478
 20
1269.1398393976780881
 30
0.0
 11
1027.5560587391280478
 21
1334.086533847399096
 31
0.0
  0
LINE
  5
1DA4
  8
DIMENSION
 10
808.5132015962703917
 20
1311.4079624188279922
 30
0.0
 11
880.1941557245918375
 21
1311.4079624188279922
 31
0.0
  0
LINE
  5
1DA5
  8
DIMENSION
 10
1009.6989158819850445
 20
1311.4079624188279922
 30
0.0
 11
938.0179617536632577
 21
1311.4079624188279922
 31
0.0
  0
SOLID
  5
1DA6
  8
DIMENSION
 10
808.5132015962703917
 20
1314.3841528950179054
 30
0.0
 11
808.5132015962703917
 21
1308.4317719426369422
 31
0.0
 12
790.6560587391273884
 22
1311.4079624188279922
 32
0.0
 13
790.6560587391273884
 23
1311.4079624188279922
 33
0.0
  0
SOLID
  5
1DA7
  8
DIMENSION
 10
1009.6989158819850445
 20
1314.3841528950179054
 30
0.0
 11
1009.6989158819850445
 21
1308.4317719426369422
 31
0.0
 12
1027.5560587391280478
 22
1311.4079624188279922
 32
0.0
 13
1027.5560587391280478
 23
1311.4079624188279922
 33
0.0
  0
INSERT
  5
1DA8
  8
0
  2
*U63
 10
0.0
 20
0.0
 30
0.0
  0
LINE
  5
1DA9
  8
DIMENSION
 10
1174.1060587391280023
 20
1231.9898393976779971
 30
0.0
 11
1174.1060587391280023
 21
1334.086533847399096
 31
0.0
  0
LINE
  5
1DAA
  8
DIMENSION
 10
1124.0560587391280478
 20
1267.9898393976779971
 30
0.0
 11
1124.0560587391280478
 21
1334.086533847399096
 31
0.0
  0
LINE
  5
1DAB
  8
DIMENSION
 10
1106.1989158819849308
 20
1311.4079624188279922
 30
0.0
 11
1088.3417730248420412
 21
1311.4079624188279922
 31
0.0
  0
LINE
  5
1DAC
  8
DIMENSION
 10
1191.963201596270892
 20
1311.4079624188279922
 30
0.0
 11
1213.0546056742539349
 21
1311.4079624188279922
 31
0.0
  0
SOLID
  5
1DAD
  8
DIMENSION
 10
1106.1989158819849308
 20
1314.3841528950190423
 30
0.0
 11
1106.1989158819849308
 21
1308.4317719426380791
 31
0.0
 12
1124.0560587391280478
 22
1311.4079624188279922
 32
0.0
 13
1124.0560587391280478
 23
1311.4079624188279922
 33
0.0
  0
SOLID
  5
1DAE
  8
DIMENSION
 10
1191.963201596270892
 20
1314.3841528950190423
 30
0.0
 11
1191.963201596270892
 21
1308.4317719426380791
 31
0.0
 12
1174.1060587391280023
 22
1311.4079624188279922
 32
0.0
 13
1174.1060587391280023
 23
1311.4079624188279922
 33
0.0
  0
INSERT
  5
1DAF
  8
0
  2
*U64
 10
0.0
 20
0.0
 30
0.0
  0
LINE
  5
1DBA
  8
DIMENSION
 10
654.1528124366870998
 20
142.3098393976785871
 30
0.0
 11
542.5068040081152958
 21
142.3098393976785871
 31
0.0
  0
LINE
  5
1DBB
  8
DIMENSION
 10
634.8260587391283707
 20
1222.7098393976780244
 30
0.0
 11
542.5068040081149547
 21
1222.7098393976780244
 31
0.0
  0
LINE
  5
1DBC
  8
DIMENSION
 10
565.1853754366867406
 20
160.1669822548215052
 30
0.0
 11
565.1853754366866269
 21
646.3409082021743188
 31
0.0
  0
LINE
  5
1DBD
  8
DIMENSION
 10
565.1853754366863996
 20
1204.8526965405349074
 30
0.0
 11
565.1853754366866269
 21
729.4892910871784579
 31
0.0
  0
SOLID
  5
1DBE
  8
DIMENSION
 10
562.2091849604961453
 20
160.1669822548215052
 30
0.0
 11
568.1615659128772222
 21
160.1669822548215052
 31
0.0
 12
565.1853754366867406
 22
142.3098393976785871
 32
0.0
 13
565.1853754366867406
 23
142.3098393976785871
 33
0.0
  0
SOLID
  5
1DBF
  8
DIMENSION
 10
562.2091849604960316
 20
1204.8526965405349074
 30
0.0
 11
568.1615659128769948
 21
1204.8526965405349074
 31
0.0
 12
565.1853754366863996
 22
1222.7098393976780244
 32
0.0
 13
565.1853754366863996
 23
1222.7098393976780244
 33
0.0
  0
INSERT
  5
1DC0
  8
0
  2
*U66
 10
0.0
 20
0.0
 30
0.0
  0
TEXT
  5
1DC1
  8
DIMENSION
 10
513.4643856843449612
 20
634.9380457442191528
 30
0.0
 40
20.0
  1
1115 O/D
 50
89.9999999999999858
  7
TITLE3
  0
LINE
  5
1DD4
  8
0
 62
     7
 10
1714.4786406269090548
 20
672.2790344907617737
 30
0.0
 11
1745.9186406269070631
 21
703.7190344907628514
 31
0.0
  0
LINE
  5
1DD5
  8
0
 62
     7
 10
1714.4786406269090548
 20
735.159034490762906
 30
0.0
 11
1745.9186406269070631
 21
703.7190344907628514
 31
0.0
  0
LINE
  5
1DD6
  8
0
 62
     7
 10
1670.0786406269080544
 20
715.4790344907620465
 30
0.0
 11
1670.0786406269080544
 21
691.9590344907628605
 31
0.0
  0
LINE
  5
1DD7
  8
0
 62
     7
 10
1670.0786406269080544
 20
691.9590344907628605
 30
0.0
 11
1714.4786406269090548
 21
691.9590344907628605
 31
0.0
  0
LINE
  5
1DD8
  8
0
 62
     7
 10
1714.4786406269090548
 20
691.9590344907628605
 30
0.0
 11
1714.4786406269090548
 21
672.2790344907617737
 31
0.0
  0
LINE
  5
1DD9
  8
0
 62
     7
 10
1670.0786406269080544
 20
715.4790344907620465
 30
0.0
 11
1714.4786406269090548
 21
715.4790344907620465
 31
0.0
  0
LINE
  5
1DDA
  8
0
 62
     7
 10
1714.4786406269090548
 20
715.4790344907620465
 30
0.0
 11
1714.4786406269090548
 21
735.159034490762906
 31
0.0
  0
LINE
  5
1DDB
  8
0
 62
     7
 10
2298.1607191103730656
 20
1407.7791596418539939
 30
0.0
 11
2266.7207191103721016
 21
1439.2191596418520021
 31
0.0
  0
LINE
  5
1DDC
  8
0
 62
     7
 10
2235.280719110372047
 20
1407.7791596418539939
 30
0.0
 11
2266.7207191103721016
 21
1439.2191596418520021
 31
0.0
  0
LINE
  5
1DDD
  8
0
 62
     7
 10
2254.9607191103727928
 20
1363.3791596418539029
 30
0.0
 11
2278.4807191103718651
 21
1363.3791596418539029
 31
0.0
  0
LINE
  5
1DDE
  8
0
 62
     7
 10
2278.4807191103718651
 20
1363.3791596418539029
 30
0.0
 11
2278.4807191103718651
 21
1407.7791596418539939
 31
0.0
  0
LINE
  5
1DDF
  8
0
 62
     7
 10
2278.4807191103718651
 20
1407.7791596418539939
 30
0.0
 11
2298.1607191103730656
 21
1407.7791596418539939
 31
0.0
  0
LINE
  5
1DE0
  8
0
 62
     7
 10
2254.9607191103727928
 20
1363.3791596418539029
 30
0.0
 11
2254.9607191103727928
 21
1407.7791596418539939
 31
0.0
  0
LINE
  5
1DE1
  8
0
 62
     7
 10
2254.9607191103727928
 20
1407.7791596418539939
 30
0.0
 11
2235.280719110372047
 21
1407.7791596418539939
 31
0.0
  0
TEXT
  5
1DE9
  8
0
 62
     7
 10
1957.7424996037689198
 20
1109.7948261236119833
 30
0.0
 40
25.0
  1
CWP90RELSY-S1
 41
0.8629233299634432
  7
TITLE3
 72
     5
 11
2218.6740779498582015
 21
1109.7948261236119833
 31
0.0
  0
TEXT
  5
1DEB
  8
DIMENSION
 10
201.4932878516200105
 20
1930.3997258760339264
 30
0.0
 40
20.0
  1
Electrical Cables
  7
TITLE3
  0
TEXT
  5
1DEC
  8
DIMENSION
 10
398.2843850535955994
 20
1894.5536429159340059
 30
0.0
 40
20.0
  1
Top
  7
TITLE3
  0
TEXT
  5
1DEE
  8
0
 62
     7
 10
780.6510924731219347
 20
1109.7948261236119833
 30
0.0
 40
25.0
  1
CWP90RELSY-S1
 41
0.8629233299634432
  7
TITLE3
 72
     5
 11
1041.5826708192109891
 21
1109.7948261236119833
 31
0.0
  0
TEXT
  5
1DEF
  8
0
 62
     7
 10
780.6510924731219347
 20
2138.1148148373918048
 30
0.0
 40
25.0
  1
CWP90RELSY-S1
 41
0.8629233299634432
  7
TITLE3
 72
     5
 11
1041.5826708192109891
 21
2138.1148148373918048
 31
0.0
  0
LINE
  5
1DF0
  8
DIMENSION
 10
656.1528124366873271
 20
2460.650372478709869
 30
0.0
 11
499.8424208016900252
 21
2460.650372478709869
 31
0.0
  0
LINE
  5
1DF1
  8
DIMENSION
 10
1124.0867189109080755
 20
1872.0219115097070244
 30
0.0
 11
499.8424208016901957
 21
1872.0219115097070244
 31
0.0
  0
LINE
  5
1DF2
  8
DIMENSION
 10
522.5209922302615269
 20
2442.7932296215681163
 30
0.0
 11
522.5209922302615269
 21
2250.7462363682147952
 31
0.0
  0
LINE
  5
1DF3
  8
DIMENSION
 10
522.5209922302616405
 20
1889.879054366849914
 30
0.0
 11
522.5209922302616405
 21
2099.3838974534678528
 31
0.0
  0
SOLID
  5
1DF4
  8
DIMENSION
 10
519.5448017540710453
 20
2442.7932296215681163
 30
0.0
 11
525.4971827064520085
 21
2442.7932296215681163
 31
0.0
 12
522.5209922302615269
 22
2460.650372478709869
 32
0.0
 13
522.5209922302615269
 23
2460.650372478709869
 33
0.0
  0
SOLID
  5
1DF5
  8
DIMENSION
 10
519.5448017540710453
 20
1889.879054366849914
 30
0.0
 11
525.4971827064521221
 21
1889.879054366849914
 31
0.0
 12
522.5209922302616405
 22
1872.0219115097070244
 32
0.0
 13
522.5209922302616405
 23
1872.0219115097070244
 33
0.0
  0
LINE
  5
1DF7
  8
DIMENSION
 10
634.6392315374931741
 20
2440.521911509947131
 30
0.0
 11
551.9620886803494386
 21
2440.521911509947131
 31
0.0
  0
LINE
  5
1DF8
  8
DIMENSION
 10
634.6392315374929467
 20
1903.5219115099450846
 30
0.0
 11
551.9620886803495523
 21
1903.5219115099450846
 31
0.0
  0
LINE
  5
1DF9
  8
DIMENSION
 10
574.6406601089207697
 20
2422.664768652804014
 30
0.0
 11
574.6406601089207697
 21
2207.0725123527249707
 31
0.0
  0
LINE
  5
1DFA
  8
DIMENSION
 10
574.6406601089208834
 20
1921.3790543670879742
 30
0.0
 11
574.6406601089208834
 21
2137.0749197650711722
 31
0.0
  0
SOLID
  5
1DFB
  8
DIMENSION
 10
571.6644696327302881
 20
2422.664768652804014
 30
0.0
 11
577.616850585111365
 21
2422.664768652804014
 31
0.0
 12
574.6406601089207697
 22
2440.521911509947131
 32
0.0
 13
574.6406601089207697
 23
2440.521911509947131
 33
0.0
  0
SOLID
  5
1DFC
  8
DIMENSION
 10
571.6644696327305155
 20
1921.3790543670879742
 30
0.0
 11
577.616850585111365
 21
1921.3790543670879742
 31
0.0
 12
574.6406601089208834
 22
1903.5219115099450846
 32
0.0
 13
574.6406601089208834
 23
1903.5219115099450846
 33
0.0
  0
INSERT
  5
1DFD
  8
0
  2
*U67
 10
0.0
 20
0.0
 30
0.0
  0
TEXT
  5
1DFE
  8
DIMENSION
 10
1210.5483044268430604
 20
2046.4226793158591136
 30
0.0
 40
20.0
  1
Water Out 3/4" BSP
  7
TITLE3
  0
TEXT
  5
1DFF
  8
DIMENSION
 10
1211.0521188069940308
 20
1964.8727109635699435
 30
0.0
 40
20.0
  1
Water In 3/4" BSP
  7
TITLE3
  0
LINE
  5
1E00
  8
DIMENSION
 10
644.1060587391283434
 20
1894.0550843083090058
 30
0.0
 11
644.1060587391283434
 21
1811.3779414511659525
 31
0.0
  0
LINE
  5
1E01
  8
DIMENSION
 10
1174.1060587391280023
 20
1894.0550843083090058
 30
0.0
 11
1174.1060587391280023
 21
1811.3779414511659525
 31
0.0
  0
LINE
  5
1E02
  8
DIMENSION
 10
661.963201596271233
 20
1834.0565128797379657
 30
0.0
 11
849.0592028770923889
 21
1834.0565128797379657
 31
0.0
  0
LINE
  5
1E03
  8
DIMENSION
 10
1156.2489158819851127
 20
1834.0565128797379657
 30
0.0
 11
991.3108052554233609
 21
1834.0565128797379657
 31
0.0
  0
SOLID
  5
1E04
  8
DIMENSION
 10
661.963201596271233
 20
1837.0327033559281062
 30
0.0
 11
661.963201596271233
 21
1831.0803224035480525
 31
0.0
 12
644.1060587391283434
 22
1834.0565128797379657
 32
0.0
 13
644.1060587391283434
 23
1834.0565128797379657
 33
0.0
  0
SOLID
  5
1E05
  8
DIMENSION
 10
1156.2489158819851127
 20
1837.0327033559281062
 30
0.0
 11
1156.2489158819851127
 21
1831.0803224035480525
 31
0.0
 12
1174.1060587391280023
 22
1834.0565128797379657
 32
0.0
 13
1174.1060587391280023
 23
1834.0565128797379657
 33
0.0
  0
TEXT
  5
1E07
  8
DIMENSION
 10
852.9592328492692559
 20
1825.5339002202349548
 30
0.0
 40
20.0
  1
530 O/D
  7
TITLE3
  0
TEXT
  5
1E08
  8
DIMENSION
 10
531.0436048897648789
 20
2110.1893161043490181
 30
0.0
 40
20.0
  1
589 O/D
 50
89.9999999999999858
  7
TITLE3
  0
TEXT
  5
1E0A
  8
0
 62
     7
 10
2465.8705763467878569
 20
38.3617419708869392
 30
0.0
 40
28.0
  1
PACKAGE c/w ELECTRIC HEAT
  7
TITLE5
 72
     1
 11
2790.5372430134548267
 21
38.3617419708869392
 31
0.0
  0
TEXT
  5
1E41
  8
DIMENSION
 10
741.8194126394183741
 20
1422.2334035666440286
 30
0.0
 40
20.0
  1
500 MIN. CLEARANCE
  7
TITLE3
 72
     1
 11
903.7241745441804142
 21
1422.2334035666440286
 31
0.0
  0
LINE
  5
1E42
  8
CLEAR
 10
1174.1060587391280023
 20
1403.5219115099450846
 30
0.0
 11
644.1060587391285708
 21
1403.5219115099439477
 31
0.0
  0
LINE
  5
1E43
  8
CLEAR
 10
1174.1060587391280023
 20
1793.4748901588020544
 30
0.0
 11
1174.1060587391280023
 21
1403.5219115099450846
 31
0.0
  0
LINE
  5
1E44
  8
CLEAR
 10
644.1060587391289118
 20
1793.4748901588020544
 30
0.0
 11
644.1060587391285708
 21
1403.5219115099450846
 31
0.0
  0
ENDSEC
  0
EOF
