  0
SECTION
  2
HEADER
  9
$ACADVER
  1
AC1009
  9
$INSBASE
 10
0.0
 20
0.0
 30
0.0
  9
$EXTMIN
 10
1575.6826981712179077
 20
-148.4171116328924995
 30
-0.000000000000013
  9
$EXTMAX
 10
5835.1187292289905599
 20
3481.5912324609889765
 30
0.0000000000000023
  9
$LIMMIN
 10
0.0
 20
0.0
  9
$LIMMAX
 10
7780.0
 20
5320.0
  9
$ORTHOMODE
 70
     1
  9
$REGENMODE
 70
     1
  9
$FILLMODE
 70
     1
  9
$QTEXTMODE
 70
     0
  9
$MIRRTEXT
 70
     0
  9
$DRAGMODE
 70
     2
  9
$LTSCALE
 40
100.0
  9
$OSMODE
 70
  4095
  9
$ATTMODE
 70
     1
  9
$TEXTSIZE
 40
45.0
  9
$TRACEWID
 40
0.05
  9
$TEXTSTYLE
  7
TITLE3
  9
$CLAYER
  8
OUTLINE
  9
$CELTYPE
  6
BYLAYER
  9
$CECOLOR
 62
   256
  9
$DIMSCALE
 40
1.0
  9
$DIMASZ
 40
0.12
  9
$DIMEXO
 40
0.05
  9
$DIMDLI
 40
0.5
  9
$DIMRND
 40
0.0
  9
$DIMDLE
 40
0.0
  9
$DIMEXE
 40
0.1
  9
$DIMTP
 40
0.1
  9
$DIMTM
 40
0.1
  9
$DIMTXT
 40
0.12
  9
$DIMCEN
 40
0.0
  9
$DIMTSZ
 40
0.0
  9
$DIMTOL
 70
     0
  9
$DIMLIM
 70
     0
  9
$DIMTIH
 70
     1
  9
$DIMTOH
 70
     1
  9
$DIMSE1
 70
     0
  9
$DIMSE2
 70
     0
  9
$DIMTAD
 70
     0
  9
$DIMZIN
 70
     7
  9
$DIMBLK
  1

  9
$DIMASO
 70
     0
  9
$DIMSHO
 70
     0
  9
$DIMPOST
  1

  9
$DIMAPOST
  1
mm
  9
$DIMALT
 70
     0
  9
$DIMALTD
 70
     2
  9
$DIMALTF
 40
25.3999999999999986
  9
$DIMLFAC
 40
1.0
  9
$DIMTOFL
 70
     0
  9
$DIMTVP
 40
0.0
  9
$DIMTIX
 70
     0
  9
$DIMSOXD
 70
     0
  9
$DIMSAH
 70
     0
  9
$DIMBLK1
  1

  9
$DIMBLK2
  1

  9
$DIMSTYLE
  2
AM_ANSI
  9
$DIMCLRD
 70
   256
  9
$DIMCLRE
 70
   256
  9
$DIMCLRT
 70
     2
  9
$DIMTFAC
 40
0.71
  9
$DIMGAP
 40
0.06
  9
$LUNITS
 70
     2
  9
$LUPREC
 70
     2
  9
$SKETCHINC
 40
0.1
  9
$FILLETRAD
 40
0.0
  9
$AUNITS
 70
     0
  9
$AUPREC
 70
     2
  9
$MENU
  1
\acad12\support\cnc
  9
$ELEVATION
 40
0.0
  9
$PELEVATION
 40
0.0
  9
$THICKNESS
 40
0.0
  9
$LIMCHECK
 70
     0
  9
$BLIPMODE
 70
     0
  9
$CHAMFERA
 40
0.0
  9
$CHAMFERB
 40
0.0
  9
$SKPOLY
 70
     0
  9
$TDCREATE
 40
2451402.6391435191035271
  9
$TDUPDATE
 40
2458892.6169907408766448
  9
$TDINDWG
 40
0.6740747801
  9
$TDUSRTIMER
 40
0.674066713
  9
$USRTIMER
 70
     1
  9
$ANGBASE
 50
0.0
  9
$ANGDIR
 70
     0
  9
$PDMODE
 70
     2
  9
$PDSIZE
 40
15.0
  9
$PLINEWID
 40
0.0
  9
$COORDS
 70
     1
  9
$SPLFRAME
 70
     0
  9
$SPLINETYPE
 70
     6
  9
$SPLINESEGS
 70
     8
  9
$ATTDIA
 70
     1
  9
$ATTREQ
 70
     1
  9
$HANDLING
 70
     1
  9
$HANDSEED
  5
2B90
  9
$SURFTAB1
 70
     6
  9
$SURFTAB2
 70
     6
  9
$SURFTYPE
 70
     6
  9
$SURFU
 70
     6
  9
$SURFV
 70
     6
  9
$UCSNAME
  2

  9
$UCSORG
 10
0.0
 20
0.0
 30
0.0
  9
$UCSXDIR
 10
1.0
 20
0.0
 30
0.0
  9
$UCSYDIR
 10
0.0
 20
1.0
 30
0.0
  9
$PUCSNAME
  2

  9
$PUCSORG
 10
0.0
 20
0.0
 30
0.0
  9
$PUCSXDIR
 10
1.0
 20
0.0
 30
0.0
  9
$PUCSYDIR
 10
0.0
 20
1.0
 30
0.0
  9
$USERI1
 70
     0
  9
$USERI2
 70
     0
  9
$USERI3
 70
     0
  9
$USERI4
 70
     0
  9
$USERI5
 70
     0
  9
$USERR1
 40
0.0
  9
$USERR2
 40
0.0
  9
$USERR3
 40
0.0
  9
$USERR4
 40
0.0
  9
$USERR5
 40
0.0
  9
$WORLDVIEW
 70
     1
  9
$SHADEDGE
 70
     3
  9
$SHADEDIF
 70
    70
  9
$TILEMODE
 70
     1
  9
$MAXACTVP
 70
    16
  9
$PLIMCHECK
 70
     0
  9
$PEXTMIN
 10
1.0000000000000000E+20
 20
1.0000000000000000E+20
 30
1.0000000000000000E+20
  9
$PEXTMAX
 10
-1.0000000000000000E+20
 20
-1.0000000000000000E+20
 30
-1.0000000000000000E+20
  9
$PLIMMIN
 10
0.0
 20
0.0
  9
$PLIMMAX
 10
12.0
 20
9.0
  9
$UNITMODE
 70
     0
  9
$VISRETAIN
 70
     0
  9
$PLINEGEN
 70
     0
  9
$PSLTSCALE
 70
     0
  0
ENDSEC
  0
SECTION
  2
TABLES
  0
TABLE
  2
VPORT
 70
     1
  0
VPORT
  2
*ACTIVE
 70
     0
 10
0.0
 20
0.0
 11
1.0
 21
1.0
 12
3705.4007137001049159
 22
1666.5870604140479827
 13
0.0
 23
0.0
 14
50.0
 24
50.0
 15
100.0
 25
100.0
 16
0.0
 26
0.0
 36
1.0
 17
0.0
 27
0.0
 37
0.0
 40
3653.4277527654548976
 41
1.6264800861141011
 42
50.0
 43
0.0
 44
0.0
 50
0.0
 51
0.0
 71
     0
 72
   100
 73
     1
 74
     0
 75
     0
 76
     0
 77
     0
 78
     0
  0
ENDTAB
  0
TABLE
  2
LTYPE
 70
    21
  0
LTYPE
  2
CONTINUOUS
 70
     0
  3
Solid line
 72
    65
 73
     0
 40
0.0
  0
LTYPE
  2
PHANTOM2
 70
     0
  3
Phantom (.5x) ___ _ _ ___ _ _ ___ _ _ ___ _ _
 72
    65
 73
     6
 40
1.25
 49
0.625
 49
-0.125
 49
0.125
 49
-0.125
 49
0.125
 49
-0.125
  0
LTYPE
  2
PHANTOM
 70
     0
  3
______  __  __  ______  __  __  ______  __  __ 
 72
    65
 73
     6
 40
2.5
 49
1.25
 49
-0.25
 49
0.25
 49
-0.25
 49
0.25
 49
-0.25
  0
LTYPE
  2
HIDDEN
 70
     0
  3
Hidden __ __ __ __ __ __ __ __ __ __ __ __ __ _
 72
    65
 73
     2
 40
0.375
 49
0.25
 49
-0.125
  0
LTYPE
  2
CENTER
 70
     0
  3
Center ____ _ ____ _ ____ _ ____ _ ____ _ ____
 72
    65
 73
     4
 40
2.0
 49
1.25
 49
-0.25
 49
0.25
 49
-0.25
  0
LTYPE
  2
AM_ISO02W050
 70
     0
  3
__ __ __ __ __ __ __ __ __ __ __ __ __ __ __
 72
    65
 73
     2
 40
7.5
 49
6.0
 49
-1.5
  0
LTYPE
  2
AM_ISO08W050
 70
     0
  3
____ . ____ . ____ . ____ . ____ . ____ . ____
 72
    65
 73
     4
 40
18.0
 49
12.0
 49
-1.5
 49
3.0
 49
-1.5
  0
LTYPE
  2
AM_ISO09W050
 70
     0
  3
_____ . . _____ . . _____ . . ____ .. ____
 72
    65
 73
     6
 40
22.5
 49
12.0
 49
-1.5
 49
3.0
 49
-1.5
 49
3.0
 49
-1.5
  0
LTYPE
  2
AMCONSTR
 70
     0
  3
_______________________
 72
    65
 73
     2
 40
9999.0
 49
9999.0
 49
0.0
  0
LTYPE
  2
AM_ISO08W050X2
 70
     0
  3
__ . __ . __ . __ . __ . __
 72
    65
 73
     4
 40
9.0
 49
6.0
 49
-0.75
 49
1.5
 49
-0.75
  0
LTYPE
  2
AM_ISO02W050X2
 70
     0
  3
 _ _ _ _ _ _ _ _ _ _ _ _
 72
    65
 73
     2
 40
3.75
 49
3.0
 49
-0.75
  0
LTYPE
  2
AMZIGZAG
 70
     0
  3
/\/-/\/-/\/-/\/-/\/-/\/
 72
    65
 73
     2
 40
11.0000999999999998
 49
0.0001
 49
-11.0
  0
LTYPE
  2
CENTER2
 70
     0
  3
Center (.5x) ___ _ ___ _ ___ _ ___ _ ___ _ ___
 72
    65
 73
     4
 40
1.125
 49
0.75
 49
-0.125
 49
0.125
 49
-0.125
  0
LTYPE
  2
HIDDEN2
 70
     0
  3
Hidden (.5x) _ _ _ _ _ _ _ _ _ _ _ _ _ _ _ _ _
 72
    65
 73
     2
 40
0.1875
 49
0.125
 49
-0.0625
  0
LTYPE
  2
AMZIGZAG2
 70
     0
  3
/\/-/\/-/\/-/\/-/\/-/\/
 72
    65
 73
     2
 40
0.4401
 49
0.0001
 49
-0.4400000000000003
  0
LTYPE
  2
ACANSTGB
 70
     0
  3
__ . . __ . .
 72
    65
 73
     6
 40
0.35433070866
 49
0.15748031496
 49
-0.03937007874
 49
0.03937007874
 49
-0.03937007874
 49
0.03937007874
 49
-0.03937007874
  0
LTYPE
  2
ACANSTGL
 70
     0
  3
_ _ _ _ _
 72
    65
 73
     2
 40
0.11811023622
 49
0.07874015748
 49
-0.03937007874
  0
LTYPE
  2
DASHED
 70
     0
  3
Dashed __ __ __ __ __ __ __ __ __ __ __ __ __ _
 72
    65
 73
     2
 40
0.75
 49
0.5
 49
-0.25
  0
LTYPE
  2
DOT
 70
     0
  3
Dot . . . . . . . . . . . . . . . . . . . . . .
 72
    65
 73
     2
 40
0.25
 49
0.0
 49
-0.25
  0
ENDTAB
  0
TABLE
  2
LAYER
 70
    13
  0
LAYER
  2
0
 70
     0
 62
     7
  6
CONTINUOUS
  0
LAYER
  2
OUTLINE
 70
     0
 62
     7
  6
CONTINUOUS
  0
LAYER
  2
TEXT
 70
     0
 62
   100
  6
CONTINUOUS
  0
LAYER
  2
DIM
 70
     0
 62
     2
  6
CONTINUOUS
  0
LAYER
  2
MTG-FEET
 70
     0
 62
    30
  6
CONTINUOUS
  0
LAYER
  2
OVERLAY-A3
 70
     0
 62
     7
  6
CONTINUOUS
  0
LAYER
  2
CLEAR
 70
     0
 62
     1
  6
PHANTOM
  0
LAYER
  2
SKETCH_GEOMETRY__ANSI_
 70
     0
 62
     7
  6
CONTINUOUS
  0
LAYER
  2
DIMENSION
 70
     0
 62
     7
  6
CONTINUOUS
  0
LAYER
  2
SYMBOL
 70
     0
 62
     7
  6
CONTINUOUS
  0
LAYER
  2
VISIBLE
 70
     0
 62
     7
  6
CONTINUOUS
  0
LAYER
  2
DEFPOINTS
 70
     0
 62
     7
  6
CONTINUOUS
  0
LAYER
  2
AM_5
 70
     0
 62
     3
  6
CONTINUOUS
  0
ENDTAB
  0
TABLE
  2
STYLE
 70
    10
  0
STYLE
  2
STANDARD
 70
     0
 40
0.0
 41
1.0
 50
0.0
 71
     0
 42
0.2
  3
txt
  4

  0
STYLE
  2
ANNOTATIVE
 70
     0
 40
0.0
 41
1.0
 50
0.0
 71
     0
 42
0.2
  3
txt
  4

  0
STYLE
  2
TITLE3
 70
     0
 40
45.0
 41
1.0
 50
0.0
 71
     0
 42
45.0
  3
SIMPLEX
  4

  0
STYLE
  2
TITLE5
 70
     0
 40
75.0
 41
1.0
 50
0.0
 71
     0
 42
100.0
  3
SIMPLEX
  4

  0
STYLE
  2
SIMPLEX
 70
     0
 40
60.0
 41
1.0
 50
0.0
 71
     0
 42
60.0
  3
simplex
  4

  0
STYLE
  2

 70
     1
 40
0.0
 41
1.0
 50
0.0
 71
     0
 42
45.0
  3
genltshp.shx
  4

  0
STYLE
  2
ACANSTS
 70
     0
 40
1.0
 41
1.0
 50
0.0
 71
     0
 42
45.0
  3
romans.shx
  4

  0
STYLE
  2
ACANSGDT
 70
     0
 40
0.0
 41
1.0
 50
0.0
 71
     0
 42
45.0
  3
amgdt.shx
  4

  0
STYLE
  2
NOTE_TEXT
 70
     0
 40
0.0
 41
1.0
 50
0.0
 71
     0
 42
0.2
  3
txt
  4

  0
STYLE
  2
MTXPL_TAHOMA
 70
     0
 40
0.0
 41
1.0
 50
0.0
 71
     0
 42
45.0
  3
txt
  4

  0
ENDTAB
  0
TABLE
  2
VIEW
 70
     0
  0
ENDTAB
  0
TABLE
  2
UCS
 70
     0
  0
ENDTAB
  0
TABLE
  2
APPID
 70
    15
  0
APPID
  2
ACAD
 70
     0
  0
APPID
  2
ACADANNOTATIVE
 70
     0
  0
APPID
  2
ACAD_MLEADERVER
 70
     0
  0
APPID
  2
ACAD_PSEXT
 70
     0
  0
APPID
  2
MCAD_NO_VIS
 70
     0
  0
APPID
  2
ACAD_TEMP_GRAPHIC
 70
     0
  0
APPID
  2
AD_DRAW
 70
     0
  0
APPID
  2
ACATTRIBSERVICES
 70
     0
  0
APPID
  2
DESIGNERASSEMBLIES
 70
     0
  0
APPID
  2
ACADM_DIM_EDIT
 70
     0
  0
APPID
  2
AMDT_DM_ADJ
 70
     0
  0
APPID
  2
ACAD_EXEMPT_FROM_CAD_STANDARDS
 70
     0
  0
APPID
  2
ACAD_NAV_VCDISPLAY
 70
     0
  0
APPID
  2
ACAD_DSTYLE_DIMBREAK
 70
     0
  0
APPID
  2
ACAD_DSTYLE_DIMJAG
 70
     0
  0
ENDTAB
  0
TABLE
  2
DIMSTYLE
 70
    10
  0
DIMSTYLE
  2
STANDARD
 70
     0
  3

  4

  5

  6

  7

 40
1.0
 41
0.18
 42
0.0625
 43
0.38
 44
0.18
 45
0.0
 46
0.0
 47
0.0
 48
0.0
140
0.18
141
0.09
142
0.0
143
25.3999999999999986
144
1.0
145
0.0
146
1.0
147
0.09
 71
     0
 72
     0
 73
     1
 74
     1
 75
     0
 76
     0
 77
     0
 78
     0
170
     0
171
     2
172
     0
173
     0
174
     0
175
     0
176
     0
177
     0
178
     0
  0
DIMSTYLE
  2
ANNOTATIVE
 70
     0
  3

  4

  5

  6

  7

 40
1.0
 41
0.18
 42
0.0625
 43
0.38
 44
0.18
 45
0.0
 46
0.0
 47
0.0
 48
0.0
140
0.18
141
0.09
142
0.0
143
25.3999999999999986
144
1.0
145
0.0
146
1.0
147
0.09
 71
     0
 72
     0
 73
     1
 74
     1
 75
     0
 76
     0
 77
     0
 78
     0
170
     0
171
     2
172
     0
173
     0
174
     0
175
     0
176
     0
177
     0
178
     0
  0
DIMSTYLE
  2
AM_ANSI
 70
     0
  3

  4
mm
  5

  6

  7

 40
1.0
 41
0.12
 42
0.05
 43
0.5
 44
0.1
 45
0.0
 46
0.0
 47
0.1
 48
0.1
140
0.12
141
0.0
142
0.0
143
25.3999999999999986
144
1.0
145
0.0
146
0.71
147
0.06
 71
     0
 72
     0
 73
     1
 74
     1
 75
     0
 76
     0
 77
     0
 78
     7
170
     0
171
     2
172
     0
173
     0
174
     0
175
     0
176
   256
177
   256
178
     2
  0
DIMSTYLE
  2
AM_ANSI$3
 70
     0
  3

  4
mm
  5

  6

  7

 40
1.0
 41
0.12
 42
0.05
 43
0.5
 44
0.1
 45
0.0
 46
0.0
 47
0.1
 48
0.1
140
0.12
141
0.0
142
0.0
143
25.3999999999999986
144
1.0
145
0.0
146
0.71
147
0.06
 71
     0
 72
     0
 73
     1
 74
     1
 75
     0
 76
     0
 77
     0
 78
     7
170
     0
171
     2
172
     0
173
     0
174
     0
175
     0
176
   256
177
   256
178
     2
  0
DIMSTYLE
  2
AM_ANSI$4
 70
     0
  3

  4
mm
  5

  6

  7

 40
1.0
 41
0.12
 42
0.05
 43
0.5
 44
0.1
 45
0.0
 46
0.0
 47
0.1
 48
0.1
140
0.12
141
0.0
142
0.0
143
25.3999999999999986
144
1.0
145
0.0
146
0.71
147
0.06
 71
     0
 72
     0
 73
     1
 74
     1
 75
     0
 76
     0
 77
     0
 78
     7
170
     0
171
     2
172
     0
173
     0
174
     0
175
     0
176
   256
177
   256
178
     2
  0
DIMSTYLE
  2
AM_ANSI$7
 70
     0
  3

  4
mm
  5

  6

  7

 40
1.0
 41
0.12
 42
0.05
 43
0.5
 44
0.1
 45
0.0
 46
0.0
 47
0.1
 48
0.1
140
0.12
141
0.0
142
0.0
143
25.3999999999999986
144
1.0
145
0.0
146
0.71
147
0.06
 71
     0
 72
     0
 73
     1
 74
     1
 75
     0
 76
     0
 77
     0
 78
     7
170
     0
171
     2
172
     0
173
     0
174
     0
175
     0
176
   256
177
   256
178
     2
  0
DIMSTYLE
  2
AM_ANSI$SF
 70
     0
  3

  4
mm
  5

  6

  7

 40
1.0
 41
0.12
 42
0.05
 43
0.5
 44
0.1
 45
0.0
 46
0.0
 47
0.1
 48
0.1
140
0.12
141
0.0
142
0.0
143
25.3999999999999986
144
1.0
145
0.0
146
0.71
147
0.06
 71
     0
 72
     0
 73
     1
 74
     1
 75
     1
 76
     1
 77
     0
 78
     7
170
     0
171
     2
172
     0
173
     0
174
     0
175
     0
176
   256
177
   256
178
     2
  0
DIMSTYLE
  2
AM_ANSI$SH
 70
     0
  3

  4
mm
  5

  6

  7

 40
1.0
 41
0.12
 42
0.05
 43
0.5
 44
0.1
 45
0.0
 46
0.0
 47
0.1
 48
0.1
140
0.12
141
0.0
142
0.0
143
25.3999999999999986
144
1.0
145
0.0
146
0.71
147
0.06
 71
     0
 72
     0
 73
     1
 74
     1
 75
     1
 76
     1
 77
     0
 78
     7
170
     0
171
     2
172
     0
173
     1
174
     0
175
     0
176
   256
177
   256
178
     2
  0
DIMSTYLE
  2
DEFAULT
 70
     0
  3

  4

  5

  6

  7

 40
9.0909090909090917
 41
2.5
 42
1.600199999999999
 43
5.9999999999999991
 44
3.174999999999998
 45
0.00000001
 46
10.0
 47
0.0
 48
0.0
140
3.0500001907348619
141
0.09
142
0.0
143
1.0
144
1.0
145
0.0
146
0.9993442296981812
147
0.8
 71
     0
 72
     0
 73
     0
 74
     1
 75
     0
 76
     0
 77
     0
 78
     0
170
     0
171
     1
172
     0
173
     0
174
     0
175
     0
176
   256
177
   256
178
   256
  0
ENDTAB
  0
ENDSEC
  0
SECTION
  2
BLOCKS
  0
BLOCK
  8
0
  2
$MODEL_SPACE
 70
     0
 10
0.0
 20
0.0
 30
0.0
  3
$MODEL_SPACE
  1

  0
ENDBLK
  5
2A71
  8
0
  0
BLOCK
 67
     1
  8
0
  2
$PAPER_SPACE
 70
     0
 10
0.0
 20
0.0
 30
0.0
  3
$PAPER_SPACE
  1

  0
ENDBLK
  5
2A6D
 67
     1
  8
0
  0
BLOCK
  8
0
  2
LINES
 70
     0
 10
0.0
 20
0.0
 30
0.0
  3
LINES
  1

  0
ENDBLK
  5
F67
  8
0
  0
BLOCK
  8
0
  2
NEW_BLOCK
 70
     0
 10
0.0
 20
0.0
 30
0.0
  3
NEW_BLOCK
  1

  0
TEXT
  5
F6A
  8
TEXT
 10
27.2859468218030017
 20
25.2714217595241699
 30
0.0
 40
40.0
  1
available on request
  7
TITLE3
  0
TEXT
  5
F6B
  8
TEXT
 10
27.2859468218030017
 20
93.8428503309527144
 30
0.0
 40
40.0
  1
Certified dimensions
  7
TITLE3
  0
TEXT
  5
F6C
  8
TEXT
 10
27.2859468218030017
 20
162.4142789023811986
 30
0.0
 40
40.0
  1
without notice or obligation.
  7
TITLE3
  0
TEXT
  5
F6D
  8
TEXT
 10
27.2859468218030017
 20
230.9857074738096969
 30
0.0
 40
40.0
  1
specifications at any time
  7
TITLE3
  0
TEXT
  5
F6E
  8
TEXT
 10
27.2859468218030017
 20
299.5571360452383942
 30
0.0
 40
40.0
  1
the right to change 
  7
TITLE3
  0
TEXT
  5
F6F
  8
TEXT
 10
27.2859468218030017
 20
436.6999931880948793
 30
0.0
 40
40.0
  1
NOTE
  7
TITLE3
  0
TEXT
  5
F70
  8
TEXT
 10
27.2859468218030017
 20
368.1285646166667789
 30
0.0
 40
40.0
  1
The manufacturer reserves
  7
TITLE3
  0
ENDBLK
  5
F71
  8
0
  0
BLOCK
  8
0
  2
GENAXEH
 70
     0
 10
0.0
 20
0.0
 30
0.0
  3
GENAXEH
  1

  0
LINE
  5
11EC
  8
0
 10
-1.0
 20
0.0
 30
0.0
 11
1.0
 21
0.0
 31
0.0
  0
ENDBLK
  5
11EE
  8
0
  0
BLOCK
  8
0
  2
*U5
 70
     1
 10
0.0
 20
0.0
 30
0.0
  3
*U5
  1

  0
TEXT
  5
1550
  8
TEXT
 10
2626.7282533009820327
 20
705.9616187665197913
 30
0.0
 40
60.0
  1
OSA 175
  7
TITLE5
  0
TEXT
  5
1551
  8
TEXT
 10
2678.1568247295531364
 20
605.9616187665197913
 30
0.0
 40
60.0
  1
RKTHG
  7
TITLE5
  0
ENDBLK
  5
1553
  8
0
  0
BLOCK
  8
0
  2
*U6
 70
     1
 10
0.0
 20
0.0
 30
0.0
  3
*U6
  1

  0
TEXT
  5
1555
  8
TEXT
 10
2158.6995816958569776
 20
4047.9584319483901709
 30
0.0
 40
60.0
  1
OSA 175RKTHG
  7
TITLE5
  0
ENDBLK
  5
1557
  8
0
  0
BLOCK
  8
0
  2
*U7
 70
     1
 10
0.0
 20
0.0
 30
0.0
  3
*U7
  1

  0
TEXT
  5
1867
  8
OVERLAY-A3
 10
4236.5413026078322218
 20
4150.0630656892280967
 30
0.0
 40
45.0
  1
389
 50
90.0
  0
ENDBLK
  5
1869
  8
0
  0
BLOCK
  8
0
  2
*U8
 70
     1
 10
0.0
 20
0.0
 30
0.0
  3
*U8
  1

  0
TEXT
  5
186B
  8
OVERLAY-A3
 10
5609.6572296216972973
 20
4060.5630656892271872
 30
0.0
 40
45.0
  1
422 O/A
 50
90.0
  0
ENDBLK
  5
186D
  8
0
  0
BLOCK
  8
0
  2
*U9
 70
     1
 10
0.0
 20
0.0
 30
0.0
  3
*U9
  1

  0
TEXT
  5
186F
  8
OVERLAY-A3
 10
5363.7440490226281327
 20
4532.8929573842469836
 30
0.0
 40
45.0
  1
17
 50
90.0
  0
ENDBLK
  5
1871
  8
0
  0
BLOCK
  8
0
  2
*U10
 70
     1
 10
0.0
 20
0.0
 30
0.0
  3
*U10
  1

  0
TEXT
  5
1873
  8
OVERLAY-A3
 10
1820.6766810885631003
 20
597.6428250264956432
 30
0.0
 40
45.0
  1
1119 O/A
 50
90.0
  0
ENDBLK
  5
1875
  8
0
  0
BLOCK
  8
0
  2
*U11
 70
     1
 10
0.0
 20
0.0
 30
0.0
  3
*U11
  1

  0
TEXT
  5
1877
  8
OVERLAY-A3
 10
1967.8643715286330007
 20
100.7515184167496045
 30
0.0
 40
45.0
  1
180
  0
ENDBLK
  5
1879
  8
0
  0
BLOCK
  8
0
  2
*U12
 70
     1
 10
0.0
 20
0.0
 30
0.0
  3
*U12
  1

  0
TEXT
  5
187B
  8
OVERLAY-A3
 10
2316.7143715286329098
 20
100.7515184167496045
 30
0.0
 40
45.0
  1
765 CTRS
  0
ENDBLK
  5
187D
  8
0
  0
BLOCK
  8
0
  2
*U13
 70
     1
 10
0.0
 20
0.0
 30
0.0
  3
*U13
  1

  0
TEXT
  5
187F
  8
OVERLAY-A3
 10
2332.5143715286330917
 20
1354.8076330213950769
 30
0.0
 40
45.0
  1
1127 O/A
  0
ENDBLK
  5
1881
  8
0
  0
BLOCK
  8
0
  2
*U14
 70
     1
 10
0.0
 20
0.0
 30
0.0
  3
*U14
  1

  0
TEXT
  5
1883
  8
OVERLAY-A3
 10
3261.5784385225920232
 20
4035.0630656892280967
 30
0.0
 40
45.0
  1
375 CTRS
 50
90.0
  0
ENDBLK
  5
1885
  8
0
  0
BLOCK
  8
0
  2
*U15
 70
     1
 10
0.0
 20
0.0
 30
0.0
  3
*U15
  1

  0
TEXT
  5
1887
  8
OVERLAY-A3
 10
5545.0379560977771689
 20
3752.0630656892299157
 30
0.0
 40
45.0
  1
20.5
 50
90.0
  0
ENDBLK
  5
1889
  8
0
  0
BLOCK
  8
0
  2
AIR_FLOW_ARROW
 70
     0
 10
0.0
 20
0.0
 30
0.0
  3
AIR_FLOW_ARROW
  1

  0
INSERT
  5
257F
  8
OUTLINE
  6
CONTINUOUS
  2
*U17
 10
0.0
 20
0.0
 30
0.0
1001
ACAD
1002
{
1000
R14_HATCH_DATA
1000
257F
1011
1.0
1021
0.0
1031
0.0
1021
0.0
1031
0.0
1011
0.0
1021
0.0
1031
0.0
1021
1.0
1031
0.0
1011
0.0
1021
0.0
1031
0.0
1021
0.0
1031
1.0
1040
0.0
1010
0.0
1020
0.0
1030
1.0
1000
SOLID
1070
     1
1070
     0
1071
        1
1071
        1
1071
        3
1070
     1
1040
0.0
1040
-5.8677570360447362
1040
-1.171875
1040
1.163492963955262
1070
     1
1040
-1.171875
1040
1.163492963955262
1040
1.171875
1040
1.163492963955262
1070
     1
1040
1.171875
1040
1.163492963955262
1040
0.0
1040
-5.8677570360447362
1071
        0
1070
     0
1070
     1
1071
        1
1040
0.0
1040
0.0
1040
0.0
1002
}
  0
LINE
  5
2580
  8
SKETCH_GEOMETRY__ANSI_
 10
1.171875
 20
1.163492963955262
 30
0.0
 11
0.0
 21
-5.8677570360447362
 31
0.0
  0
LINE
  5
2581
  8
SKETCH_GEOMETRY__ANSI_
 10
0.0
 20
-5.8677570360447362
 30
0.0
 11
-1.171875
 21
1.163492963955262
 31
0.0
  0
LINE
  5
2582
  8
SKETCH_GEOMETRY__ANSI_
 10
-1.171875
 20
1.163492963955262
 30
0.0
 11
1.171875
 21
1.163492963955262
 31
0.0
  0
LINE
  5
2583
  8
OUTLINE
 10
0.0
 20
1.157503906667898
 30
0.0
 11
0.0
 21
5.8677570360447362
 31
0.0
  0
ENDBLK
  5
2584
  8
0
  0
BLOCK
  8
0
  2
*U17
 70
     1
 10
0.0
 20
0.0
 30
0.0
  3
*U17
  1

  0
SOLID
  5
29AA
  8
OUTLINE
  6
CONTINUOUS
 10
1.171875
 20
1.163492963955262
 30
0.0
 11
-1.171875
 21
1.163492963955262
 31
0.0
 12
0.0
 22
-5.8677570360447362
 32
0.0
 13
0.0
 23
-5.8677570360447362
 33
0.0
210
0.0
220
0.0
230
-1.0
  0
LINE
  5
29AB
  8
OUTLINE
  6
CONTINUOUS
 10
1.171875
 20
1.163492963955262
 30
0.0
 11
0.0
 21
-5.8677570360447362
 31
0.0
  0
LINE
  5
29AC
  8
OUTLINE
  6
CONTINUOUS
 10
0.0
 20
-5.8677570360447362
 30
0.0
 11
-1.171875
 21
1.163492963955262
 31
0.0
  0
ENDBLK
  5
29AE
  8
0
  0
BLOCK
  8
0
  2
*D18
 70
     1
 10
0.0
 20
0.0
 30
0.0
  3
*D18
  1

  0
LINE
  5
2587
  8
DIMENSION
 10
1448.5259928977720847
 20
2129.4205509495541264
 30
0.0
 11
1448.5259928977720847
 21
1924.1936604262130004
 31
0.0
  0
LINE
  5
2588
  8
DIMENSION
 10
1617.3759928977140135
 20
2038.3534036962319078
 30
0.0
 11
1617.3759928977140135
 21
1924.1936604262130004
 31
0.0
  0
LINE
  5
2589
  8
DIMENSION
 10
1471.25326562504506
 20
1953.0572967898490333
 30
0.0
 11
1497.3457956316080981
 21
1953.0572967898490333
 31
0.0
  0
LINE
  5
258A
  8
DIMENSION
 10
1594.6487201704410381
 20
1953.0572967898490333
 30
0.0
 11
1568.5561901638770905
 21
1953.0572967898490333
 31
0.0
  0
SOLID
  5
258B
  8
DIMENSION
 10
1471.25326562504506
 20
1956.8451755777280141
 30
0.0
 11
1471.25326562504506
 21
1949.2694180019700525
 31
0.0
 12
1448.5259928977720847
 22
1953.0572967898490333
 32
0.0
 13
1448.5259928977720847
 23
1953.0572967898490333
 33
0.0
  0
SOLID
  5
258C
  8
DIMENSION
 10
1594.6487201704410381
 20
1956.8451755777280141
 30
0.0
 11
1594.6487201704410381
 21
1949.2694180019700525
 31
0.0
 12
1617.3759928977140135
 22
1953.0572967898490333
 32
0.0
 13
1617.3759928977140135
 23
1953.0572967898490333
 33
0.0
  0
INSERT
  5
258D
  8
OUTLINE
  2
*U19
 10
0.0
 20
0.0
 30
0.0
  0
POINT
  5
258E
  8
DEFPOINTS
 62
     0
 10
1448.5259928977720847
 20
2143.9678236768268107
 30
0.0
  0
POINT
  5
258F
  8
DEFPOINTS
 62
     0
 10
1617.3759928977140135
 20
2052.9006764235041373
 30
0.0
  0
POINT
  5
2590
  8
DEFPOINTS
 62
     0
 10
1617.3759928977140135
 20
1953.0572967898490333
 30
0.0
  0
ENDBLK
  5
2591
  8
0
  0
BLOCK
  8
0
  2
*U19
 70
     1
 10
0.0
 20
0.0
 30
0.0
  3
*U19
  1

  0
TEXT
  5
29B1
  8
DIMENSION
 10
1500.4100850076019924
 20
1939.4822912686440759
 30
0.0
 40
27.7272744612260311
  1
169
  7
MTXPL_TAHOMA
  0
ENDBLK
  5
29B3
  8
0
  0
BLOCK
  8
0
  2
*D20
 70
     1
 10
0.0
 20
0.0
 30
0.0
  3
*D20
  1

  0
LINE
  5
2594
  8
DIMENSION
 10
2406.0759928977149684
 20
2038.3534036962319078
 30
0.0
 11
2406.0759928977149684
 21
1927.1557900598559172
 31
0.0
  0
LINE
  5
2595
  8
DIMENSION
 10
2574.9259928977721756
 20
2129.4205509495500337
 30
0.0
 11
2574.9259928977721756
 21
1927.1557900598559172
 31
0.0
  0
LINE
  5
2596
  8
DIMENSION
 10
2428.8032656249870342
 20
1956.019426423493087
 30
0.0
 11
2454.8957956316089621
 21
1956.019426423493087
 31
0.0
  0
LINE
  5
2597
  8
DIMENSION
 10
2552.1987201705001098
 20
1956.019426423493087
 30
0.0
 11
2526.1061901638768177
 21
1956.019426423493087
 31
0.0
  0
SOLID
  5
2598
  8
DIMENSION
 10
2428.8032656249870342
 20
1959.8073052113720678
 30
0.0
 11
2428.8032656249870342
 21
1952.2315476356141062
 31
0.0
 12
2406.0759928977149684
 22
1956.019426423493087
 32
0.0
 13
2406.0759928977149684
 23
1956.019426423493087
 33
0.0
  0
SOLID
  5
2599
  8
DIMENSION
 10
2552.1987201705001098
 20
1959.8073052113720678
 30
0.0
 11
2552.1987201705001098
 21
1952.2315476356141062
 31
0.0
 12
2574.9259928977721756
 22
1956.019426423493087
 32
0.0
 13
2574.9259928977721756
 23
1956.019426423493087
 33
0.0
  0
INSERT
  5
259A
  8
OUTLINE
  2
*U21
 10
0.0
 20
0.0
 30
0.0
  0
POINT
  5
259B
  8
DEFPOINTS
 62
     0
 10
2406.0759928977149684
 20
2052.9006764235041373
 30
0.0
  0
POINT
  5
259C
  8
DEFPOINTS
 62
     0
 10
2574.9259928977721756
 20
2143.9678236768231727
 30
0.0
  0
POINT
  5
259D
  8
DEFPOINTS
 62
     0
 10
2574.9259928977721756
 20
1956.019426423493087
 30
0.0
  0
ENDBLK
  5
259E
  8
0
  0
BLOCK
  8
0
  2
*U21
 70
     1
 10
0.0
 20
0.0
 30
0.0
  3
*U21
  1

  0
TEXT
  5
29B5
  8
DIMENSION
 10
2457.9600850076030838
 20
1942.4444209022890391
 30
0.0
 40
27.7272744612260311
  1
169
  7
MTXPL_TAHOMA
  0
ENDBLK
  5
29B7
  8
0
  0
BLOCK
  8
0
  2
*D22
 70
     1
 10
0.0
 20
0.0
 30
0.0
  3
*D22
  1

  0
LINE
  5
25A1
  8
DIMENSION
 10
2574.9259928977721756
 20
2129.4205509495500337
 30
0.0
 11
2574.9259928977721756
 21
1835.1041873131910052
 31
0.0
  0
LINE
  5
25A2
  8
DIMENSION
 10
1448.5259928977720847
 20
2129.4205509495541264
 30
0.0
 11
1448.5259928977720847
 21
1835.1041873131910052
 31
0.0
  0
LINE
  5
25A3
  8
DIMENSION
 10
2552.1987201705001098
 20
1863.9678236768270381
 30
0.0
 11
2096.7990281970419346
 21
1863.9678236768270381
 31
0.0
  0
LINE
  5
25A4
  8
DIMENSION
 10
1471.25326562504506
 20
1863.9678236768270381
 30
0.0
 11
1926.6529575985020983
 21
1863.9678236768270381
 31
0.0
  0
SOLID
  5
25A5
  8
DIMENSION
 10
2552.1987201705001098
 20
1867.7557024647060189
 30
0.0
 11
2552.1987201705001098
 21
1860.1799448889489668
 31
0.0
 12
2574.9259928977721756
 22
1863.9678236768270381
 32
0.0
 13
2574.9259928977721756
 23
1863.9678236768270381
 33
0.0
  0
SOLID
  5
25A6
  8
DIMENSION
 10
1471.25326562504506
 20
1867.7557024647060189
 30
0.0
 11
1471.25326562504506
 21
1860.1799448889489668
 31
0.0
 12
1448.5259928977720847
 22
1863.9678236768270381
 32
0.0
 13
1448.5259928977720847
 23
1863.9678236768270381
 33
0.0
  0
INSERT
  5
25A7
  8
OUTLINE
  2
*U23
 10
0.0
 20
0.0
 30
0.0
  0
POINT
  5
25A8
  8
DEFPOINTS
 62
     0
 10
2574.9259928977721756
 20
2143.9678236768231727
 30
0.0
  0
POINT
  5
25A9
  8
DEFPOINTS
 62
     0
 10
1448.5259928977720847
 20
2143.9678236768268107
 30
0.0
  0
POINT
  5
25AA
  8
DEFPOINTS
 62
     0
 10
1448.5259928977720847
 20
1863.9678236768270381
 30
0.0
  0
ENDBLK
  5
25AB
  8
0
  0
BLOCK
  8
0
  2
*U23
 70
     1
 10
0.0
 20
0.0
 30
0.0
  3
*U23
  1

  0
TEXT
  5
29B9
  8
DIMENSION
 10
1929.7172430982270726
 20
1853.120844215176021
 30
0.0
 40
27.7272999999999996
  1
1126 O/A
  7
MTXPL_TAHOMA
  0
ENDBLK
  5
29BB
  8
0
  0
BLOCK
  8
0
  2
*D24
 70
     1
 10
0.0
 20
0.0
 30
0.0
  3
*D24
  1

  0
LINE
  5
25AE
  8
DIMENSION
 10
1617.3759928977140135
 20
2038.3534036962319078
 30
0.0
 11
1617.3759928977140135
 21
1924.0370400598681044
 31
0.0
  0
LINE
  5
25AF
  8
DIMENSION
 10
2406.0759928977149684
 20
2038.3534036962319078
 30
0.0
 11
2406.0759928977149684
 21
1924.0370400598681044
 31
0.0
  0
LINE
  5
25B0
  8
DIMENSION
 10
1640.1032656249860793
 20
1952.90067642350391
 30
0.0
 11
1879.1031522978760222
 21
1952.90067642350391
 31
0.0
  0
LINE
  5
25B1
  8
DIMENSION
 10
2383.3487201704419931
 20
1952.90067642350391
 30
0.0
 11
2144.3488334975540965
 21
1952.90067642350391
 31
0.0
  0
SOLID
  5
25B2
  8
DIMENSION
 10
1640.1032656249860793
 20
1956.6885552113828908
 30
0.0
 11
1640.1032656249860793
 21
1949.112797635626066
 31
0.0
 12
1617.3759928977140135
 22
1952.90067642350391
 32
0.0
 13
1617.3759928977140135
 23
1952.90067642350391
 33
0.0
  0
SOLID
  5
25B3
  8
DIMENSION
 10
2383.3487201704419931
 20
1956.6885552113828908
 30
0.0
 11
2383.3487201704419931
 21
1949.112797635626066
 31
0.0
 12
2406.0759928977149684
 22
1952.90067642350391
 32
0.0
 13
2406.0759928977149684
 23
1952.90067642350391
 33
0.0
  0
INSERT
  5
25B4
  8
OUTLINE
  2
*U25
 10
0.0
 20
0.0
 30
0.0
  0
POINT
  5
25B5
  8
DEFPOINTS
 62
     0
 10
1617.3759928977140135
 20
2052.9006764235041373
 30
0.0
  0
POINT
  5
25B6
  8
DEFPOINTS
 62
     0
 10
2406.0759928977149684
 20
2052.9006764235041373
 30
0.0
  0
POINT
  5
25B7
  8
DEFPOINTS
 62
     0
 10
2406.0759928977149684
 20
1952.90067642350391
 30
0.0
  0
ENDBLK
  5
25B8
  8
0
  0
BLOCK
  8
0
  2
*U25
 70
     1
 10
0.0
 20
0.0
 30
0.0
  3
*U25
  1

  0
TEXT
  5
29BD
  8
DIMENSION
 10
1884.5323586169429291
 20
1939.3535905340040699
 30
0.0
 40
27.7272999999999996
  1
789 MTG CTRS
  7
MTXPL_TAHOMA
  0
ENDBLK
  5
29BF
  8
0
  0
BLOCK
  8
0
  2
*D26
 70
     1
 10
0.0
 20
0.0
 30
0.0
  3
*D26
  1

  0
LINE
  5
25BB
  8
DIMENSION
 10
3532.825229999144085
 20
138.8208757283317141
 30
0.0
 11
3532.825229999144085
 21
49.2790281823767629
 31
0.0
  0
LINE
  5
25BC
  8
DIMENSION
 10
3547.8752299991438122
 20
102.2708757283317027
 30
0.0
 11
3547.8752299991438122
 21
49.2790281823767629
 31
0.0
  0
LINE
  5
25BD
  8
DIMENSION
 10
3510.0979572718720192
 20
78.1426645460131226
 30
0.0
 11
3487.3706845445981344
 21
78.1426645460131226
 31
0.0
  0
LINE
  5
25BE
  8
DIMENSION
 10
3570.602502726415878
 20
78.1426645460131226
 30
0.0
 11
3608.9624460979789546
 21
78.1426645460131226
 31
0.0
  0
SOLID
  5
25BF
  8
DIMENSION
 10
3510.0979572718720192
 20
81.9305433338919045
 30
0.0
 11
3510.0979572718720192
 21
74.3547857581343408
 31
0.0
 12
3532.825229999144085
 22
78.1426645460131226
 32
0.0
 13
3532.825229999144085
 23
78.1426645460131226
 33
0.0
  0
SOLID
  5
25C0
  8
DIMENSION
 10
3570.602502726415878
 20
81.9305433338919045
 30
0.0
 11
3570.602502726415878
 21
74.3547857581343408
 31
0.0
 12
3547.8752299991438122
 22
78.1426645460131226
 32
0.0
 13
3547.8752299991438122
 23
78.1426645460131226
 33
0.0
  0
INSERT
  5
25C1
  8
OUTLINE
  2
*U27
 10
0.0
 20
0.0
 30
0.0
  0
POINT
  5
25C2
  8
DEFPOINTS
 62
     0
 10
3532.825229999144085
 20
153.3681484556043984
 30
0.0
  0
POINT
  5
25C3
  8
DEFPOINTS
 62
     0
 10
3547.8752299991438122
 20
116.8181484556044012
 30
0.0
  0
POINT
  5
25C4
  8
DEFPOINTS
 62
     0
 10
3547.8752299991438122
 20
78.1426645460131226
 30
0.0
  0
ENDBLK
  5
25C5
  8
0
  0
BLOCK
  8
0
  2
*U27
 70
     1
 10
0.0
 20
0.0
 30
0.0
  3
*U27
  1

  0
TEXT
  5
29C1
  8
DIMENSION
 10
3612.0267354739708026
 20
64.5676591180522337
 30
0.0
 40
27.7272744612260311
  1
15
  7
MTXPL_TAHOMA
  0
ENDBLK
  5
29C3
  8
0
  0
BLOCK
  8
0
  2
*D28
 70
     1
 10
0.0
 20
0.0
 30
0.0
  3
*D28
  1

  0
LINE
  5
25C8
  8
DIMENSION
 10
3140.8752299991501786
 20
138.820875728331913
 30
0.0
 11
3140.8752299991501786
 21
49.2790281823766776
 31
0.0
  0
LINE
  5
25C9
  8
DIMENSION
 10
3125.8752299991429027
 20
102.2708757283317027
 30
0.0
 11
3125.8752299991429027
 21
49.2790281823766776
 31
0.0
  0
LINE
  5
25CA
  8
DIMENSION
 10
3163.6025027264231539
 20
78.1426645460130374
 30
0.0
 11
3186.3297754536961293
 21
78.1426645460130374
 31
0.0
  0
LINE
  5
25CB
  8
DIMENSION
 10
3103.1479572718699274
 20
78.1426645460130374
 30
0.0
 11
3064.0152255304587925
 21
78.1426645460130374
 31
0.0
  0
SOLID
  5
25CC
  8
DIMENSION
 10
3163.6025027264231539
 20
81.9305433338918192
 30
0.0
 11
3163.6025027264231539
 21
74.3547857581342555
 31
0.0
 12
3140.8752299991501786
 22
78.1426645460130374
 32
0.0
 13
3140.8752299991501786
 23
78.1426645460130374
 33
0.0
  0
SOLID
  5
25CD
  8
DIMENSION
 10
3103.1479572718699274
 20
81.9305433338918192
 30
0.0
 11
3103.1479572718699274
 21
74.3547857581342555
 31
0.0
 12
3125.8752299991429027
 22
78.1426645460130374
 32
0.0
 13
3125.8752299991429027
 23
78.1426645460130374
 33
0.0
  0
INSERT
  5
25CE
  8
OUTLINE
  2
*U29
 10
0.0
 20
0.0
 30
0.0
  0
POINT
  5
25CF
  8
DEFPOINTS
 62
     0
 10
3140.8752299991501786
 20
153.3681484556045973
 30
0.0
  0
POINT
  5
25D0
  8
DEFPOINTS
 62
     0
 10
3125.8752299991429027
 20
116.8181484556044012
 30
0.0
  0
POINT
  5
25D1
  8
DEFPOINTS
 62
     0
 10
3125.8752299991429027
 20
78.1426645460130374
 30
0.0
  0
ENDBLK
  5
25D2
  8
0
  0
BLOCK
  8
0
  2
*U29
 70
     1
 10
0.0
 20
0.0
 30
0.0
  3
*U29
  1

  0
TEXT
  5
29C5
  8
DIMENSION
 10
3017.0975235579658147
 20
64.5676591180521484
 30
0.0
 40
27.7272744612260311
  1
15
  7
MTXPL_TAHOMA
  0
ENDBLK
  5
29C7
  8
0
  0
BLOCK
  8
0
  2
*D30
 70
     1
 10
0.0
 20
0.0
 30
0.0
  3
*D30
  1

  0
LINE
  5
25D5
  8
DIMENSION
 10
2620.6232656249881074
 20
2058.9006764235059563
 30
0.0
 11
2680.0994227422520453
 21
2058.9006764235059563
 31
0.0
  0
LINE
  5
25D6
  8
DIMENSION
 10
2620.6232656249881074
 20
2460.9006764235059563
 30
0.0
 11
2680.0994227422520453
 21
2460.9006764235059563
 31
0.0
  0
LINE
  5
25D7
  8
DIMENSION
 10
2651.2357863786151029
 20
2081.6279491507789317
 30
0.0
 11
2651.2357863786151029
 21
2183.5052241004091229
 31
0.0
  0
LINE
  5
25D8
  8
DIMENSION
 10
2651.2357863786151029
 20
2438.173403696232981
 30
0.0
 11
2651.2357863786151029
 21
2336.2961287466027898
 31
0.0
  0
SOLID
  5
25D9
  8
DIMENSION
 10
2647.4479075907361221
 20
2081.6279491507789317
 30
0.0
 11
2655.0236651664940837
 21
2081.6279491507789317
 31
0.0
 12
2651.2357863786151029
 22
2058.9006764235059563
 32
0.0
 13
2651.2357863786151029
 23
2058.9006764235059563
 33
0.0
  0
SOLID
  5
25DA
  8
DIMENSION
 10
2647.4479075907361221
 20
2438.173403696232981
 30
0.0
 11
2655.0236651664940837
 21
2438.173403696232981
 31
0.0
 12
2651.2357863786151029
 22
2460.9006764235059563
 32
0.0
 13
2651.2357863786151029
 23
2460.9006764235059563
 33
0.0
  0
INSERT
  5
25DB
  8
OUTLINE
  2
*U31
 10
0.0
 20
0.0
 30
0.0
  0
POINT
  5
25DC
  8
DEFPOINTS
 62
     0
 10
2606.0759928977158779
 20
2058.9006764235059563
 30
0.0
  0
POINT
  5
25DD
  8
DEFPOINTS
 62
     0
 10
2606.0759928977158779
 20
2460.9006764235059563
 30
0.0
  0
POINT
  5
25DE
  8
DEFPOINTS
 62
     0
 10
2651.2357863786151029
 20
2460.9006764235059563
 30
0.0
  0
ENDBLK
  5
25DF
  8
0
  0
BLOCK
  8
0
  2
*U31
 70
     1
 10
0.0
 20
0.0
 30
0.0
  3
*U31
  1

  0
TEXT
  5
29C9
  8
DIMENSION
 10
2662.0827657271711359
 20
2190.0330944221618665
 30
0.0
 40
27.7272999999999996
  1
402 O/A
 50
90.0
  7
MTXPL_TAHOMA
  0
ENDBLK
  5
29CB
  8
0
  0
BLOCK
  8
0
  2
*D32
 70
     1
 10
0.0
 20
0.0
 30
0.0
  3
*D32
  1

  0
LINE
  5
25E2
  8
DIMENSION
 10
3125.8752299991429027
 20
102.2708757283317027
 30
0.0
 11
3125.8752299991429027
 21
-2.954578817122822
 31
0.0
  0
LINE
  5
25E3
  8
DIMENSION
 10
3547.8752299991438122
 20
102.2708757283317027
 30
0.0
 11
3547.8752299991438122
 21
-2.954578817122822
 31
0.0
  0
LINE
  5
25E4
  8
DIMENSION
 10
3148.6025027264149685
 20
25.9090575465135409
 30
0.0
 11
3260.4797776760460692
 21
25.9090575465135409
 31
0.0
  0
LINE
  5
25E5
  8
DIMENSION
 10
3525.1479572718708368
 20
25.9090575465135409
 30
0.0
 11
3413.2706823222401908
 21
25.9090575465135409
 31
0.0
  0
SOLID
  5
25E6
  8
DIMENSION
 10
3148.6025027264149685
 20
29.6969363343923298
 30
0.0
 11
3148.6025027264149685
 21
22.1211787586347484
 31
0.0
 12
3125.8752299991429027
 22
25.9090575465135409
 32
0.0
 13
3125.8752299991429027
 23
25.9090575465135409
 33
0.0
  0
SOLID
  5
25E7
  8
DIMENSION
 10
3525.1479572718708368
 20
29.6969363343923298
 30
0.0
 11
3525.1479572718708368
 21
22.1211787586347484
 31
0.0
 12
3547.8752299991438122
 22
25.9090575465135409
 32
0.0
 13
3547.8752299991438122
 23
25.9090575465135409
 33
0.0
  0
INSERT
  5
25E8
  8
OUTLINE
  2
*U33
 10
0.0
 20
0.0
 30
0.0
  0
POINT
  5
25E9
  8
DEFPOINTS
 62
     0
 10
3125.8752299991429027
 20
116.8181484556044012
 30
0.0
  0
POINT
  5
25EA
  8
DEFPOINTS
 62
     0
 10
3547.8752299991438122
 20
116.8181484556044012
 30
0.0
  0
POINT
  5
25EB
  8
DEFPOINTS
 62
     0
 10
3547.8752299991438122
 20
25.9090575465135409
 30
0.0
  0
ENDBLK
  5
25EC
  8
0
  0
BLOCK
  8
0
  2
*U33
 70
     1
 10
0.0
 20
0.0
 30
0.0
  3
*U33
  1

  0
TEXT
  5
29CD
  8
DIMENSION
 10
3267.0076479978001771
 20
15.0620781979574598
 30
0.0
 40
27.7272999999999996
  1
422 O/A
  7
MTXPL_TAHOMA
  0
ENDBLK
  5
29CF
  8
0
  0
BLOCK
  8
0
  2
*D34
 70
     1
 10
0.0
 20
0.0
 30
0.0
  3
*D34
  1

  0
LINE
  5
2738
  8
DIMENSION
 10
6878.5876723392966596
 20
2421.8346594990680387
 30
0.0
 11
6878.5876723392966596
 21
2216.6077689757248663
 31
0.0
  0
LINE
  5
2739
  8
DIMENSION
 10
7047.4376723392369968
 20
2330.7675122457449106
 30
0.0
 11
7047.4376723392369968
 21
2216.6077689757248663
 31
0.0
  0
LINE
  5
273A
  8
DIMENSION
 10
6901.3149450665696349
 20
2245.4714053393618087
 30
0.0
 11
6927.4074748900738996
 21
2245.4714053393618087
 31
0.0
  0
LINE
  5
273B
  8
DIMENSION
 10
7024.710399611964931
 20
2245.4714053393618087
 30
0.0
 11
6998.6178697884597568
 21
2245.4714053393618087
 31
0.0
  0
SOLID
  5
273C
  8
DIMENSION
 10
6901.3149450665696349
 20
2249.2592841272407895
 30
0.0
 11
6901.3149450665696349
 21
2241.6835265514828279
 31
0.0
 12
6878.5876723392966596
 22
2245.4714053393618087
 32
0.0
 13
6878.5876723392966596
 23
2245.4714053393618087
 33
0.0
  0
SOLID
  5
273D
  8
DIMENSION
 10
7024.710399611964931
 20
2249.2592841272407895
 30
0.0
 11
7024.710399611964931
 21
2241.6835265514828279
 31
0.0
 12
7047.4376723392369968
 22
2245.4714053393618087
 32
0.0
 13
7047.4376723392369968
 23
2245.4714053393618087
 33
0.0
  0
INSERT
  5
273E
  8
OUTLINE
  2
*U35
 10
0.0
 20
0.0
 30
0.0
  0
POINT
  5
273F
  8
DEFPOINTS
 62
     0
 10
6878.5876723392966596
 20
2436.3819322263398135
 30
0.0
  0
POINT
  5
2740
  8
DEFPOINTS
 62
     0
 10
7047.4376723392369968
 20
2345.3147849730180496
 30
0.0
  0
POINT
  5
2741
  8
DEFPOINTS
 62
     0
 10
7047.4376723392369968
 20
2245.4714053393618087
 30
0.0
  0
ENDBLK
  5
26D2
  8
0
  0
BLOCK
  8
0
  2
*U35
 70
     1
 10
0.0
 20
0.0
 30
0.0
  3
*U35
  1

  0
TEXT
  5
29DF
  8
DIMENSION
 10
6930.4717642660680212
 20
2231.8963999114021135
 30
0.0
 40
27.7272744612260311
  1
169
  7
MTXPL_TAHOMA
  0
ENDBLK
  5
29E1
  8
0
  0
BLOCK
  8
0
  2
*D36
 70
     1
 10
0.0
 20
0.0
 30
0.0
  3
*D36
  1

  0
LINE
  5
2742
  8
DIMENSION
 10
7836.1376723392368149
 20
2330.7675122457449106
 30
0.0
 11
7836.1376723392368149
 21
2219.56989860936892
 31
0.0
  0
LINE
  5
2743
  8
DIMENSION
 10
8004.9876723392953863
 20
2421.834659499063946
 30
0.0
 11
8004.9876723392953863
 21
2219.56989860936892
 31
0.0
  0
LINE
  5
2744
  8
DIMENSION
 10
7858.8649450665097902
 20
2248.4335349730058624
 30
0.0
 11
7884.957474890073172
 21
2248.4335349730058624
 31
0.0
  0
LINE
  5
2745
  8
DIMENSION
 10
7982.260399612022411
 20
2248.4335349730058624
 30
0.0
 11
7956.1678697884563007
 21
2248.4335349730058624
 31
0.0
  0
SOLID
  5
2746
  8
DIMENSION
 10
7858.8649450665097902
 20
2252.2214137608848432
 30
0.0
 11
7858.8649450665097902
 21
2244.6456561851259721
 31
0.0
 12
7836.1376723392368149
 22
2248.4335349730058624
 32
0.0
 13
7836.1376723392368149
 23
2248.4335349730058624
 33
0.0
  0
SOLID
  5
2747
  8
DIMENSION
 10
7982.260399612022411
 20
2252.2214137608848432
 30
0.0
 11
7982.260399612022411
 21
2244.6456561851259721
 31
0.0
 12
8004.9876723392953863
 22
2248.4335349730058624
 32
0.0
 13
8004.9876723392953863
 23
2248.4335349730058624
 33
0.0
  0
INSERT
  5
2748
  8
OUTLINE
  2
*U37
 10
0.0
 20
0.0
 30
0.0
  0
POINT
  5
2749
  8
DEFPOINTS
 62
     0
 10
7836.1376723392368149
 20
2345.3147849730180496
 30
0.0
  0
POINT
  5
274A
  8
DEFPOINTS
 62
     0
 10
8004.9876723392953863
 20
2436.3819322263361755
 30
0.0
  0
POINT
  5
274B
  8
DEFPOINTS
 62
     0
 10
8004.9876723392953863
 20
2248.4335349730058624
 30
0.0
  0
ENDBLK
  5
26DF
  8
0
  0
BLOCK
  8
0
  2
*U37
 70
     1
 10
0.0
 20
0.0
 30
0.0
  3
*U37
  1

  0
TEXT
  5
29E3
  8
DIMENSION
 10
7888.0217642660709316
 20
2234.8585295450461672
 30
0.0
 40
27.7272744612260311
  1
169
  7
MTXPL_TAHOMA
  0
ENDBLK
  5
29E5
  8
0
  0
BLOCK
  8
0
  2
*D38
 70
     1
 10
0.0
 20
0.0
 30
0.0
  3
*D38
  1

  0
LINE
  5
27BB
  8
DIMENSION
 10
6878.5876723389019389
 20
1825.2403805661790557
 30
0.0
 11
6878.5876723389019389
 21
2119.5567442025380842
 31
0.0
  0
LINE
  5
27BC
  8
DIMENSION
 10
8004.9876723388997561
 20
1825.2403805661740535
 30
0.0
 11
8004.9876723388997561
 21
2119.5567442025380842
 31
0.0
  0
LINE
  5
27BD
  8
DIMENSION
 10
6901.3149450661740048
 20
2090.6931078389020513
 30
0.0
 11
7356.7146365369599152
 21
2090.6931078389020513
 31
0.0
  0
LINE
  5
27BE
  8
DIMENSION
 10
7982.2603996116285998
 20
2090.6931078389020513
 30
0.0
 11
7526.8607081408426893
 21
2090.6931078389020513
 31
0.0
  0
SOLID
  5
27BF
  8
DIMENSION
 10
6901.3149450661740048
 20
2094.4809866267810321
 30
0.0
 11
6901.3149450661740048
 21
2086.90522905102398
 31
0.0
 12
6878.5876723389019389
 22
2090.6931078389020513
 32
0.0
 13
6878.5876723389019389
 23
2090.6931078389020513
 33
0.0
  0
SOLID
  5
27C0
  8
DIMENSION
 10
7982.2603996116285998
 20
2094.4809866267810321
 30
0.0
 11
7982.2603996116285998
 21
2086.90522905102398
 31
0.0
 12
8004.9876723388997561
 22
2090.6931078389020513
 32
0.0
 13
8004.9876723388997561
 23
2090.6931078389020513
 33
0.0
  0
INSERT
  5
27C1
  8
OUTLINE
  2
*U39
 10
0.0
 20
0.0
 30
0.0
  0
POINT
  5
27C2
  8
DEFPOINTS
 62
     0
 10
6878.5876723389019389
 20
1810.6931078389070535
 30
0.0
  0
POINT
  5
27C3
  8
DEFPOINTS
 62
     0
 10
8004.9876723388997561
 20
1810.6931078389020513
 30
0.0
  0
POINT
  5
27C4
  8
DEFPOINTS
 62
     0
 10
8004.9876723388997561
 20
2090.6931078389020513
 30
0.0
  0
ENDBLK
  5
26EC
  8
0
  0
BLOCK
  8
0
  2
*U39
 70
     1
 10
0.0
 20
0.0
 30
0.0
  3
*U39
  1

  0
TEXT
  5
29EF
  8
DIMENSION
 10
7359.7789220366848895
 20
2079.8461284903460182
 30
0.0
 40
27.7272999999999996
  1
1126 O/A
  7
MTXPL_TAHOMA
  0
ENDBLK
  5
29F1
  8
0
  0
BLOCK
  8
0
  2
*D40
 70
     1
 10
0.0
 20
0.0
 30
0.0
  3
*D40
  1

  0
LINE
  5
279D
  8
DIMENSION
 10
7047.4376723388431856
 20
526.2458351115715232
 30
0.0
 11
7047.4376723388431856
 21
411.9294714752077198
 31
0.0
  0
LINE
  5
279E
  8
DIMENSION
 10
7836.1376723388430037
 20
526.2458351115715232
 30
0.0
 11
7836.1376723388430037
 21
411.9294714752077198
 31
0.0
  0
LINE
  5
279F
  8
DIMENSION
 10
7070.1649450661170704
 20
440.7931078388442074
 30
0.0
 11
7309.1648309291131227
 21
440.7931078388442074
 31
0.0
  0
LINE
  5
27A0
  8
DIMENSION
 10
7813.4103996115727568
 20
440.7931078388442074
 30
0.0
 11
7574.410513748577614
 21
440.7931078388442074
 31
0.0
  0
SOLID
  5
27A1
  8
DIMENSION
 10
7070.1649450661170704
 20
444.5809866267230177
 30
0.0
 11
7070.1649450661170704
 21
437.0052290509652266
 31
0.0
 12
7047.4376723388431856
 22
440.7931078388442074
 32
0.0
 13
7047.4376723388431856
 23
440.7931078388442074
 33
0.0
  0
SOLID
  5
27A2
  8
DIMENSION
 10
7813.4103996115727568
 20
444.5809866267230177
 30
0.0
 11
7813.4103996115727568
 21
437.0052290509652266
 31
0.0
 12
7836.1376723388430037
 22
440.7931078388442074
 32
0.0
 13
7836.1376723388430037
 23
440.7931078388442074
 33
0.0
  0
INSERT
  5
27A3
  8
OUTLINE
  2
*U41
 10
0.0
 20
0.0
 30
0.0
  0
POINT
  5
27A4
  8
DEFPOINTS
 62
     0
 10
7047.4376723388431856
 20
540.7931078388440937
 30
0.0
  0
POINT
  5
27A5
  8
DEFPOINTS
 62
     0
 10
7836.1376723388430037
 20
540.7931078388440937
 30
0.0
  0
POINT
  5
27A6
  8
DEFPOINTS
 62
     0
 10
7836.1376723388430037
 20
440.7931078388442074
 30
0.0
  0
ENDBLK
  5
26F9
  8
0
  0
BLOCK
  8
0
  2
*U41
 70
     1
 10
0.0
 20
0.0
 30
0.0
  3
*U41
  1

  0
TEXT
  5
29EB
  8
DIMENSION
 10
7314.5940372481809391
 20
427.2460220430081108
 30
0.0
 40
27.7272999999999996
  1
789 MTG CTRS
  7
MTXPL_TAHOMA
  0
ENDBLK
  5
29ED
  8
0
  0
BLOCK
  8
0
  2
*D42
 70
     1
 10
0.0
 20
0.0
 30
0.0
  3
*D42
  1

  0
LINE
  5
2832
  8
DIMENSION
 10
8962.8869094406672957
 20
-201.2755233706396041
 30
0.0
 11
8962.8869094406672957
 21
-290.8173709165948253
 31
0.0
  0
LINE
  5
2833
  8
DIMENSION
 10
8977.9369094406647491
 20
-237.825523370639786
 30
0.0
 11
8977.9369094406647491
 21
-290.8173709165948253
 31
0.0
  0
LINE
  5
2834
  8
DIMENSION
 10
8940.1596367133934109
 20
-261.9537345529583945
 30
0.0
 11
8917.4323639861213451
 21
-261.9537345529583945
 31
0.0
  0
LINE
  5
2835
  8
DIMENSION
 10
9000.6641821679368149
 20
-261.9537345529583945
 30
0.0
 11
9039.0241255395012558
 21
-261.9537345529583945
 31
0.0
  0
SOLID
  5
2836
  8
DIMENSION
 10
8940.1596367133934109
 20
-258.1658557650795842
 30
0.0
 11
8940.1596367133934109
 21
-265.7416133408370911
 31
0.0
 12
8962.8869094406672957
 22
-261.9537345529583945
 32
0.0
 13
8962.8869094406672957
 23
-261.9537345529583945
 33
0.0
  0
SOLID
  5
2837
  8
DIMENSION
 10
9000.6641821679368149
 20
-258.1658557650795842
 30
0.0
 11
9000.6641821679368149
 21
-265.7416133408370911
 31
0.0
 12
8977.9369094406647491
 22
-261.9537345529583945
 32
0.0
 13
8977.9369094406647491
 23
-261.9537345529583945
 33
0.0
  0
INSERT
  5
2838
  8
OUTLINE
  2
*U43
 10
0.0
 20
0.0
 30
0.0
  0
POINT
  5
2839
  8
DEFPOINTS
 62
     0
 10
8962.8869094406672957
 20
-186.7282506433668914
 30
0.0
  0
POINT
  5
283A
  8
DEFPOINTS
 62
     0
 10
8977.9369094406647491
 20
-223.2782506433671017
 30
0.0
  0
POINT
  5
283B
  8
DEFPOINTS
 62
     0
 10
8977.9369094406647491
 20
-261.9537345529583945
 30
0.0
  0
ENDBLK
  5
2706
  8
0
  0
BLOCK
  8
0
  2
*U43
 70
     1
 10
0.0
 20
0.0
 30
0.0
  3
*U43
  1

  0
TEXT
  5
29F6
  8
DIMENSION
 10
9042.0884149154953775
 20
-275.5287399809192834
 30
0.0
 40
27.7272744612260311
  1
15
  7
MTXPL_TAHOMA
  0
ENDBLK
  5
29F8
  8
0
  0
BLOCK
  8
0
  2
*D44
 70
     1
 10
0.0
 20
0.0
 30
0.0
  3
*D44
  1

  0
LINE
  5
283C
  8
DIMENSION
 10
8570.9369094406774821
 20
-201.2755233706396041
 30
0.0
 11
8570.9369094406774821
 21
-290.8173709165948253
 31
0.0
  0
LINE
  5
283D
  8
DIMENSION
 10
8555.9369094406647491
 20
-237.825523370639786
 30
0.0
 11
8555.9369094406647491
 21
-290.8173709165948253
 31
0.0
  0
LINE
  5
283E
  8
DIMENSION
 10
8593.6641821679459099
 20
-261.9537345529583945
 30
0.0
 11
8616.3914548952179757
 21
-261.9537345529583945
 31
0.0
  0
LINE
  5
283F
  8
DIMENSION
 10
8533.2096367133945023
 20
-261.9537345529583945
 30
0.0
 11
8494.0769049719801842
 21
-261.9537345529583945
 31
0.0
  0
SOLID
  5
2840
  8
DIMENSION
 10
8593.6641821679459099
 20
-258.1658557650795842
 30
0.0
 11
8593.6641821679459099
 21
-265.7416133408370911
 31
0.0
 12
8570.9369094406774821
 22
-261.9537345529583945
 32
0.0
 13
8570.9369094406774821
 23
-261.9537345529583945
 33
0.0
  0
SOLID
  5
2841
  8
DIMENSION
 10
8533.2096367133945023
 20
-258.1658557650795842
 30
0.0
 11
8533.2096367133945023
 21
-265.7416133408370911
 31
0.0
 12
8555.9369094406647491
 22
-261.9537345529583945
 32
0.0
 13
8555.9369094406647491
 23
-261.9537345529583945
 33
0.0
  0
INSERT
  5
2842
  8
OUTLINE
  2
*U45
 10
0.0
 20
0.0
 30
0.0
  0
POINT
  5
2843
  8
DEFPOINTS
 62
     0
 10
8570.9369094406774821
 20
-186.7282506433668914
 30
0.0
  0
POINT
  5
2844
  8
DEFPOINTS
 62
     0
 10
8555.9369094406647491
 20
-223.2782506433671017
 30
0.0
  0
POINT
  5
2845
  8
DEFPOINTS
 62
     0
 10
8555.9369094406647491
 20
-261.9537345529583945
 30
0.0
  0
ENDBLK
  5
2713
  8
0
  0
BLOCK
  8
0
  2
*U45
 70
     1
 10
0.0
 20
0.0
 30
0.0
  3
*U45
  1

  0
TEXT
  5
29FA
  8
DIMENSION
 10
8447.1592029994917539
 20
-275.5287399809192834
 30
0.0
 40
27.7272744612260311
  1
15
  7
MTXPL_TAHOMA
  0
ENDBLK
  5
29FC
  8
0
  0
BLOCK
  8
0
  2
*D46
 70
     1
 10
0.0
 20
0.0
 30
0.0
  3
*D46
  1

  0
LINE
  5
2774
  8
DIMENSION
 10
8050.6849450665158656
 20
2351.3147849730198686
 30
0.0
 11
8110.1611021837743465
 21
2351.3147849730198686
 31
0.0
  0
LINE
  5
2775
  8
DIMENSION
 10
8050.6849450665158656
 20
2753.3147849730189591
 30
0.0
 11
8110.1611021837743465
 21
2753.3147849730189591
 31
0.0
  0
LINE
  5
2776
  8
DIMENSION
 10
8081.2974658201401326
 20
2374.042057700291025
 30
0.0
 11
8081.2974658201401326
 21
2475.9193326499239447
 31
0.0
  0
LINE
  5
2777
  8
DIMENSION
 10
8081.2974658201401326
 20
2730.5875122457459838
 30
0.0
 11
8081.2974658201401326
 21
2628.7102372961171568
 31
0.0
  0
SOLID
  5
2778
  8
DIMENSION
 10
8077.5095870322602423
 20
2374.042057700291025
 30
0.0
 11
8085.0853446080172944
 21
2374.042057700291025
 31
0.0
 12
8081.2974658201401326
 22
2351.3147849730198686
 32
0.0
 13
8081.2974658201401326
 23
2351.3147849730198686
 33
0.0
  0
SOLID
  5
2779
  8
DIMENSION
 10
8077.5095870322602423
 20
2730.5875122457459838
 30
0.0
 11
8085.0853446080172944
 21
2730.5875122457459838
 31
0.0
 12
8081.2974658201401326
 22
2753.3147849730189591
 32
0.0
 13
8081.2974658201401326
 23
2753.3147849730189591
 33
0.0
  0
INSERT
  5
277A
  8
OUTLINE
  2
*U47
 10
0.0
 20
0.0
 30
0.0
  0
POINT
  5
277B
  8
DEFPOINTS
 62
     0
 10
8036.1376723392422718
 20
2351.3147849730198686
 30
0.0
  0
POINT
  5
277C
  8
DEFPOINTS
 62
     0
 10
8036.1376723392422718
 20
2753.3147849730189591
 30
0.0
  0
POINT
  5
277D
  8
DEFPOINTS
 62
     0
 10
8081.2974658201401326
 20
2753.3147849730189591
 30
0.0
  0
ENDBLK
  5
2720
  8
0
  0
BLOCK
  8
0
  2
*U47
 70
     1
 10
0.0
 20
0.0
 30
0.0
  3
*U47
  1

  0
TEXT
  5
29E7
  8
DIMENSION
 10
8092.1444451686938919
 20
2482.4472029716748693
 30
0.0
 40
27.7272999999999996
  1
402 O/A
 50
90.0
  7
MTXPL_TAHOMA
  0
ENDBLK
  5
29E9
  8
0
  0
BLOCK
  8
0
  2
*D48
 70
     1
 10
0.0
 20
0.0
 30
0.0
  3
*D48
  1

  0
LINE
  5
2846
  8
DIMENSION
 10
8555.9369094406647491
 20
-237.825523370639786
 30
0.0
 11
8555.9369094406647491
 21
-343.0509779160943822
 31
0.0
  0
LINE
  5
2847
  8
DIMENSION
 10
8977.9369094406647491
 20
-237.825523370639786
 30
0.0
 11
8977.9369094406647491
 21
-343.0509779160943822
 31
0.0
  0
LINE
  5
2848
  8
DIMENSION
 10
8578.6641821679368149
 20
-314.1873415524581219
 30
0.0
 11
8690.5414571175697347
 21
-314.1873415524581219
 31
0.0
  0
LINE
  5
2849
  8
DIMENSION
 10
8955.2096367133945023
 20
-314.1873415524581219
 30
0.0
 11
8843.3323617637634015
 21
-314.1873415524581219
 31
0.0
  0
SOLID
  5
284A
  8
DIMENSION
 10
8578.6641821679368149
 20
-310.3994627645793116
 30
0.0
 11
8578.6641821679368149
 21
-317.9752203403368753
 31
0.0
 12
8555.9369094406647491
 22
-314.1873415524581219
 32
0.0
 13
8555.9369094406647491
 23
-314.1873415524581219
 33
0.0
  0
SOLID
  5
284B
  8
DIMENSION
 10
8955.2096367133945023
 20
-310.3994627645793116
 30
0.0
 11
8955.2096367133945023
 21
-317.9752203403368753
 31
0.0
 12
8977.9369094406647491
 22
-314.1873415524581219
 32
0.0
 13
8977.9369094406647491
 23
-314.1873415524581219
 33
0.0
  0
INSERT
  5
284C
  8
OUTLINE
  2
*U49
 10
0.0
 20
0.0
 30
0.0
  0
POINT
  5
284D
  8
DEFPOINTS
 62
     0
 10
8555.9369094406647491
 20
-223.2782506433671017
 30
0.0
  0
POINT
  5
284E
  8
DEFPOINTS
 62
     0
 10
8977.9369094406647491
 20
-223.2782506433671017
 30
0.0
  0
POINT
  5
284F
  8
DEFPOINTS
 62
     0
 10
8977.9369094406647491
 20
-314.1873415524581219
 30
0.0
  0
ENDBLK
  5
272D
  8
0
  0
BLOCK
  8
0
  2
*U49
 70
     1
 10
0.0
 20
0.0
 30
0.0
  3
*U49
  1

  0
TEXT
  5
29FE
  8
DIMENSION
 10
8697.0693274393233878
 20
-325.0343209010142118
 30
0.0
 40
27.7272999999999996
  1
422 O/A
  7
MTXPL_TAHOMA
  0
ENDBLK
  5
2A00
  8
0
  0
BLOCK
  8
0
  2
A$C4AE7103D
 70
     0
 10
0.0
 20
0.0
 30
0.0
  3
A$C4AE7103D
  1

  0
TEXT
  5
2932
  8
0
 62
     7
 10
0.0000049630820058
 20
11.2000021597579202
 30
0.0
 40
33.5999999999967329
  1
available on request
  7
TITLE3
  0
TEXT
  5
2933
  8
0
 62
     7
 10
0.0000049630820058
 20
68.8000021597522391
 30
0.0
 40
33.5999999999967329
  1
Certified dimensions
  7
TITLE3
  0
TEXT
  5
2934
  8
0
 62
     7
 10
0.0000049630820058
 20
126.4000021597466059
 30
0.0
 40
33.5999999999967329
  1
without notice or obligation.
  7
TITLE3
  0
TEXT
  5
2935
  8
0
 62
     7
 10
0.0000049630820058
 20
184.0000021597408875
 30
0.0
 40
33.5999999999967329
  1
specifications at any time
  7
TITLE3
  0
TEXT
  5
2936
  8
0
 62
     7
 10
0.0000049630820058
 20
241.6000021597353964
 30
0.0
 40
33.5999999999967329
  1
the right to change 
  7
TITLE3
  0
TEXT
  5
2937
  8
0
 62
     7
 10
0.0000049630820058
 20
356.80000215972359
 30
0.0
 40
33.5999999999967329
  1
NOTE
  7
TITLE3
  0
TEXT
  5
2938
  8
0
 62
     7
 10
0.0000049630820058
 20
299.2000021597295927
 30
0.0
 40
33.5999999999967329
  1
The manufacturer reserves
  7
TITLE3
  0
ENDBLK
  5
293A
  8
0
  0
BLOCK
  8
0
  2
*U51
 70
     1
 10
0.0
 20
0.0
 30
0.0
  3
*U51
  1

  0
TEXT
  5
29D5
  8
SYMBOL
 10
33.1410754441966589
 20
2334.39791803320486
 30
0.0
 40
27.7090912515466883
  1
Air
  7
MTXPL_TAHOMA
  0
TEXT
  5
29D6
  8
SYMBOL
 10
15.7880011714852504
 20
2288.7756306294409114
 30
0.0
 40
27.7090912515466883
  1
Flow
  7
MTXPL_TAHOMA
  0
ENDBLK
  5
29D8
  8
0
  0
BLOCK
  8
0
  2
*U52
 70
     1
 10
0.0
 20
0.0
 30
0.0
  3
*U52
  1

  0
TEXT
  5
29DA
  8
SYMBOL
 10
677.9923016331966892
 20
2565.0195593445250779
 30
0.0
 40
27.7090912515466883
  1
Air
  7
MTXPL_TAHOMA
  0
TEXT
  5
29DB
  8
SYMBOL
 10
660.639227360485279
 20
2519.3972719407620389
 30
0.0
 40
27.7090912515466883
  1
Flow
  7
MTXPL_TAHOMA
  0
ENDBLK
  5
29DD
  8
0
  0
ENDSEC
  0
SECTION
  2
ENTITIES
  0
TEXT
  5
F78
  8
0
 62
     7
 10
4272.8624271399530699
 20
259.2742466930232013
 30
0.0
 40
62.5
  1
temperzone OSA 211RLTFH
 41
1.1545742658823741
  7
TITLE5
 72
     5
 11
5740.1338900321370602
 21
259.2742466930232013
 31
0.0
  0
TEXT
  5
F79
  8
0
 62
     7
 10
5167.2070400510119725
 20
-41.0013200398965907
 30
0.0
 40
37.5
  1
OSA211RLTFH
 41
1.074705882352941
  7
TITLE3
 72
     5
 11
5558.7070400510119725
 21
-41.0013200398965907
 31
0.0
  0
INSERT
  5
FCE
  8
MTG-FEET
  2
LINES
 10
637.4231943994607263
 20
2246.7294005091212057
 30
0.0
  0
TEXT
  5
FDF
  8
0
 62
     7
 10
4445.5737691718495626
 20
17.0
 30
0.0
 40
37.5
  1
24-01-20
 41
0.8296296296296173
  7
TITLE3
 72
     5
 11
4685.5737691718459246
 21
17.0
 31
0.0
  0
TEXT
  5
FE0
  8
OVERLAY-A3
 10
4272.3453344418740016
 20
18.2468207901514212
 30
0.0
 40
36.0
  1
Date
  7
SIMPLEX
  0
TEXT
  5
FE1
  8
OVERLAY-A3
 10
5619.1667885604028925
 20
46.254953035116813
 30
0.0
 40
36.0
  1
Revision
 41
0.7812095035934843
  7
SIMPLEX
 72
     5
 11
5777.1943110015990896
 21
46.254953035116813
 31
0.0
  0
LINE
  5
FE2
  8
OVERLAY-A3
 10
5601.7370249852401685
 20
-116.7362607275242965
 30
0.0
 11
5601.7370249852401685
 21
104.4029835628199976
 31
0.0
  0
LINE
  5
FE3
  8
OVERLAY-A3
 10
4229.0272941857228943
 20
357.826628246832172
 30
0.0
 11
4229.0272941857228943
 21
-116.7362607275242965
 31
0.0
  0
LINE
  5
FE4
  8
OVERLAY-A3
 10
5125.3705170196408289
 20
-116.7362607275242965
 30
0.0
 11
5125.3705170196408289
 21
104.4029835628199976
 31
0.0
  0
LINE
  5
FE5
  8
OVERLAY-A3
 10
5125.37051701963901
 20
-8.0311010958044982
 30
0.0
 11
4229.0272941857228943
 21
-8.0311010958044982
 31
0.0
  0
LINE
  5
FE6
  8
OVERLAY-A3
 10
5792.3631978567636907
 20
104.4029835628199976
 30
0.0
 11
4229.0272941857228943
 21
104.4029835628199976
 31
0.0
  0
LINE
  5
FE7
  8
OVERLAY-A3
 10
4229.0272941857228943
 20
-116.7362607275242965
 30
0.0
 11
5791.9169370892359439
 21
-116.7362607275242965
 31
0.0
  0
LINE
  5
FE8
  8
OVERLAY-A3
 10
5791.9169370892359439
 20
-116.7362607275242965
 30
0.0
 11
5791.9169370892359439
 21
357.826628246832172
 31
0.0
  0
LINE
  5
FE9
  8
OVERLAY-A3
 10
5791.9169370892359439
 20
357.826628246832172
 30
0.0
 11
4229.0272941857228943
 21
357.826628246832172
 31
0.0
  0
TEXT
  5
FEA
  8
OVERLAY-A3
 10
4266.7248286546628151
 20
-76.1162679019634538
 30
0.0
 40
30.0
  1
Scale
 41
1.3701747965659949
  7
SIMPLEX
 72
     5
 11
4417.4440562769232201
 21
-76.1162679019634538
 31
0.0
  0
TEXT
  5
FEB
  8
OVERLAY-A3
 10
5212.2886854011940159
 20
45.3401472600643132
 30
0.0
 40
30.0
  1
Drawing No.
  7
SIMPLEX
 72
     2
 11
5473.7172568297655744
 21
45.3401472600643132
 31
0.0
  0
LINE
  5
FEC
  8
OVERLAY-A3
 10
1576.1105239390610677
 20
-148.0
 30
0.0
 11
5835.0
 21
-148.0
 31
0.0
  0
LINE
  5
FED
  8
OVERLAY-A3
 10
5835.0
 20
-148.0
 30
0.0
 11
5834.999999999998181
 21
3477.5393139767302273
 31
0.0
  0
LINE
  5
FEE
  8
OVERLAY-A3
 10
5834.999999999998181
 20
3477.5393139767302273
 30
0.0
 11
1576.1105239390610677
 21
3481.5393139767302273
 31
0.0
  0
LINE
  5
FEF
  8
OVERLAY-A3
 10
1576.1105239390610677
 20
3481.5393139767302273
 30
0.0
 11
1576.1105239390610677
 21
-148.0
 31
0.0
  0
TEXT
  5
FF0
  8
0
 62
     7
 10
4499.1433054549597728
 20
-73.7899429766430615
 30
0.0
 40
37.5
  1
1:20
  7
TITLE3
  0
TEXT
  5
13DD
  8
OVERLAY-A3
 10
2813.8661837490008111
 20
3389.1255213467838985
 30
0.0
 40
45.0
  1
150 mm MIN CLEARANCE
  0
TEXT
  5
13DE
  8
OVERLAY-A3
 10
2510.7818610674730735
 20
2372.4724494574429627
 30
0.0
 40
45.0
  1
500 mm MIN CLEARANCE
  0
TEXT
  5
13DF
  8
OVERLAY-A3
 10
2119.5685461691759883
 20
2909.0671898345740374
 30
0.0
 40
45.0
  1
150 mm MIN
 50
90.0
  0
TEXT
  5
13E0
  8
OVERLAY-A3
 10
2196.7114033120337808
 20
2912.319314929472057
 30
0.0
 40
45.0
  1
CLEARANCE
 50
90.0
  0
TEXT
  5
13E1
  8
OVERLAY-A3
 10
4133.8296000729378648
 20
2888.4647092884551967
 30
0.0
 40
45.0
  1
750 mm MIN
 50
90.0
  0
TEXT
  5
13E2
  8
OVERLAY-A3
 10
4210.9724572157965667
 20
2903.6609140233740618
 30
0.0
 40
45.0
  1
CLEARANCE
 50
90.0
  0
LINE
  5
146E
  8
0
  6
PHANTOM
 62
     7
 10
2223.0570210835089711
 20
3368.0978714678772121
 30
0.0
 11
2223.05702108351079
 21
2825.0978714678781216
 31
0.0
  0
LINE
  5
146F
  8
0
  6
PHANTOM
 62
     7
 10
2223.0570210835089711
 20
3368.0978714678772121
 30
0.0
 11
4249.4570210835063335
 21
3368.0978714678772121
 31
0.0
  0
LINE
  5
1470
  8
0
  6
PHANTOM
 62
     7
 10
4249.4570210835063335
 20
3368.0978714678772121
 30
0.0
 11
4249.4570210835063335
 21
2825.0978714678781216
 31
0.0
  0
LINE
  5
1471
  8
0
  6
PHANTOM
 62
     7
 10
2373.0570210835089711
 20
2325.0978714678781216
 30
0.0
 11
3499.457021083510881
 21
2325.0978714678781216
 31
0.0
  0
LINE
  5
1472
  8
0
  6
PHANTOM
 62
     7
 10
2373.0570210835089711
 20
2800.0978714678781216
 30
0.0
 11
2373.0570210835089711
 21
2325.0978714678781216
 31
0.0
  0
LINE
  5
1473
  8
0
  6
PHANTOM
 62
     7
 10
3499.457021083510881
 20
2800.0978714678790311
 30
0.0
 11
3499.457021083510881
 21
2325.0978714678781216
 31
0.0
  0
LINE
  5
1474
  8
0
  6
PHANTOM
 62
     7
 10
3717.9710880774141515
 20
2825.0978714678781216
 30
0.0
 11
4249.4570210835063335
 21
2825.0978714678781216
 31
0.0
  0
LINE
  5
1475
  8
0
  6
PHANTOM
 62
     7
 10
2348.0570210835089711
 20
2825.0978714678781216
 30
0.0
 11
2223.05702108351079
 21
2825.0978714678781216
 31
0.0
  0
LINE
  5
16BC
  8
OVERLAY-A3
 10
4809.1462209185428947
 20
1841.2361884363128866
 30
0.0
 11
4809.1462209185428947
 21
1957.792179143579915
 31
0.0
  0
LINE
  5
16BD
  8
OVERLAY-A3
 10
4413.1462209185410757
 20
1841.2361884363128866
 30
0.0
 11
4413.1462209185410757
 21
1957.792179143579915
 31
0.0
  0
LINE
  5
16BE
  8
OVERLAY-A3
 10
4764.1462209185447136
 20
1927.7921791435810519
 30
0.0
 11
4699.1462209185447136
 21
1927.7921791435810519
 31
0.0
  0
LINE
  5
16BF
  8
OVERLAY-A3
 10
4458.1462209185428947
 20
1927.7921791435810519
 30
0.0
 11
4519.1462209185438041
 21
1927.7921791435810519
 31
0.0
  0
SOLID
  5
16C0
  8
OVERLAY-A3
 10
4764.1462209185447136
 20
1935.2921791435810519
 30
0.0
 11
4764.1462209185447136
 21
1920.2921791435810519
 31
0.0
 12
4809.1462209185428947
 22
1927.7921791435810519
 32
0.0
 13
4809.1462209185428947
 23
1927.7921791435810519
 33
0.0
  0
SOLID
  5
16C1
  8
OVERLAY-A3
 10
4458.1462209185428947
 20
1935.2921791435810519
 30
0.0
 11
4458.1462209185428947
 21
1920.2921791435810519
 31
0.0
 12
4413.1462209185410757
 22
1927.7921791435810519
 32
0.0
 13
4413.1462209185410757
 23
1927.7921791435810519
 33
0.0
  0
LINE
  5
16C3
  8
OVERLAY-A3
 10
4826.7462209185378015
 20
531.3361884363204126
 30
0.0
 11
4826.7462209185378015
 21
413.7762521297228204
 31
0.0
  0
LINE
  5
16C4
  8
OVERLAY-A3
 10
4400.7462209185432584
 20
531.3361884363204126
 30
0.0
 11
4400.7462209185432584
 21
413.7762521297228204
 31
0.0
  0
LINE
  5
16C5
  8
OVERLAY-A3
 10
4871.7462209185378015
 20
443.7762521297228204
 30
0.0
 11
4916.7462209185396205
 21
443.7762521297228204
 31
0.0
  0
LINE
  5
16C6
  8
OVERLAY-A3
 10
4355.746220918542349
 20
443.7762521297228204
 30
0.0
 11
4310.7462209185432584
 21
443.7762521297228204
 31
0.0
  0
SOLID
  5
16C7
  8
OVERLAY-A3
 10
4871.7462209185378015
 20
451.2762521297228204
 30
0.0
 11
4871.7462209185378015
 21
436.2762521297228204
 31
0.0
 12
4826.7462209185378015
 22
443.7762521297228204
 32
0.0
 13
4826.7462209185378015
 23
443.7762521297228204
 33
0.0
  0
SOLID
  5
16C8
  8
OVERLAY-A3
 10
4355.746220918542349
 20
451.2762521297228204
 30
0.0
 11
4355.746220918542349
 21
436.2762521297228204
 31
0.0
 12
4400.7462209185432584
 22
443.7762521297228204
 32
0.0
 13
4400.7462209185432584
 23
443.7762521297228204
 33
0.0
  0
INSERT
  5
16C9
  8
OUTLINE
  2
*U8
 10
409.1509678515366204
 20
6031.9334817514190945
 30
0.0
 50
270.0
  0
LINE
  5
16D1
  8
OVERLAY-A3
 10
2353.0570210831169788
 20
1821.2361884363799618
 30
0.0
 11
2224.7193306430472148
 21
1821.2361884363799618
 31
0.0
  0
LINE
  5
16D3
  8
OVERLAY-A3
 10
2254.7193306430472148
 20
1780.2361884363790523
 30
0.0
 11
2254.7193306430472148
 21
1361.3578647780759638
 31
0.0
  0
LINE
  5
16D4
  8
OVERLAY-A3
 10
2254.7193306430472148
 20
596.236188436379507
 30
0.0
 11
2254.7193306430472148
 21
1000.357864778076987
 31
0.0
  0
SOLID
  5
16D5
  8
OVERLAY-A3
 10
2247.2193306430472148
 20
1780.2361884363790523
 30
0.0
 11
2262.2193306430472148
 21
1780.2361884363790523
 31
0.0
 12
2254.7193306430472148
 22
1821.2361884363799618
 32
0.0
 13
2254.7193306430472148
 23
1821.2361884363799618
 33
0.0
  0
SOLID
  5
16D6
  8
OVERLAY-A3
 10
2247.2193306430472148
 20
596.236188436379507
 30
0.0
 11
2262.2193306430472148
 21
596.236188436379507
 31
0.0
 12
2254.7193306430472148
 22
551.2361884363796207
 32
0.0
 13
2254.7193306430472148
 23
551.2361884363796207
 33
0.0
  0
LINE
  5
16D8
  8
OVERLAY-A3
 10
2371.6024801236421808
 20
560.1256167252836349
 30
0.0
 11
2371.6024801236421808
 21
463.934310115537528
 31
0.0
  0
LINE
  5
16DA
  8
OVERLAY-A3
 10
2326.6024801236439998
 20
493.934310115537528
 30
0.0
 11
2281.6024801236430903
 21
493.934310115537528
 31
0.0
  0
LINE
  5
16DB
  8
OVERLAY-A3
 10
2586.907021083059135
 20
493.9343101155374143
 30
0.0
 11
2631.907021083059135
 21
493.9343101155374143
 31
0.0
  0
SOLID
  5
16DC
  8
OVERLAY-A3
 10
2326.6024801236439998
 20
501.434310115537528
 30
0.0
 11
2326.6024801236439998
 21
486.4343101155375848
 31
0.0
 12
2371.6024801236421808
 22
493.934310115537528
 32
0.0
 13
2371.6024801236421808
 23
493.934310115537528
 33
0.0
  0
SOLID
  5
16DD
  8
OVERLAY-A3
 10
2586.907021083059135
 20
501.434310115537528
 30
0.0
 11
2586.907021083059135
 21
486.4343101155375848
 31
0.0
 12
2541.907021083059135
 22
493.9343101155374143
 32
0.0
 13
2541.907021083059135
 23
493.9343101155374143
 33
0.0
  0
LINE
  5
16DF
  8
OVERLAY-A3
 10
2541.907021083059135
 20
531.33618843632064
 30
0.0
 11
2541.907021083059135
 21
463.934310115537528
 31
0.0
  0
LINE
  5
16E0
  8
OVERLAY-A3
 10
3330.6070210830612268
 20
531.3361884363208674
 30
0.0
 11
3330.6070210830612268
 21
463.9343101155379259
 31
0.0
  0
LINE
  5
16E1
  8
OVERLAY-A3
 10
2586.907021083059135
 20
493.9343101155374143
 30
0.0
 11
2736.2802424122642151
 21
493.9343101155374143
 31
0.0
  0
LINE
  5
16E2
  8
OVERLAY-A3
 10
3285.6070210830612268
 20
493.934310115537528
 30
0.0
 11
3141.2802424122642151
 21
493.9343101155374143
 31
0.0
  0
SOLID
  5
16E3
  8
OVERLAY-A3
 10
2586.907021083059135
 20
501.434310115537528
 30
0.0
 11
2586.907021083059135
 21
486.4343101155375848
 31
0.0
 12
2541.907021083059135
 22
493.9343101155374143
 32
0.0
 13
2541.907021083059135
 23
493.9343101155374143
 33
0.0
  0
SOLID
  5
16E4
  8
OVERLAY-A3
 10
3285.6070210830612268
 20
501.4343101155379259
 30
0.0
 11
3285.6070210830612268
 21
486.4343101155379259
 31
0.0
 12
3330.6070210830612268
 22
493.9343101155378122
 32
0.0
 13
3330.6070210830612268
 23
493.9343101155378122
 33
0.0
  0
LINE
  5
16E6
  8
OVERLAY-A3
 10
2373.0570210831160693
 20
1841.2361884363829176
 30
0.0
 11
2373.0570210831160693
 21
1911.4009964312820102
 31
0.0
  0
LINE
  5
16E7
  8
OVERLAY-A3
 10
3499.4570210831161603
 20
1841.2361884363829176
 30
0.0
 11
3499.4570210831161603
 21
1911.4009964312820102
 31
0.0
  0
LINE
  5
16E8
  8
OVERLAY-A3
 10
2418.0570210831169788
 20
1881.4009964312840566
 30
0.0
 11
2755.4885047566908725
 21
1881.4009964312840566
 31
0.0
  0
LINE
  5
16E9
  8
OVERLAY-A3
 10
3454.4570210831147961
 20
1881.4009964312840566
 30
0.0
 11
3130.4885047566931462
 21
1881.4009964312840566
 31
0.0
  0
SOLID
  5
16EA
  8
OVERLAY-A3
 10
2418.0570210831169788
 20
1888.9009964312829197
 30
0.0
 11
2418.0570210831169788
 21
1873.9009964312829197
 31
0.0
 12
2373.0570210831160693
 22
1881.4009964312840566
 32
0.0
 13
2373.0570210831160693
 23
1881.4009964312840566
 33
0.0
  0
SOLID
  5
16EB
  8
OVERLAY-A3
 10
3454.4570210831147961
 20
1888.9009964312829197
 30
0.0
 11
3454.4570210831147961
 21
1873.9009964312829197
 31
0.0
 12
3499.4570210831161603
 22
1881.4009964312840566
 32
0.0
 13
3499.4570210831161603
 23
1881.4009964312840566
 33
0.0
  0
LINE
  5
1701
  8
OVERLAY-A3
 10
3330.607021083453219
 20
3224.6978714675001356
 30
0.0
 11
3697.9710880774141515
 21
3224.6978714675001356
 31
0.0
  0
LINE
  5
1702
  8
OVERLAY-A3
 10
3330.6070210834541285
 20
2822.6978714675001356
 30
0.0
 11
3697.9710880774141515
 21
2822.6978714675001356
 31
0.0
  0
LINE
  5
1703
  8
OVERLAY-A3
 10
3670.4710880774118777
 20
3269.6978714675010451
 30
0.0
 11
3670.4710880774118777
 21
3314.6978714675001356
 31
0.0
  0
LINE
  5
1704
  8
OVERLAY-A3
 10
3670.4710880774141515
 20
2777.6978714675010451
 30
0.0
 11
3670.4710880774141515
 21
2732.6978714675028641
 31
0.0
  0
SOLID
  5
1705
  8
OVERLAY-A3
 10
3662.9710880774118777
 20
3269.6978714675010451
 30
0.0
 11
3677.9710880774118777
 21
3269.6978714675010451
 31
0.0
 12
3670.4710880774118777
 22
3224.6978714675001356
 32
0.0
 13
3670.4710880774118777
 23
3224.6978714675001356
 33
0.0
  0
SOLID
  5
1706
  8
OVERLAY-A3
 10
3662.9710880774141515
 20
2777.6978714675010451
 30
0.0
 11
3677.9710880774141515
 21
2777.6978714675010451
 31
0.0
 12
3670.4710880774141515
 22
2822.6978714675001356
 32
0.0
 13
3670.4710880774141515
 23
2822.6978714675001356
 33
0.0
  0
TEXT
  5
17F1
  8
OUTLINE
 10
4589.6014439359278185
 20
857.7834876383057008
 30
0.0
 40
60.0
  1
OSA 211RLTFH
 50
90.0
  7
TITLE5
  0
TEXT
  5
17F2
  8
OUTLINE
 10
3121.1229713547950269
 20
1234.6504827051760458
 30
0.0
 40
60.0
  1
OSA 211
  7
TITLE5
  0
TEXT
  5
17F3
  8
OUTLINE
 10
3172.5515427833652211
 20
1134.6504827051749089
 30
0.0
 40
60.0
  1
RLTFH
  7
TITLE5
  0
LINE
  5
19D0
  8
OVERLAY-A3
 10
2490.2905102832278317
 20
551.3291849288683579
 30
0.0
 11
2224.7193306430472148
 21
551.2361884363796207
 31
0.0
  0
TEXT
  5
19D3
  8
OVERLAY-A3
 10
2277.2193306430458506
 20
1031.3578647780771007
 30
0.0
 40
45.0
  1
1270 O/A
 50
90.0
  0
TEXT
  5
1DC5
  8
OVERLAY-A3
 10
4549.1462209185447136
 20
1905.292179143579915
 30
0.0
 40
45.0
  1
396
  0
TEXT
  5
1DCF
  8
OVERLAY-A3
 10
2405.8689805167450686
 20
471.7931648649280874
 30
0.0
 40
45.0
  1
169
  0
TEXT
  5
2093
  8
OVERLAY-A3
 10
3692.9710880774141515
 20
2848.8680035895167748
 30
0.0
 40
45.0
  1
402 CTRS
 50
90.0
  0
TEXT
  5
20AD
  8
OVERLAY-A3
 10
2785.4885047566908725
 20
1867.4828341538159293
 30
0.0
 40
45.0
  1
1126 O/A
  0
TEXT
  5
20B2
  8
OVERLAY-A3
 10
2766.2802424122642151
 20
469.66039845249378
 30
0.0
 40
45.0
  1
789 CTRS
  0
LINE
  5
266A
  8
VISIBLE
 10
3102.057021083050131
 20
586.8861884363208219
 30
0.0
 11
3102.05702108305195
 21
1807.2361884363369882
 31
0.0
  0
LINE
  5
266C
  8
VISIBLE
 10
2573.5235331091162152
 20
551.3361884363204126
 30
0.0
 11
2510.290509056999781
 21
551.3361884363207537
 31
0.0
  0
LINE
  5
266E
  8
VISIBLE
 10
2622.4570210830588621
 20
585.3361884363207537
 30
0.0
 11
2592.3700408585118566
 21
585.3361884363207537
 31
0.0
  0
LINE
  5
266F
  8
VISIBLE
 10
2622.4570210830588621
 20
585.9361884363197532
 30
0.0
 11
2622.4570210830588621
 21
585.3361884363207537
 31
0.0
  0
LINE
  5
2670
  8
VISIBLE
 10
2592.3700408585118566
 20
585.3361884363207537
 30
0.0
 11
2573.5235331091162152
 21
551.3361884363204126
 31
0.0
  0
LINE
  5
2673
  8
VISIBLE
 10
2491.4440013076077776
 20
585.3361884363207537
 30
0.0
 11
2461.3570210830598626
 21
585.3361884363214358
 31
0.0
  0
LINE
  5
2674
  8
VISIBLE
 10
2461.3570210830598626
 20
585.3361884363214358
 30
0.0
 11
2461.3570210830598626
 21
585.9361884363197532
 31
0.0
  0
LINE
  5
2675
  8
VISIBLE
 10
2510.290509056999781
 20
551.3361884363207537
 30
0.0
 11
2491.4440013076077776
 21
585.3361884363207537
 31
0.0
  0
LINE
  5
2677
  8
VISIBLE
 10
3097.0570210830601354
 20
585.9361884363200943
 30
0.0
 11
2373.0570210833570854
 21
585.9361884363197532
 31
0.0
  0
LINE
  5
2678
  8
VISIBLE
 10
3097.0570210830601354
 20
1807.236188436339944
 30
0.0
 11
3097.0570210830601354
 21
585.9361884363197532
 31
0.0
  0
LINE
  5
267A
  8
VISIBLE
 10
3416.7898738301719277
 20
1821.2361884363160698
 30
0.0
 11
3417.2278202943311953
 21
1821.2361884363160698
 31
0.0
  0
LINE
  5
267B
  8
VISIBLE
 10
3417.2278202943311953
 20
1821.2361884363160698
 30
0.0
 11
3499.4570210831170698
 21
1821.2361884363119771
 31
0.0
  0
LINE
  5
267C
  8
VISIBLE
 10
2373.0570210831160693
 20
1821.2361884363820081
 30
0.0
 11
3416.7898738301719277
 21
1821.2361884363169793
 31
0.0
  0
LINE
  5
267D
  8
VISIBLE
 10
3499.4570210831170698
 20
1821.2361884363119771
 30
0.0
 11
3499.4570210833571764
 21
586.8861884363207082
 31
0.0
  0
LINE
  5
267E
  8
VISIBLE
 10
2373.0570210833570854
 20
585.9361884363197532
 30
0.0
 11
2373.0570210831160693
 21
1821.2361884363820081
 31
0.0
  0
LINE
  5
267F
  8
VISIBLE
 10
2373.0570210831187978
 20
1807.2361884363820081
 30
0.0
 11
3499.4570210831188888
 21
1807.2361884363119771
 31
0.0
  0
LINE
  5
2680
  8
VISIBLE
 10
3499.4570210833571764
 20
586.8861884363208219
 30
0.0
 11
3414.8096636924110499
 21
586.8861884363208219
 31
0.0
  0
LINE
  5
2681
  8
VISIBLE
 10
3414.8096636924110499
 20
586.8861884363208219
 30
0.0
 11
3102.057021083050131
 21
586.8861884363208219
 31
0.0
  0
LINE
  5
2682
  8
VISIBLE
 10
3362.2235331091178523
 20
551.3361884363204126
 30
0.0
 11
3298.9905090570027824
 21
551.3361884363204126
 31
0.0
  0
LINE
  5
2684
  8
VISIBLE
 10
3411.1570210830600445
 20
585.3361884363204126
 30
0.0
 11
3381.07004085851122
 21
585.3361884363204126
 31
0.0
  0
LINE
  5
2685
  8
VISIBLE
 10
3411.1570210830600445
 20
586.8861884363208219
 30
0.0
 11
3411.1570210830600445
 21
585.3361884363204126
 31
0.0
  0
LINE
  5
2687
  8
VISIBLE
 10
3381.07004085851122
 20
585.3361884363204126
 30
0.0
 11
3362.2235331091178523
 21
551.3361884363204126
 31
0.0
  0
LINE
  5
2688
  8
VISIBLE
 10
3280.1440013076080504
 20
585.3361884363207537
 30
0.0
 11
3250.0570210830610449
 21
585.3361884363214358
 31
0.0
  0
LINE
  5
2689
  8
VISIBLE
 10
3250.0570210830610449
 20
585.3361884363214358
 30
0.0
 11
3250.0570210830610449
 21
586.886188436321163
 31
0.0
  0
LINE
  5
268A
  8
VISIBLE
 10
3298.9905090570027824
 20
551.3361884363204126
 30
0.0
 11
3280.1440013076080504
 21
585.3361884363207537
 31
0.0
  0
ARC
  5
268C
  8
VISIBLE
 10
2541.9070210834529462
 20
3224.6978714675001356
 30
0.0
 40
5.9999999999999831
 50
318.1896851042725984
 51
0.0
  0
ARC
  5
268D
  8
VISIBLE
 10
2541.9070210834529462
 20
3224.6978714675001356
 30
0.0
 40
6.000000000000008
 50
180.0
 51
221.8103148957274016
  0
ARC
  5
268E
  8
VISIBLE
 10
2541.9070210834529462
 20
2822.6978714675001356
 30
0.0
 40
6.0
 50
180.0000000000032117
 51
359.9999999999968168
  0
LINE
  5
268F
  8
VISIBLE
 10
2509.4908999233821305
 20
3234.6978714675001356
 30
0.0
 11
2535.9070210834529462
 21
3234.6978714675001356
 31
0.0
  0
LINE
  5
2690
  8
VISIBLE
 10
2574.3231422435242166
 20
2812.6978714675001356
 30
0.0
 11
2509.4908999233821305
 21
2812.6978714675001356
 31
0.0
  0
LINE
  5
2691
  8
VISIBLE
 10
2547.9070210834529462
 20
3234.6978714675001356
 30
0.0
 11
2574.3231422435242166
 21
3234.6978714675001356
 31
0.0
  0
LINE
  5
2692
  8
VISIBLE
 10
2582.0176896500652219
 20
2825.0978714678781216
 30
0.0
 11
2574.3231422435242166
 21
2812.6978714675001356
 31
0.0
  0
LINE
  5
2693
  8
VISIBLE
 10
2500.8035076905171081
 20
3220.6978714675078663
 30
0.0
 11
2509.4908999233821305
 21
3234.6978714675001356
 31
0.0
  0
LINE
  5
2694
  8
VISIBLE
 10
2574.3231422435242166
 20
3234.6978714675001356
 30
0.0
 11
2583.0105344764770052
 21
3220.6978714675369702
 31
0.0
  0
LINE
  5
2695
  8
VISIBLE
 10
2509.4908999233821305
 20
2812.6978714675001356
 30
0.0
 11
2501.7963525168020169
 21
2825.0978714678781216
 31
0.0
  0
LINE
  5
2696
  8
VISIBLE
 10
3499.4570210835099715
 20
2906.7007591750789288
 30
0.0
 11
3417.8541333763041621
 21
2825.0978714678740289
 31
0.0
  0
LINE
  5
2697
  8
VISIBLE
 10
3499.4570210835117905
 20
3220.6978714678730285
 30
0.0
 11
3499.4570210835099715
 21
2906.7007591750789288
 31
0.0
  0
LINE
  5
2698
  8
VISIBLE
 10
2454.6599087907170542
 20
2825.0978714678781216
 30
0.0
 11
2373.05702108351079
 21
2906.7007591750862048
 31
0.0
  0
LINE
  5
2699
  8
VISIBLE
 10
2373.05702108351079
 20
2906.7007591750862048
 30
0.0
 11
2373.05702108351079
 21
3220.6978714678789402
 31
0.0
  0
LINE
  5
269A
  8
VISIBLE
 10
2373.05702108351079
 20
3220.6978714678789402
 30
0.0
 11
3499.4570210835117905
 21
3220.6978714678730285
 31
0.0
  0
LINE
  5
269B
  8
VISIBLE
 10
3417.8541333763041621
 20
2825.0978714678740289
 30
0.0
 11
2454.6599087907170542
 21
2825.0978714678781216
 31
0.0
  0
ARC
  5
269C
  8
VISIBLE
 10
3330.607021083453219
 20
3224.6978714675001356
 30
0.0
 40
5.9999999999999867
 50
318.1896851042039884
 51
0.0
  0
ARC
  5
269D
  8
VISIBLE
 10
3330.607021083453219
 20
3224.6978714675001356
 30
0.0
 40
5.999999999999976
 50
180.0
 51
221.8103148957960116
  0
ARC
  5
269E
  8
VISIBLE
 10
3330.6070210834541285
 20
2822.6978714675001356
 30
0.0
 40
6.0000000000000151
 50
180.0
 51
0.0
  0
LINE
  5
269F
  8
VISIBLE
 10
3298.1908999233819486
 20
3234.6978714675001356
 30
0.0
 11
3324.607021083453219
 21
3234.6978714675001356
 31
0.0
  0
LINE
  5
26A0
  8
VISIBLE
 10
3363.0231422435240347
 20
2812.6978714675001356
 30
0.0
 11
3298.1908999233819486
 21
2812.6978714675001356
 31
0.0
  0
LINE
  5
26A1
  8
VISIBLE
 10
3336.6070210834518548
 20
3234.6978714675001356
 30
0.0
 11
3363.0231422435231252
 21
3234.6978714675001356
 31
0.0
  0
LINE
  5
26A2
  8
VISIBLE
 10
3370.7176896498399401
 20
2825.0978714675029551
 30
0.0
 11
3363.0231422435240347
 21
2812.6978714675001356
 31
0.0
  0
LINE
  5
26A3
  8
VISIBLE
 10
3289.5035076905160167
 20
3220.6978714675051378
 30
0.0
 11
3298.1908999233819486
 21
3234.6978714675001356
 31
0.0
  0
LINE
  5
26A4
  8
VISIBLE
 10
3363.0231422435231252
 20
3234.6978714675001356
 30
0.0
 11
3371.7105344764809161
 21
3220.6978714675328774
 31
0.0
  0
LINE
  5
26A5
  8
VISIBLE
 10
3298.1908999233819486
 20
2812.6978714675001356
 30
0.0
 11
3290.4963525171001493
 21
2825.0978714673960894
 31
0.0
  0
LINE
  5
26AA
  8
VISIBLE
 10
4704.8311742034802592
 20
586.8861884363208219
 30
0.0
 11
4704.7463779491718014
 21
1807.2361884363119771
 31
0.0
  0
LINE
  5
26AC
  8
VISIBLE
 10
4424.7462209185450774
 20
585.936188436320549
 30
0.0
 11
4413.1462209187011467
 21
585.9361884363194122
 31
0.0
  0
LINE
  5
26AD
  8
VISIBLE
 10
4413.1462209185410757
 20
1821.2361884363128866
 30
0.0
 11
4808.746220918542349
 21
1821.2361884363128866
 31
0.0
  0
LINE
  5
26AE
  8
VISIBLE
 10
4808.746220918542349
 20
1821.2361884363128866
 30
0.0
 11
4808.746220918542349
 21
586.8861884363210493
 31
0.0
  0
LINE
  5
26AF
  8
VISIBLE
 10
4413.1462209187011467
 20
585.9361884363192985
 30
0.0
 11
4413.1462209185410757
 21
1821.2361884363128866
 31
0.0
  0
LINE
  5
26B0
  8
VISIBLE
 10
4413.1462209185428947
 20
1807.2361884363119771
 30
0.0
 11
4808.746220918542349
 21
1807.2361884363119771
 31
0.0
  0
LINE
  5
26B1
  8
VISIBLE
 10
4729.2462209185450774
 20
1807.2361884363119771
 30
0.0
 11
4729.2462209185450774
 21
586.8861884363208219
 31
0.0
  0
LINE
  5
26B3
  8
VISIBLE
 10
4808.746220918542349
 20
586.8861884363208219
 30
0.0
 11
4497.7935783091943449
 21
586.8861884363208219
 31
0.0
  0
LINE
  5
26B4
  8
VISIBLE
 10
4497.7935783091943449
 20
586.8861884363208219
 30
0.0
 11
4413.1462209187011467
 21
586.8058629123918308
 31
0.0
  0
LINE
  5
26B5
  8
VISIBLE
 10
4822.7462209185459869
 20
551.3361884363204126
 30
0.0
 11
4400.7462209185432584
 21
551.3361884363204126
 31
0.0
  0
LINE
  5
26B6
  8
VISIBLE
 10
4424.7462209185450774
 20
586.8146740397503436
 30
0.0
 11
4424.7462209185450774
 21
585.3361884363207537
 31
0.0
  0
LINE
  5
26B7
  8
VISIBLE
 10
4424.7462209185432584
 20
585.3361884363204126
 30
0.0
 11
4424.7462209185396205
 21
580.3972686230564477
 31
0.0
  0
LINE
  5
26B8
  8
VISIBLE
 10
4400.7462209185432584
 20
553.5301764110124623
 30
0.0
 11
4424.7462209185396205
 21
580.3972686230564477
 31
0.0
  0
LINE
  5
26B9
  8
VISIBLE
 10
4798.7462209185432584
 20
585.3361884363207537
 30
0.0
 11
4798.7462209185432584
 21
586.8861884363208219
 31
0.0
  0
LINE
  5
26BA
  8
VISIBLE
 10
4798.7462209185378015
 20
580.3972686230655427
 30
0.0
 11
4798.7462209185432584
 21
585.3361884363204126
 31
0.0
  0
LINE
  5
26BB
  8
VISIBLE
 10
4798.7462209185378015
 20
580.3972686230655427
 30
0.0
 11
4822.7462209185459869
 21
553.5301764110124623
 31
0.0
  0
LINE
  5
26BC
  8
VISIBLE
 10
4798.7462209185432584
 20
585.3361884363207537
 30
0.0
 11
4424.7462209185450774
 21
585.3361884363207537
 31
0.0
  0
CIRCLE
  5
26C3
  8
0
 10
2774.3570210830612268
 20
1502.0861884363209811
 30
0.0
 40
263.75
  0
LINE
  5
26C4
  8
0
 10
3102.057021083050131
 20
586.8861884363208219
 30
0.0
 11
3097.0570210830601354
 21
586.8861884363208219
 31
0.0
  0
CIRCLE
  5
26C5
  8
0
 10
2774.3570210830589531
 20
906.0861884363212084
 30
0.0
 40
263.75
  0
LINE
  5
26C6
  8
0
 10
2535.9070210834529462
 20
3224.6978714675001356
 30
0.0
 11
2535.9070210834529462
 21
3234.6978714675001356
 31
0.0
  0
LINE
  5
26C7
  8
0
 10
2547.9070210834529462
 20
3224.6978714675001356
 30
0.0
 11
2547.9070210834529462
 21
3234.6978714675001356
 31
0.0
  0
LINE
  5
26C8
  8
0
 10
3324.607021083453219
 20
3224.6978714675001356
 30
0.0
 11
3324.607021083453219
 21
3234.6978714675001356
 31
0.0
  0
LINE
  5
26C9
  8
0
 10
3336.6070210834518548
 20
3224.6978714675001356
 30
0.0
 11
3336.6070210834518548
 21
3234.6978714675001356
 31
0.0
  0
LINE
  5
26CA
  8
0
 10
2535.9070210834529462
 20
2822.6978714675001356
 30
0.0
 11
2535.9070210834529462
 21
2825.0978714678781216
 31
0.0
  0
LINE
  5
26CB
  8
0
 10
2547.9070210834529462
 20
2822.6978714675001356
 30
0.0
 11
2547.9070210834529462
 21
2825.0978714678781216
 31
0.0
  0
LINE
  5
26CC
  8
0
 10
3324.607021083453219
 20
2822.6978714675001356
 30
0.0
 11
3324.607021083453219
 21
2825.0978714678749384
 31
0.0
  0
LINE
  5
26CD
  8
0
 10
3336.6070210834541285
 20
2822.6978714675001356
 30
0.0
 11
3336.6070210834541285
 21
2825.0978714678740289
 31
0.0
  0
LINE
  5
26CE
  8
0
 10
4400.7462209185432584
 20
551.3361884363204126
 30
0.0
 11
4400.7462209185432584
 21
553.5301764110124623
 31
0.0
  0
LINE
  5
26CF
  8
0
 10
4822.7462209185459869
 20
551.3361884363204126
 30
0.0
 11
4822.7462209185459869
 21
553.5301764110124623
 31
0.0
  0
LINE
  5
2809
  8
0
 62
     7
 10
2964.7896230688970718
 20
3160.3410271292641482
 30
0.0
 11
2936.2570210835101534
 21
3128.167794502076049
 31
0.0
  0
LINE
  5
280A
  8
0
 62
     7
 10
2926.2070471059828378
 20
3177.8068279682761386
 30
0.0
 11
2946.3069950610379237
 21
3177.8068279682761386
 31
0.0
  0
LINE
  5
280B
  8
0
 62
     7
 10
2946.3069950610379237
 20
3177.8068279682761386
 30
0.0
 11
2946.3069950610379237
 21
3160.341027129260965
 31
0.0
  0
LINE
  5
280C
  8
0
 62
     7
 10
2946.3069950610379237
 20
3160.341027129260965
 30
0.0
 11
2964.7896230688970718
 21
3160.3410271292641482
 31
0.0
  0
LINE
  5
280D
  8
0
 62
     7
 10
2907.7244190981277825
 20
3160.3410271292641482
 30
0.0
 11
2936.2570210835101534
 21
3128.167794502076049
 31
0.0
  0
LINE
  5
280E
  8
0
 62
     7
 10
2926.2070471059828378
 20
3177.8068279682761386
 30
0.0
 11
2926.2070471059828378
 21
3160.341027129260965
 31
0.0
  0
LINE
  5
280F
  8
0
 62
     7
 10
2926.2070471059828378
 20
3160.341027129260965
 30
0.0
 11
2907.7244190981277825
 21
3160.3410271292641482
 31
0.0
  0
LINE
  5
281B
  8
0
 62
     7
 10
2964.8601422179272049
 20
2899.6505544027650103
 30
0.0
 11
2936.3275402325421055
 21
2867.4773217755760015
 31
0.0
  0
LINE
  5
281C
  8
0
 62
     7
 10
2926.2775662550147899
 20
2917.1163552417751816
 30
0.0
 11
2946.3775142100698758
 21
2917.1163552417751816
 31
0.0
  0
LINE
  5
281D
  8
0
 62
     7
 10
2946.3775142100698758
 20
2917.1163552417751816
 30
0.0
 11
2946.3775142100698758
 21
2899.6505544027609176
 31
0.0
  0
LINE
  5
281E
  8
0
 62
     7
 10
2946.3775142100698758
 20
2899.6505544027609176
 30
0.0
 11
2964.8601422179272049
 21
2899.6505544027650103
 31
0.0
  0
LINE
  5
281F
  8
0
 62
     7
 10
2907.7949382471588251
 20
2899.6505544027650103
 30
0.0
 11
2936.3275402325421055
 21
2867.4773217755760015
 31
0.0
  0
LINE
  5
2820
  8
0
 62
     7
 10
2926.2775662550147899
 20
2917.1163552417751816
 30
0.0
 11
2926.2775662550147899
 21
2899.6505544027609176
 31
0.0
  0
LINE
  5
2821
  8
0
 62
     7
 10
2926.2775662550147899
 20
2899.6505544027609176
 30
0.0
 11
2907.7949382471588251
 21
2899.6505544027650103
 31
0.0
  0
TEXT
  5
2827
  8
OUTLINE
 10
2643.4156465378841858
 20
2992.9319243319500856
 30
0.0
 40
60.0
  1
OSA 211RLTFH
  7
TITLE5
  0
TEXT
  5
2879
  8
0
 62
     7
 10
1731.892746713095903
 20
-17.7244608406270601
 30
0.0
 40
33.5999999999967329
  1
available on request
  7
TITLE3
  0
TEXT
  5
287A
  8
0
 62
     7
 10
1731.892746713095903
 20
39.8755391593672428
 30
0.0
 40
33.5999999999967329
  1
Certified dimensions
  7
TITLE3
  0
TEXT
  5
287B
  8
0
 62
     7
 10
1731.892746713095903
 20
97.4755391593616025
 30
0.0
 40
33.5999999999967329
  1
without notice or obligation.
  7
TITLE3
  0
TEXT
  5
287C
  8
0
 62
     7
 10
1731.892746713095903
 20
155.0755391593559125
 30
0.0
 40
33.5999999999967329
  1
specifications at any time
  7
TITLE3
  0
TEXT
  5
287D
  8
0
 62
     7
 10
1731.892746713095903
 20
212.675539159350393
 30
0.0
 40
33.5999999999967329
  1
the right to change 
  7
TITLE3
  0
TEXT
  5
287E
  8
0
 62
     7
 10
1731.892746713095903
 20
327.875539159338814
 30
0.0
 40
33.5999999999967329
  1
NOTE
  7
TITLE3
  0
TEXT
  5
287F
  8
0
 62
     7
 10
1731.892746713095903
 20
270.275539159344703
 30
0.0
 40
33.5999999999967329
  1
The manufacturer reserves
  7
TITLE3
  0
LINE
  5
2946
  8
0
 62
     7
 10
4774.793094404240037
 20
1168.5285864509310159
 30
0.0
 11
4742.6198617770496639
 21
1197.0611884363158879
 31
0.0
  0
LINE
  5
2947
  8
0
 62
     7
 10
4792.2588952432515725
 20
1207.1111624138429761
 30
0.0
 11
4792.2588952432515725
 21
1187.011214458789027
 31
0.0
  0
LINE
  5
2948
  8
0
 62
     7
 10
4792.2588952432515725
 20
1187.011214458789027
 30
0.0
 11
4774.7930944042373085
 21
1187.011214458789027
 31
0.0
  0
LINE
  5
2949
  8
0
 62
     7
 10
4774.7930944042373085
 20
1187.011214458789027
 30
0.0
 11
4774.793094404240037
 21
1168.5285864509310159
 31
0.0
  0
LINE
  5
294A
  8
0
 62
     7
 10
4774.793094404240037
 20
1225.5937904216980314
 30
0.0
 11
4742.6198617770496639
 21
1197.0611884363158879
 31
0.0
  0
LINE
  5
294B
  8
0
 62
     7
 10
4792.2588952432515725
 20
1207.1111624138429761
 30
0.0
 11
4774.7930944042373085
 21
1207.1111624138429761
 31
0.0
  0
LINE
  5
294C
  8
0
 62
     7
 10
4774.7930944042373085
 20
1207.1111624138429761
 30
0.0
 11
4774.793094404240037
 21
1225.5937904216980314
 31
0.0
  0
ENDSEC
  0
EOF
