  0
SECTION
  2
HEADER
  9
$ACADVER
  1
AC1009
  9
$INSBASE
 10
0.0
 20
0.0
 30
0.0
  9
$EXTMIN
 10
271.1537830175503245
 20
-0.20352005825589
 30
-0.0000000000000053
  9
$EXTMAX
 10
3890.0000633996592114
 20
2668.5147540305138136
 30
0.0000000000000099
  9
$LIMMIN
 10
0.0
 20
0.0
  9
$LIMMAX
 10
3890.0
 20
2660.0
  9
$ORTHOMODE
 70
     1
  9
$REGENMODE
 70
     1
  9
$FILLMODE
 70
     1
  9
$QTEXTMODE
 70
     0
  9
$MIRRTEXT
 70
     0
  9
$DRAGMODE
 70
     2
  9
$LTSCALE
 40
100.0
  9
$OSMODE
 70
  4095
  9
$ATTMODE
 70
     1
  9
$TEXTSIZE
 40
25.0
  9
$TRACEWID
 40
0.05
  9
$TEXTSTYLE
  7
TITLE3
  9
$CLAYER
  8
AM_5
  9
$CELTYPE
  6
BYLAYER
  9
$CECOLOR
 62
   256
  9
$DIMSCALE
 40
1.0
  9
$DIMASZ
 40
0.12
  9
$DIMEXO
 40
0.05
  9
$DIMDLI
 40
0.5
  9
$DIMRND
 40
0.0
  9
$DIMDLE
 40
0.0
  9
$DIMEXE
 40
0.1
  9
$DIMTP
 40
0.1
  9
$DIMTM
 40
0.1
  9
$DIMTXT
 40
0.12
  9
$DIMCEN
 40
0.0
  9
$DIMTSZ
 40
0.0
  9
$DIMTOL
 70
     0
  9
$DIMLIM
 70
     0
  9
$DIMTIH
 70
     1
  9
$DIMTOH
 70
     1
  9
$DIMSE1
 70
     0
  9
$DIMSE2
 70
     0
  9
$DIMTAD
 70
     0
  9
$DIMZIN
 70
     7
  9
$DIMBLK
  1

  9
$DIMASO
 70
     0
  9
$DIMSHO
 70
     0
  9
$DIMPOST
  1

  9
$DIMAPOST
  1
mm
  9
$DIMALT
 70
     0
  9
$DIMALTD
 70
     2
  9
$DIMALTF
 40
25.3999999999999986
  9
$DIMLFAC
 40
1.0
  9
$DIMTOFL
 70
     0
  9
$DIMTVP
 40
0.0
  9
$DIMTIX
 70
     0
  9
$DIMSOXD
 70
     0
  9
$DIMSAH
 70
     0
  9
$DIMBLK1
  1

  9
$DIMBLK2
  1

  9
$DIMSTYLE
  2
AM_ANSI
  9
$DIMCLRD
 70
   256
  9
$DIMCLRE
 70
   256
  9
$DIMCLRT
 70
     2
  9
$DIMTFAC
 40
0.71
  9
$DIMGAP
 40
0.06
  9
$LUNITS
 70
     2
  9
$LUPREC
 70
     2
  9
$SKETCHINC
 40
0.1
  9
$FILLETRAD
 40
0.0
  9
$AUNITS
 70
     0
  9
$AUPREC
 70
     2
  9
$MENU
  1
\acad12\support\cnc
  9
$ELEVATION
 40
0.0
  9
$PELEVATION
 40
0.0
  9
$THICKNESS
 40
0.0
  9
$LIMCHECK
 70
     0
  9
$BLIPMODE
 70
     0
  9
$CHAMFERA
 40
0.0
  9
$CHAMFERB
 40
0.0
  9
$SKPOLY
 70
     0
  9
$TDCREATE
 40
2450764.4272453710436821
  9
$TDUPDATE
 40
2458892.4400578709319234
  9
$TDINDWG
 40
1.4402629977000001
  9
$TDUSRTIMER
 40
1.4402565624999999
  9
$USRTIMER
 70
     1
  9
$ANGBASE
 50
0.0
  9
$ANGDIR
 70
     0
  9
$PDMODE
 70
     2
  9
$PDSIZE
 40
10.0
  9
$PLINEWID
 40
0.0
  9
$COORDS
 70
     1
  9
$SPLFRAME
 70
     0
  9
$SPLINETYPE
 70
     6
  9
$SPLINESEGS
 70
     8
  9
$ATTDIA
 70
     1
  9
$ATTREQ
 70
     1
  9
$HANDLING
 70
     1
  9
$HANDSEED
  5
8350
  9
$SURFTAB1
 70
     6
  9
$SURFTAB2
 70
     6
  9
$SURFTYPE
 70
     6
  9
$SURFU
 70
     6
  9
$SURFV
 70
     6
  9
$UCSNAME
  2

  9
$UCSORG
 10
0.0
 20
0.0
 30
0.0
  9
$UCSXDIR
 10
1.0
 20
0.0
 30
0.0
  9
$UCSYDIR
 10
0.0
 20
1.0
 30
0.0
  9
$PUCSNAME
  2

  9
$PUCSORG
 10
0.0
 20
0.0
 30
0.0
  9
$PUCSXDIR
 10
1.0
 20
0.0
 30
0.0
  9
$PUCSYDIR
 10
0.0
 20
1.0
 30
0.0
  9
$USERI1
 70
     0
  9
$USERI2
 70
     0
  9
$USERI3
 70
     0
  9
$USERI4
 70
     0
  9
$USERI5
 70
     0
  9
$USERR1
 40
0.0
  9
$USERR2
 40
0.0
  9
$USERR3
 40
0.0
  9
$USERR4
 40
0.0
  9
$USERR5
 40
0.0
  9
$WORLDVIEW
 70
     1
  9
$SHADEDGE
 70
     3
  9
$SHADEDIF
 70
    70
  9
$TILEMODE
 70
     1
  9
$MAXACTVP
 70
    16
  9
$PLIMCHECK
 70
     0
  9
$PEXTMIN
 10
1.0000000000000000E+20
 20
1.0000000000000000E+20
 30
1.0000000000000000E+20
  9
$PEXTMAX
 10
-1.0000000000000000E+20
 20
-1.0000000000000000E+20
 30
-1.0000000000000000E+20
  9
$PLIMMIN
 10
0.0
 20
0.0
  9
$PLIMMAX
 10
12.0
 20
9.0
  9
$UNITMODE
 70
     0
  9
$VISRETAIN
 70
     0
  9
$PLINEGEN
 70
     0
  9
$PSLTSCALE
 70
     0
  0
ENDSEC
  0
SECTION
  2
TABLES
  0
TABLE
  2
VPORT
 70
     1
  0
VPORT
  2
*ACTIVE
 70
     0
 10
0.0
 20
0.0
 11
1.0
 21
1.0
 12
-828.7450718190347061
 22
269.2139479584337209
 13
0.0
 23
0.0
 14
25.0
 24
25.0
 15
100.0
 25
100.0
 16
0.0
 26
0.0
 36
1.0
 17
2909.3219950276388772
 27
1064.9416690276950703
 37
-0.7257469300703157
 40
2685.9358113409548423
 41
1.6264800861141011
 42
50.0
 43
0.0
 44
0.0
 50
0.0
 51
0.0
 71
     0
 72
   100
 73
     1
 74
     0
 75
     0
 76
     0
 77
     0
 78
     0
  0
ENDTAB
  0
TABLE
  2
LTYPE
 70
    12
  0
LTYPE
  2
CONTINUOUS
 70
     0
  3
Solid line
 72
    65
 73
     0
 40
0.0
  0
LTYPE
  2
PHANTOM2
 70
     0
  3
Phantom (.5x) ___ _ _ ___ _ _ ___ _ _ ___ _ _
 72
    65
 73
     6
 40
1.25
 49
0.625
 49
-0.125
 49
0.125
 49
-0.125
 49
0.125
 49
-0.125
  0
LTYPE
  2
PHANTOM
 70
     0
  3
Phantom ______  __  __  ______  __  __  ______
 72
    65
 73
     6
 40
2.5
 49
1.25
 49
-0.25
 49
0.25
 49
-0.25
 49
0.25
 49
-0.25
  0
LTYPE
  2
HIDDEN
 70
     0
  3
__ __ __ __ __ __ __ __ __ __ __ __ __ __ __ __
 72
    65
 73
     2
 40
0.375
 49
0.25
 49
-0.125
  0
LTYPE
  2
DASHED
 70
     0
  3
Dashed __ __ __ __ __ __ __ __ __ __ __ __ __ _
 72
    65
 73
     2
 40
0.75
 49
0.5
 49
-0.25
  0
LTYPE
  2
DOT
 70
     0
  3
Dot . . . . . . . . . . . . . . . . . . . . . .
 72
    65
 73
     2
 40
0.25
 49
0.0
 49
-0.25
  0
LTYPE
  2
CENTER
 70
     0
  3
Center ____ _ ____ _ ____ _ ____ _ ____ _ ____
 72
    65
 73
     4
 40
2.0
 49
1.25
 49
-0.25
 49
0.25
 49
-0.25
  0
LTYPE
  2
CENTER2
 70
     0
  3
Center (.5x) ___ _ ___ _ ___ _ ___ _ ___ _ ___
 72
    65
 73
     4
 40
1.125
 49
0.75
 49
-0.125
 49
0.125
 49
-0.125
  0
LTYPE
  2
HIDDEN2
 70
     0
  3
Hidden (.5x) _ _ _ _ _ _ _ _ _ _ _ _ _ _ _ _ _
 72
    65
 73
     2
 40
0.1875
 49
0.125
 49
-0.0625
  0
LTYPE
  2
ACANSTGB
 70
     0
  3
__ . . __ . .
 72
    65
 73
     6
 40
0.35433070866
 49
0.15748031496
 49
-0.03937007874
 49
0.03937007874
 49
-0.03937007874
 49
0.03937007874
 49
-0.03937007874
  0
LTYPE
  2
ACANSTGL
 70
     0
  3
_ _ _ _ _
 72
    65
 73
     2
 40
0.11811023622
 49
0.07874015748
 49
-0.03937007874
  0
ENDTAB
  0
TABLE
  2
LAYER
 70
     2
  0
LAYER
  2
0
 70
     0
 62
     7
  6
CONTINUOUS
  0
LAYER
  2
AM_5
 70
     0
 62
     3
  6
CONTINUOUS
  0
ENDTAB
  0
TABLE
  2
STYLE
 70
     7
  0
STYLE
  2
STANDARD
 70
     0
 40
0.0
 41
1.0
 50
0.0
 71
     0
 42
0.2
  3
txt
  4

  0
STYLE
  2
ANNOTATIVE
 70
     0
 40
0.0
 41
1.0
 50
0.0
 71
     0
 42
0.2
  3
txt
  4

  0
STYLE
  2
TITLE3
 70
     0
 40
25.0
 41
1.0
 50
0.0
 71
     0
 42
25.0
  3
SIMPLEX.shx
  4

  0
STYLE
  2
SIMPLEX
 70
     0
 40
40.0
 41
1.0
 50
0.0
 71
     0
 42
25.0
  3
SIMPLEX
  4

  0
STYLE
  2
TITLE5
 70
     0
 40
25.0
 41
1.0
 50
0.0
 71
     0
 42
25.0
  3
SIMPLEX
  4

  0
STYLE
  2
ACANSTS
 70
     0
 40
1.0
 41
1.0
 50
0.0
 71
     0
 42
25.0
  3
romans.shx
  4

  0
STYLE
  2
ACANSGDT
 70
     0
 40
0.0
 41
1.0
 50
0.0
 71
     0
 42
25.0
  3
amgdt.shx
  4

  0
ENDTAB
  0
TABLE
  2
VIEW
 70
     0
  0
ENDTAB
  0
TABLE
  2
UCS
 70
     0
  0
ENDTAB
  0
TABLE
  2
APPID
 70
    35
  0
APPID
  2
ACAD
 70
     0
  0
APPID
  2
ACADANNOTATIVE
 70
     0
  0
APPID
  2
ACAD_MLEADERVER
 70
     0
  0
APPID
  2
ACAD_EXEMPT_FROM_CAD_STANDARDS
 70
     0
  0
APPID
  2
ACAECLAYERSTANDARD
 70
     0
  0
APPID
  2
ACAD_DSTYLE_DIMTEXT_FILL
 70
     0
  0
APPID
  2
ACAD_DSTYLE_DIMEXT_LENGTH
 70
     0
  0
APPID
  2
ACAD_DSTYLE_DIMEXT_ENABLED
 70
     0
  0
APPID
  2
ACAD_DSTYLE_DIM_LINETYPE
 70
     0
  0
APPID
  2
ACAD_DSTYLE_DIM_EXT1_LINETYPE
 70
     0
  0
APPID
  2
ACAD_DSTYLE_DIM_EXT2_LINETYPE
 70
     0
  0
APPID
  2
ACAD_DSTYLE_DIMJOGGED_JOGA
 70
     0
  0
APPID
  2
ACAD_DSTYLE_DIMARC_LENGTH_
 70
     0
  0
APPID
  2
ACAD_PSEXT
 70
     0
  0
APPID
  2
CONTENTBLOCKICON
 70
     0
  0
APPID
  2
GENIUS_GENDIM_13
 70
     0
  0
APPID
  2
GENIUS_GENDTOL_13
 70
     0
  0
APPID
  2
GENIUS_GE3DTOL_13
 70
     0
  0
APPID
  2
MCAD_NO_VIS
 70
     0
  0
APPID
  2
ACAD_TEMP_GRAPHIC
 70
     0
  0
APPID
  2
AD_DRAW
 70
     0
  0
APPID
  2
ACATTRIBSERVICES
 70
     0
  0
APPID
  2
ASURF_PCURVE_APPNAME
 70
     0
  0
APPID
  2
AMG_3D2D_5_0
 70
     0
  0
APPID
  2
DESIGNERASSEMBLIES
 70
     0
  0
APPID
  2
ACADM_DIM_EDIT
 70
     0
  0
APPID
  2
AMDT_DM_ADJ
 70
     0
  0
APPID
  2
AMG_3D2D_5_00
 70
     0
  0
APPID
  2
AMG_3D2D_5_01
 70
     0
  0
APPID
  2
ACAD_DSTYLE_DIMBREAK
 70
     0
  0
APPID
  2
ACAD_DSTYLE_DIMJAG
 70
     0
  0
APPID
  2
ACAD_NAV_VCDISPLAY
 70
     0
  0
APPID
  2
GENIUS_GENREC_14
 70
     0
  0
APPID
  2
GENIUS_GENODEF_13
 70
     0
  0
APPID
  2
GENIUS_GENOBJ-N-REC_13
 70
     0
  0
ENDTAB
  0
TABLE
  2
DIMSTYLE
 70
     9
  0
DIMSTYLE
  2
STANDARD
 70
     0
  3

  4

  5

  6

  7

 40
1.0
 41
0.18
 42
0.0625
 43
0.38
 44
0.18
 45
0.0
 46
0.0
 47
0.0
 48
0.0
140
0.18
141
0.09
142
0.0
143
25.3999999999999986
144
1.0
145
0.0
146
1.0
147
0.09
 71
     0
 72
     0
 73
     1
 74
     1
 75
     0
 76
     0
 77
     0
 78
     0
170
     0
171
     2
172
     0
173
     0
174
     0
175
     0
176
     0
177
     0
178
     0
  0
DIMSTYLE
  2
ANNOTATIVE
 70
     0
  3

  4

  5

  6

  7

 40
1.0
 41
0.18
 42
0.0625
 43
0.38
 44
0.18
 45
0.0
 46
0.0
 47
0.0
 48
0.0
140
0.18
141
0.09
142
0.0
143
25.3999999999999986
144
1.0
145
0.0
146
1.0
147
0.09
 71
     0
 72
     0
 73
     1
 74
     1
 75
     0
 76
     0
 77
     0
 78
     0
170
     0
171
     2
172
     0
173
     0
174
     0
175
     0
176
     0
177
     0
178
     0
  0
DIMSTYLE
  2
AM_ANSI
 70
     0
  3

  4
mm
  5

  6

  7

 40
1.0
 41
0.12
 42
0.05
 43
0.5
 44
0.1
 45
0.0
 46
0.0
 47
0.1
 48
0.1
140
0.12
141
0.0
142
0.0
143
25.3999999999999986
144
1.0
145
0.0
146
0.71
147
0.06
 71
     0
 72
     0
 73
     1
 74
     1
 75
     0
 76
     0
 77
     0
 78
     7
170
     0
171
     2
172
     0
173
     0
174
     0
175
     0
176
   256
177
   256
178
     2
  0
DIMSTYLE
  2
AM_ANSI$3
 70
     0
  3

  4
mm
  5

  6

  7

 40
1.0
 41
0.12
 42
0.05
 43
0.5
 44
0.1
 45
0.0
 46
0.0
 47
0.1
 48
0.1
140
0.12
141
0.0
142
0.0
143
25.3999999999999986
144
1.0
145
0.0
146
0.71
147
0.06
 71
     0
 72
     0
 73
     1
 74
     1
 75
     0
 76
     0
 77
     0
 78
     7
170
     0
171
     2
172
     0
173
     0
174
     0
175
     0
176
   256
177
   256
178
     2
  0
DIMSTYLE
  2
AM_ANSI$4
 70
     0
  3

  4
mm
  5

  6

  7

 40
1.0
 41
0.12
 42
0.05
 43
0.5
 44
0.1
 45
0.0
 46
0.0
 47
0.1
 48
0.1
140
0.12
141
0.0
142
0.0
143
25.3999999999999986
144
1.0
145
0.0
146
0.71
147
0.06
 71
     0
 72
     0
 73
     1
 74
     1
 75
     0
 76
     0
 77
     0
 78
     7
170
     0
171
     2
172
     0
173
     0
174
     0
175
     0
176
   256
177
   256
178
     2
  0
DIMSTYLE
  2
AM_ANSI$7
 70
     0
  3

  4
mm
  5

  6

  7

 40
1.0
 41
0.12
 42
0.05
 43
0.5
 44
0.1
 45
0.0
 46
0.0
 47
0.1
 48
0.1
140
0.12
141
0.0
142
0.0
143
25.3999999999999986
144
1.0
145
0.0
146
0.71
147
0.06
 71
     0
 72
     0
 73
     1
 74
     1
 75
     0
 76
     0
 77
     0
 78
     7
170
     0
171
     2
172
     0
173
     0
174
     0
175
     0
176
   256
177
   256
178
     2
  0
DIMSTYLE
  2
AM_ANSI$SF
 70
     0
  3

  4
mm
  5

  6

  7

 40
1.0
 41
0.12
 42
0.05
 43
0.5
 44
0.1
 45
0.0
 46
0.0
 47
0.1
 48
0.1
140
0.12
141
0.0
142
0.0
143
25.3999999999999986
144
1.0
145
0.0
146
0.71
147
0.06
 71
     0
 72
     0
 73
     1
 74
     1
 75
     1
 76
     1
 77
     0
 78
     7
170
     0
171
     2
172
     0
173
     0
174
     0
175
     0
176
   256
177
   256
178
     2
  0
DIMSTYLE
  2
AM_ANSI$SH
 70
     0
  3

  4
mm
  5

  6

  7

 40
1.0
 41
0.12
 42
0.05
 43
0.5
 44
0.1
 45
0.0
 46
0.0
 47
0.1
 48
0.1
140
0.12
141
0.0
142
0.0
143
25.3999999999999986
144
1.0
145
0.0
146
0.71
147
0.06
 71
     0
 72
     0
 73
     1
 74
     1
 75
     1
 76
     1
 77
     0
 78
     7
170
     0
171
     2
172
     0
173
     1
174
     0
175
     0
176
   256
177
   256
178
     2
  0
ENDTAB
  0
ENDSEC
  0
SECTION
  2
BLOCKS
  0
BLOCK
  8
0
  2
$MODEL_SPACE
 70
     0
 10
0.0
 20
0.0
 30
0.0
  3
$MODEL_SPACE
  1

  0
ENDBLK
  5
82A1
  8
0
  0
BLOCK
 67
     1
  8
0
  2
$PAPER_SPACE
 70
     0
 10
0.0
 20
0.0
 30
0.0
  3
$PAPER_SPACE
  1

  0
ENDBLK
  5
829D
 67
     1
  8
0
  0
BLOCK
  8
0
  2
GENAXEH
 70
     0
 10
0.0
 20
0.0
 30
0.0
  3
GENAXEH
  1

  0
LINE
  5
699B
  8
0
 10
-1.0
 20
0.0
 30
0.0
 11
1.0
 21
0.0
 31
0.0
  0
ENDBLK
  5
699D
  8
0
  0
ENDSEC
  0
SECTION
  2
ENTITIES
  0
LINE
  5
23F5
  8
0
 62
     7
 10
1703.9905781516110892
 20
2304.9584724746077882
 30
0.0
 11
1675.4579761662259898
 21
2272.7852398474201436
 31
0.0
  0
LINE
  5
23F7
  8
0
 62
     7
 10
1665.4080021886989016
 20
2322.4242733136197785
 30
0.0
 11
1685.5079501437539875
 21
2322.4242733136197785
 31
0.0
  0
LINE
  5
23F8
  8
0
 62
     7
 10
1685.5079501437539875
 20
2322.4242733136197785
 30
0.0
 11
1685.5079501437539875
 21
2304.9584724746059692
 31
0.0
  0
LINE
  5
23F9
  8
0
 62
     7
 10
1685.5079501437539875
 20
2304.9584724746059692
 30
0.0
 11
1703.9905781516110892
 21
2304.9584724746077882
 31
0.0
  0
LINE
  5
23FD
  8
0
 62
     7
 10
1646.9253741808429368
 20
2304.9584724746077882
 30
0.0
 11
1675.4579761662259898
 21
2272.7852398474201436
 31
0.0
  0
LINE
  5
23FE
  8
0
 62
     7
 10
1665.4080021886989016
 20
2322.4242733136197785
 30
0.0
 11
1665.4080021886989016
 21
2304.9584724746059692
 31
0.0
  0
LINE
  5
23FF
  8
0
 62
     7
 10
1665.4080021886989016
 20
2304.9584724746059692
 30
0.0
 11
1646.9253741808429368
 21
2304.9584724746077882
 31
0.0
  0
LINE
  5
2400
  8
0
 62
     7
 10
1703.9905781516110892
 20
1741.9420020940319773
 30
0.0
 11
1675.4579761662259898
 21
1709.7687694668450149
 31
0.0
  0
LINE
  5
2401
  8
0
 62
     7
 10
1665.4080021886989016
 20
1759.4078029330419213
 30
0.0
 11
1685.507950143754897
 21
1759.4078029330419213
 31
0.0
  0
LINE
  5
2402
  8
0
 62
     7
 10
1685.507950143754897
 20
1759.4078029330419213
 30
0.0
 11
1685.507950143754897
 21
1741.9420020940319773
 31
0.0
  0
LINE
  5
2403
  8
0
 62
     7
 10
1685.507950143754897
 20
1741.9420020940319773
 30
0.0
 11
1703.9905781516110892
 21
1741.9420020940319773
 31
0.0
  0
LINE
  5
2404
  8
0
 62
     7
 10
1646.9253741808420273
 20
1741.9420020940319773
 30
0.0
 11
1675.4579761662259898
 21
1709.7687694668450149
 31
0.0
  0
LINE
  5
2405
  8
0
 62
     7
 10
1665.4080021886989016
 20
1759.4078029330419213
 30
0.0
 11
1665.4080021886989016
 21
1741.9420020940319773
 31
0.0
  0
LINE
  5
2406
  8
0
 62
     7
 10
1665.4080021886989016
 20
1741.9420020940319773
 30
0.0
 11
1646.9253741808420273
 21
1741.9420020940319773
 31
0.0
  0
LINE
  5
30F6
  8
0
 62
     7
 10
3890.0000000001559783
 20
0.0
 30
0.0
 11
271.4306517100740166
 21
0.0
 31
0.0
  0
LINE
  5
30F7
  8
0
 62
     7
 10
271.4306517100737892
 20
0.0
 30
0.0
 11
271.4306517100737892
 21
2668.5147229613080526
 31
0.0
  0
LINE
  5
30F8
  8
0
 62
     7
 10
271.4306517100736755
 20
2668.5147229613080526
 30
0.0
 11
3890.0000000001559783
 21
2668.5147229613080526
 31
0.0
  0
LINE
  5
30F9
  8
0
 62
     7
 10
3890.0000000001559783
 20
2668.5147229613080526
 30
0.0
 11
3890.0000000001559783
 21
0.0
 31
0.0
  0
TEXT
  5
3AC8
  8
0
 62
     7
 10
325.3522157538768056
 20
51.5054056450702902
 30
0.0
 40
33.5999999999967329
  1
available on request
  7
TITLE3
  0
TEXT
  5
3AC9
  8
0
 62
     7
 10
325.3522157538768056
 20
109.105405645064593
 30
0.0
 40
33.5999999999967329
  1
Certified dimensions
  7
TITLE3
  0
TEXT
  5
3ACA
  8
0
 62
     7
 10
325.3522157538768056
 20
166.705405645058903
 30
0.0
 40
33.5999999999967329
  1
without notice or obligation.
  7
TITLE3
  0
TEXT
  5
3ACB
  8
0
 62
     7
 10
325.3522157538768056
 20
224.3054056450532983
 30
0.0
 40
33.5999999999967329
  1
specifications at any time
  7
TITLE3
  0
TEXT
  5
3ACC
  8
0
 62
     7
 10
325.3522157538768056
 20
281.9054056450477788
 30
0.0
 40
33.5999999999967329
  1
the right to change 
  7
TITLE3
  0
TEXT
  5
3ACD
  8
0
 62
     7
 10
325.3522157538768056
 20
397.1054056450361145
 30
0.0
 40
33.5999999999967329
  1
NOTE
  7
TITLE3
  0
TEXT
  5
3ACE
  8
0
 62
     7
 10
325.3522157538768056
 20
339.5054056450421172
 30
0.0
 40
33.5999999999967329
  1
The manufacturer reserves
  7
TITLE3
  0
TEXT
  5
430A
  8
0
 62
     7
 10
2537.0107596271341208
 20
1932.5696667207480459
 30
0.0
 40
25.0
  1
ELECTRIC
  7
TITLE3
  0
TEXT
  5
430B
  8
0
 62
     7
 10
2537.0107596271341208
 20
1890.9030000540799392
 30
0.0
 40
25.0
  1
BOX
  7
TITLE3
  0
SOLID
  5
430C
  8
0
 62
     7
 10
2424.9505787433599835
 20
1899.9612727287860707
 30
0.0
 11
2395.6835768057458154
 21
1891.688268583747913
 31
0.0
 12
2420.6854421591519895
 22
1909.0060839439529445
 32
0.0
 13
2420.6854421591519895
 23
1909.0060839439529445
 33
0.0
  0
TEXT
  5
4438
  8
0
 62
     7
 10
2573.6560087405000559
 20
346.7221498226609242
 30
0.0
 40
62.5
  1
temperzone ISD 251LYX
 41
1.107223176752991
  7
TITLE5
 72
     5
 11
3822.5773896612859062
 21
346.7221498226609242
 31
0.0
  0
TEXT
  5
4439
  8
0
 62
     7
 10
3315.0000000001559783
 20
87.5
 30
0.0
 40
37.5
  1
ISD 251LYX
 41
1.1599999999999999
  7
TITLE3
 72
     5
 11
3677.5000000001559783
 21
87.5
 31
0.0
  0
TEXT
  5
443A
  8
0
 62
     7
 10
2748.9580073525839907
 20
137.5
 30
0.0
 40
37.5
  1
23-01-20
 41
0.6913580246913626
  7
TITLE3
 72
     5
 11
2948.9580073525849002
 21
137.5
 31
0.0
  0
TEXT
  5
443B
  8
0
 62
     7
 10
2583.9412289613469511
 20
138.5390173251261103
 30
0.0
 40
30.0
  1
Date
  7
SIMPLEX
  0
TEXT
  5
443C
  8
0
 62
     7
 10
3710.1389904671559634
 20
161.8791275292639966
 30
0.0
 40
30.0
  1
Revision
 41
0.7812095035934922
  7
SIMPLEX
 72
     5
 11
3841.8285925014879467
 21
161.8791275292639966
 31
0.0
  0
LINE
  5
443D
  8
0
 62
     7
 10
3695.6141874878539966
 20
26.0531160603964089
 30
0.0
 11
3695.6141874878539966
 21
210.3358196356828955
 31
0.0
  0
LINE
  5
443E
  8
0
 62
     7
 10
2551.6894118215900562
 20
433.2994961169263206
 30
0.0
 11
2551.6894118215900562
 21
26.0531160603964089
 31
0.0
  0
LINE
  5
443F
  8
0
 62
     7
 10
3298.6420975165260643
 20
26.0531160603964089
 30
0.0
 11
3298.6420975165260643
 21
210.3358196356828955
 31
0.0
  0
LINE
  5
4440
  8
0
 62
     7
 10
3298.6420975165260643
 20
116.6407490868297003
 30
0.0
 11
2551.6894118215900562
 21
116.6407490868297003
 31
0.0
  0
LINE
  5
4441
  8
0
 62
     7
 10
3854.4693315474569317
 20
210.3358196356828955
 30
0.0
 11
2551.6894118215900562
 21
210.3358196356828955
 31
0.0
  0
LINE
  5
4442
  8
0
 62
     7
 10
2551.6894118215900562
 20
26.0531160603964089
 30
0.0
 11
3854.0974475745210839
 21
26.0531160603964089
 31
0.0
  0
LINE
  5
4443
  8
0
 62
     7
 10
3854.0974475745210839
 20
26.0531160603964089
 30
0.0
 11
3854.0974475745210839
 21
433.2994961169263206
 31
0.0
  0
LINE
  5
4444
  8
0
 62
     7
 10
3854.0974475745210839
 20
433.2994961169263206
 30
0.0
 11
2551.6894118215900562
 21
433.2994961169263206
 31
0.0
  0
TEXT
  5
4445
  8
0
 62
     7
 10
2583.104023879045144
 20
59.9031100816970792
 30
0.0
 40
25.0
  1
Scale
 41
1.3701747965659641
  7
SIMPLEX
 72
     5
 11
2708.7033802309238126
 21
59.9031100816970792
 31
0.0
  0
TEXT
  5
4446
  8
0
 62
     7
 10
3371.0739045011541748
 20
161.1167893833869016
 30
0.0
 40
25.0
  1
Drawing No.
  7
SIMPLEX
 72
     2
 11
3588.9310473582959276
 21
161.1167893833869016
 31
0.0
  0
TEXT
  5
444B
  8
0
 62
     7
 10
2766.9599802419847947
 20
58.6085586802493665
 30
0.0
 40
37.5
  1
1:10
  7
TITLE3
  0
LINE
  5
446A
  8
0
 62
     7
 10
2422.8180104512548496
 20
1904.4836783363700761
 30
0.0
 11
2464.7062436667129077
 21
1924.2363333874141063
 31
0.0
  0
LINE
  5
446B
  8
0
 62
     7
 10
2464.7062436667129077
 20
1924.2363333874141063
 30
0.0
 11
2517.0107596271341208
 21
1924.2363333874141063
 31
0.0
  0
LINE
  5
50D1
  8
0
 10
906.8079761662270357
 20
2374.7001991520801312
 30
0.0
 11
2468.8079761662270357
 21
2374.7001991520801312
 31
0.0
  0
LINE
  5
50D2
  8
0
 10
2468.8079761662270357
 20
2374.7001991520801312
 30
0.0
 11
2468.8079761662270357
 21
2125.6501991520781303
 31
0.0
  0
LINE
  5
50D3
  8
0
 10
886.857976166227445
 20
2125.6501991520781303
 30
0.0
 11
2488.7579761662268538
 21
2125.6501991520781303
 31
0.0
  0
LINE
  5
50D6
  8
0
 10
906.8079761662270357
 20
2374.7001991520801312
 30
0.0
 11
906.8079761662270357
 21
2125.6501991520781303
 31
0.0
  0
LINE
  5
50D9
  8
0
 10
951.9579761662264445
 20
2425.6501991520772208
 30
0.0
 11
2400.9579761662271267
 21
2425.6501991520772208
 31
0.0
  0
LINE
  5
50DA
  8
0
 10
951.9579761662264445
 20
2425.6501991520772208
 30
0.0
 11
951.9579761662264445
 21
2374.7001991520801312
 31
0.0
  0
LINE
  5
50DB
  8
0
 10
2400.9579761662271267
 20
2425.6501991520772208
 30
0.0
 11
2400.9579761662271267
 21
2374.7001991520801312
 31
0.0
  0
LINE
  5
50DC
  8
0
 10
886.857976166227445
 20
2384.6501991520799493
 30
0.0
 11
886.857976166227445
 21
2373.2001991520810407
 31
0.0
  0
LINE
  5
50DD
  8
0
 10
2488.7579761662268538
 20
2384.6501991520799493
 30
0.0
 11
2488.7579761662268538
 21
2373.2001991520810407
 31
0.0
  0
LINE
  5
50DE
  8
0
 10
886.857976166227445
 20
2384.6501991520799493
 30
0.0
 11
951.9579761662264445
 21
2384.6501991520799493
 31
0.0
  0
LINE
  5
50DF
  8
0
 10
2400.9579761662271267
 20
2384.6501991520799493
 30
0.0
 11
2488.7579761662268538
 21
2384.6501991520799493
 31
0.0
  0
LINE
  5
513A
  8
0
 10
2516.7579761662268538
 20
2261.2251991520788579
 30
0.0
 11
2516.7579761662268538
 21
2245.2251991520788579
 31
0.0
  0
LINE
  5
513C
  8
0
 10
2488.7579761662268538
 20
2261.2251991520811316
 30
0.0
 11
2516.7579761662268538
 21
2261.2251991520811316
 31
0.0
  0
LINE
  5
513D
  8
0
 10
2488.7579761662268538
 20
2245.2251991520820411
 30
0.0
 11
2516.7579761662268538
 21
2245.2251991520788579
 31
0.0
  0
LINE
  5
513F
  8
0
  6
ACANSTGL
 10
2468.8079761662270357
 20
2163.7101991520771662
 30
0.0
 11
2510.7519761662269957
 21
2163.7101991520771662
 31
0.0
  0
LINE
  5
5140
  8
0
  6
ACANSTGL
 10
2468.8079761662270357
 20
2143.7101991520771662
 30
0.0
 11
2510.7519761662269957
 21
2143.7101991520780757
 31
0.0
  0
LINE
  5
5141
  8
0
  6
ACANSTGL
 10
2510.7519761662269957
 20
2163.7101991520771662
 30
0.0
 11
2510.7519761662269957
 21
2143.7101991520780757
 31
0.0
  0
LINE
  5
5142
  8
0
 10
2488.7579761662268538
 20
2143.7101991520780757
 30
0.0
 11
2488.7579761662268538
 21
2125.6501991520781303
 31
0.0
  0
LINE
  5
518F
  8
0
 10
2498.3079761662270357
 20
2373.2001991520810407
 30
0.0
 11
2498.3079761662270357
 21
2345.2001991520801312
 31
0.0
  0
LINE
  5
5190
  8
0
 10
2468.8079761662270357
 20
2373.2001991520810407
 30
0.0
 11
2498.3079761662270357
 21
2373.2001991520810407
 31
0.0
  0
LINE
  5
5191
  8
0
 10
2468.8079761662270357
 20
2345.2001991520801312
 30
0.0
 11
2498.3079761662270357
 21
2345.2001991520801312
 31
0.0
  0
POINT
  5
5193
  8
0
 10
2484.3079761662270357
 20
2359.2001991520810407
 30
0.0
  0
LINE
  5
51E5
  8
0
 10
906.8079761662270357
 20
2373.2001991520810407
 30
0.0
 11
877.3079761662270357
 21
2373.2001991520810407
 31
0.0
  0
LINE
  5
51E6
  8
0
 10
906.8079761662270357
 20
2345.2001991520801312
 30
0.0
 11
877.3079761662270357
 21
2345.2001991520801312
 31
0.0
  0
LINE
  5
51E7
  8
0
 10
877.3079761662270357
 20
2373.2001991520810407
 30
0.0
 11
877.3079761662270357
 21
2345.2001991520801312
 31
0.0
  0
POINT
  5
51E8
  8
0
 10
891.307976166226922
 20
2359.2001991520810407
 30
0.0
 50
180.0
  0
LINE
  5
51EE
  8
0
 10
886.857976166227445
 20
2345.2001991520801312
 30
0.0
 11
886.857976166227445
 21
2125.6501991520781303
 31
0.0
  0
LINE
  5
5287
  8
0
 10
2319.307976166222943
 20
2125.6501991520781303
 30
0.0
 11
2319.3079761662270357
 21
1691.6501991520779029
 31
0.0
  0
LINE
  5
5288
  8
0
 10
1027.3079761662279452
 20
1691.6501991520779029
 30
0.0
 11
2319.307976166222943
 21
1691.6501991520779029
 31
0.0
  0
LINE
  5
5289
  8
0
 10
1027.3079761662279452
 20
2125.6501991520781303
 30
0.0
 11
1027.3079761662279452
 21
1691.6501991520779029
 31
0.0
  0
LINE
  5
528A
  8
0
 10
1124.3079761662258989
 20
1691.6501991520779029
 30
0.0
 11
1124.3079761662258989
 21
1641.6501991520779029
 31
0.0
  0
LINE
  5
528B
  8
0
 10
1124.3079761662258989
 20
1641.6501991520779029
 30
0.0
 11
2222.3079761662261262
 21
1641.6501991520769934
 31
0.0
  0
LINE
  5
528D
  8
0
 10
2222.3079761662261262
 20
1691.6501991520779029
 30
0.0
 11
2222.3079761662261262
 21
1641.6501991520769934
 31
0.0
  0
LINE
  5
528F
  8
0
 10
2319.3079761662270357
 20
1724.1001991520779484
 30
0.0
 11
2353.3079761662270357
 21
1724.1001991520779484
 31
0.0
  0
LINE
  5
5290
  8
0
 10
2319.3079761662270357
 20
1696.1001991520779484
 30
0.0
 11
2353.3079761662270357
 21
1696.1001991520779484
 31
0.0
  0
LINE
  5
5291
  8
0
 10
2353.3079761662270357
 20
1724.1001991520779484
 30
0.0
 11
2353.3079761662270357
 21
1696.1001991520779484
 31
0.0
  0
POINT
  5
5292
  8
0
 10
2339.3079761662270357
 20
1710.1001991520779484
 30
0.0
  0
LINE
  5
5293
  8
0
 10
1027.3079761662279452
 20
1724.1001991520779484
 30
0.0
 11
997.3079761662266947
 21
1724.1001991520779484
 31
0.0
  0
LINE
  5
5294
  8
0
 10
1027.3079761662279452
 20
1696.1001991520779484
 30
0.0
 11
997.3079761662266947
 21
1696.1001991520779484
 31
0.0
  0
LINE
  5
5295
  8
0
 10
997.3079761662266947
 20
1724.1001991520779484
 30
0.0
 11
997.3079761662266947
 21
1696.1001991520779484
 31
0.0
  0
POINT
  5
5296
  8
0
 10
1011.3079761662270357
 20
1710.1001991520779484
 30
0.0
 50
180.0
  0
LINE
  5
52E3
  8
0
 10
2395.3079761662252167
 20
2055.6501991520781303
 30
0.0
 11
2395.3079761662252167
 21
1746.6501991520779029
 31
0.0
  0
LINE
  5
52E4
  8
0
 10
2319.307976166222943
 20
1746.6501991520779029
 30
0.0
 11
2395.3079761662252167
 21
1746.6501991520779029
 31
0.0
  0
LINE
  5
52E5
  8
0
 10
2319.307976166222943
 20
2055.6501991520781303
 30
0.0
 11
2395.3079761662252167
 21
2055.6501991520781303
 31
0.0
  0
LINE
  5
536B
  8
0
 10
3565.2648659109281652
 20
1044.1623321608719834
 30
0.0
 11
3565.2648659109281652
 21
649.1623321608716424
 31
0.0
  0
LINE
  5
536C
  8
0
 10
3316.2148659109261644
 20
1044.1623321608719834
 30
0.0
 11
3316.2148659109261644
 21
624.1623321608716424
 31
0.0
  0
LINE
  5
536D
  8
0
 10
3575.2148659109279834
 20
624.1623321608716424
 30
0.0
 11
3316.2148659109261644
 21
624.1623321608716424
 31
0.0
  0
LINE
  5
536F
  8
0
 10
3575.2148659109279834
 20
649.1623321608717561
 30
0.0
 11
3575.2148659109279834
 21
624.1623321608716424
 31
0.0
  0
LINE
  5
5370
  8
0
 10
3575.2148659109279834
 20
649.1623321608716424
 30
0.0
 11
3356.9748659109259279
 21
649.1623321608716424
 31
0.0
  0
LINE
  5
5371
  8
0
 10
3616.2148659109279834
 20
1030.1623321608719834
 30
0.0
 11
3616.2148659109279834
 21
671.1623321608717561
 31
0.0
  0
LINE
  5
5372
  8
0
 10
3616.2148659109279834
 20
671.1623321608717561
 30
0.0
 11
3565.2648659109281652
 21
671.1623321608717561
 31
0.0
  0
LINE
  5
5373
  8
0
 10
3616.2148659109279834
 20
1030.1623321608719834
 30
0.0
 11
3565.2648659109258915
 21
1030.1623321608719834
 31
0.0
  0
ARC
  5
5412
  8
0
 10
3344.2748659109261098
 20
649.1623321608716424
 30
0.0
 40
12.6999999999999993
 50
180.0
 51
0.0
  0
LINE
  5
5413
  8
0
 10
3331.5748659109249274
 20
649.1623321608716424
 30
0.0
 11
3316.2148659109261644
 21
649.1623321608716424
 31
0.0
  0
CIRCLE
  5
5415
  8
0
 10
3344.2748659109261098
 20
649.8263321608723118
 30
0.0
 40
10.0
  0
LINE
  5
54B4
  8
0
 10
3570.3648659109271648
 20
1055.1623321608719834
 30
0.0
 11
3570.3648659109271648
 21
959.7623321608722335
 31
0.0
  0
LINE
  5
54B5
  8
0
 10
3542.3648659109258006
 20
1055.1623321608719834
 30
0.0
 11
3542.3648659109258006
 21
959.7623321608722335
 31
0.0
  0
LINE
  5
54B6
  8
0
 10
3542.3648659109258006
 20
959.7623321608722335
 30
0.0
 11
3570.3648659109271648
 21
959.7623321608722335
 31
0.0
  0
LINE
  5
54B7
  8
0
 10
3542.3648659109258006
 20
1055.1623321608719834
 30
0.0
 11
3570.3648659109271648
 21
1055.1623321608719834
 31
0.0
  0
LINE
  5
54B8
  8
0
 10
3542.3648659109258006
 20
1052.6623321608710739
 30
0.0
 11
3570.3648659109271648
 21
1052.6623321608710739
 31
0.0
  0
LINE
  5
54BB
  8
0
 10
3556.3648659109248911
 20
1050.0281385792759465
 30
0.0
 11
3556.3648659109248911
 21
1062.5281385792759465
 31
0.0
  0
LINE
  5
54BD
  8
0
 10
3565.2648659109281652
 20
1044.1623321608719834
 30
0.0
 11
3316.2148659109261644
 21
1044.1623321608719834
 31
0.0
  0
LINE
  5
551A
  8
0
 10
3316.2148659109261644
 20
635.1123321608722563
 30
0.0
 11
2882.2148659109248001
 21
635.1123321608722563
 31
0.0
  0
LINE
  5
551B
  8
0
 10
2882.2148659109248001
 20
1041.8086217760519503
 30
0.0
 11
2882.2148659109248001
 21
635.1123321608722563
 31
0.0
  0
LINE
  5
551C
  8
0
 10
3316.2148659109261644
 20
1041.8086217760519503
 30
0.0
 11
2882.2148659109248001
 21
1041.8086217760519503
 31
0.0
  0
LINE
  5
551D
  8
0
 10
2882.2148659109248001
 20
641.062332160871847
 30
0.0
 11
2832.2148659109248001
 21
641.062332160871847
 31
0.0
  0
LINE
  5
551E
  8
0
 10
2832.2148659109248001
 20
917.062332160871847
 30
0.0
 11
2832.2148659109248001
 21
641.062332160871847
 31
0.0
  0
LINE
  5
551F
  8
0
 10
2882.2148659109248001
 20
917.062332160871847
 30
0.0
 11
2832.2148659109248001
 21
917.062332160871847
 31
0.0
  0
LINE
  5
5520
  8
0
 10
2937.2148659109279834
 20
1028.477332160872038
 30
0.0
 11
2937.2148659109279834
 21
859.4773321608722654
 31
0.0
  0
LINE
  5
5521
  8
0
 10
3246.2148659109279834
 20
1028.477332160872038
 30
0.0
 11
3246.2148659109279834
 21
859.4773321608722654
 31
0.0
  0
LINE
  5
5523
  8
0
 10
3246.2148659109279834
 20
1028.477332160872038
 30
0.0
 11
2937.2148659109279834
 21
1028.477332160872038
 31
0.0
  0
LINE
  5
5525
  8
0
 10
2904.3648659109258006
 20
1055.1623321608719834
 30
0.0
 11
2904.3648659109258006
 21
959.7623321608722335
 31
0.0
  0
LINE
  5
5526
  8
0
 10
2876.3648659109239816
 20
1055.1623321608719834
 30
0.0
 11
2876.3648659109239816
 21
959.7623321608722335
 31
0.0
  0
LINE
  5
5527
  8
0
 10
2876.3648659109239816
 20
959.7623321608722335
 30
0.0
 11
2904.3648659109258006
 21
959.7623321608722335
 31
0.0
  0
LINE
  5
5528
  8
0
 10
2876.3648659109239816
 20
1055.1623321608719834
 30
0.0
 11
2904.3648659109258006
 21
1055.1623321608719834
 31
0.0
  0
LINE
  5
5529
  8
0
 10
2876.3648659109239816
 20
1052.6623321608710739
 30
0.0
 11
2904.3648659109258006
 21
1052.6623321608710739
 31
0.0
  0
LINE
  5
552A
  8
0
 10
2890.3648659109258006
 20
1047.6623321608719834
 30
0.0
 11
2890.3648659109258006
 21
1060.1623321608719834
 31
0.0
  0
TEXT
  5
57D9
  8
0
 10
1539.92920140085198
 20
1916.3714841780461029
 30
0.0
 40
37.5
  1
ISD 251LYX
  7
TITLE3
  0
TEXT
  5
57DA
  8
0
 10
2962.0711989981450643
 20
920.7107492612652777
 30
0.0
 40
30.0
  1
ISD 251LYX
  7
TITLE3
  0
LINE
  5
57DB
  8
0
 62
     7
 10
951.9579761662264445
 20
2445.6501991520781303
 30
0.0
 11
951.9579761662264445
 21
2511.2800230429370458
 31
0.0
  0
LINE
  5
57DC
  8
0
 62
     7
 10
981.957976166227013
 20
2491.2800230429361363
 30
0.0
 11
1628.4375192897859961
 21
2491.2800230429361363
 31
0.0
  0
SOLID
  5
57DD
  8
0
 62
     7
 10
981.957976166227013
 20
2496.2800230429379553
 30
0.0
 11
981.957976166227013
 21
2486.2800230429370458
 31
0.0
 12
951.9579761662264445
 22
2491.2800230429361363
 32
0.0
 13
951.9579761662264445
 23
2491.2800230429361363
 33
0.0
  0
LINE
  5
57E1
  8
0
 62
     7
 10
2400.9579761662271267
 20
2445.6501991520781303
 30
0.0
 11
2400.9579761662271267
 21
2511.2800230429370458
 31
0.0
  0
LINE
  5
57E2
  8
0
 62
     7
 10
2370.9579761662280362
 20
2491.2800230429361363
 30
0.0
 11
1732.1025281353040555
 21
2491.2800230429361363
 31
0.0
  0
SOLID
  5
57E3
  8
0
 62
     7
 10
2370.9579761662280362
 20
2496.2800230429379553
 30
0.0
 11
2370.9579761662280362
 21
2486.2800230429370458
 31
0.0
 12
2400.9579761662271267
 22
2491.2800230429361363
 32
0.0
 13
2400.9579761662271267
 23
2491.2800230429361363
 33
0.0
  0
TEXT
  5
57EE
  8
0
 62
     7
 10
1634.6883432354759407
 20
2479.1800230429380463
 30
0.0
 40
25.0
  1
1449
  0
LINE
  5
57EF
  8
0
 62
     7
 10
1124.3079761662258989
 20
1621.6501991520769934
 30
0.0
 11
1124.3079761662258989
 21
1553.0419384885640284
 31
0.0
  0
LINE
  5
57F0
  8
0
 62
     7
 10
1154.3079761662249894
 20
1573.0419384885649379
 30
0.0
 11
1612.8625074102239978
 21
1573.0419384885649379
 31
0.0
  0
SOLID
  5
57F1
  8
0
 62
     7
 10
1154.3079761662249894
 20
1578.0419384885649379
 30
0.0
 11
1154.3079761662249894
 21
1568.0419384885649379
 31
0.0
 12
1124.3079761662258989
 22
1573.0419384885649379
 32
0.0
 13
1124.3079761662258989
 23
1573.0419384885649379
 33
0.0
  0
LINE
  5
57F3
  8
0
 62
     7
 10
2222.3079761662261262
 20
1621.6501991520769934
 30
0.0
 11
2222.3079761662261262
 21
1553.0419384885640284
 31
0.0
  0
LINE
  5
57F4
  8
0
 62
     7
 10
2192.307976166222943
 20
1573.0419384885649379
 30
0.0
 11
1704.5291740768909676
 21
1573.0419384885649379
 31
0.0
  0
SOLID
  5
57F5
  8
0
 62
     7
 10
2192.307976166222943
 20
1578.0419384885649379
 30
0.0
 11
2192.307976166222943
 21
1568.0419384885649379
 31
0.0
 12
2222.3079761662261262
 22
1573.0419384885649379
 32
0.0
 13
2222.3079761662261262
 23
1573.0419384885649379
 33
0.0
  0
TEXT
  5
57F9
  8
0
 62
     7
 10
1619.1133313559130329
 20
1560.3419384885648924
 30
0.0
 40
25.0
  1
1098
  0
LINE
  5
57FA
  8
0
 62
     7
 10
2931.127436867167944
 20
742.8314191751450153
 30
0.0
 11
2898.9542042399789352
 21
771.364021160530001
 31
0.0
  0
LINE
  5
57FB
  8
0
 62
     7
 10
2953.4812377061798543
 20
781.4139951380564071
 30
0.0
 11
2953.4812377061798543
 21
761.3140471830009801
 31
0.0
  0
LINE
  5
57FC
  8
0
 62
     7
 10
2953.4812377061798543
 20
761.3140471830009801
 30
0.0
 11
2931.127436867167944
 21
761.3140471830009801
 31
0.0
  0
LINE
  5
57FD
  8
0
 62
     7
 10
2931.127436867167944
 20
761.3140471830009801
 30
0.0
 11
2931.127436867167944
 21
742.8314191751450153
 31
0.0
  0
LINE
  5
57FE
  8
0
 62
     7
 10
2931.127436867167944
 20
799.8966231459129403
 30
0.0
 11
2898.9542042399789352
 21
771.364021160530001
 31
0.0
  0
LINE
  5
57FF
  8
0
 62
     7
 10
2953.4812377061798543
 20
781.4139951380564071
 30
0.0
 11
2931.127436867167944
 21
781.4139951380564071
 31
0.0
  0
LINE
  5
5800
  8
0
 62
     7
 10
2931.127436867167944
 20
781.4139951380564071
 30
0.0
 11
2931.127436867167944
 21
799.8966231459129403
 31
0.0
  0
LINE
  5
5801
  8
0
 62
     7
 10
3530.7482840064349148
 20
819.9365595017220585
 30
0.0
 11
3498.5750513792499987
 21
848.46916148710784
 31
0.0
  0
LINE
  5
5802
  8
0
 62
     7
 10
3548.2140848454478146
 20
858.5191354646337913
 30
0.0
 11
3548.2140848454478146
 21
838.4191875095782507
 31
0.0
  0
LINE
  5
5803
  8
0
 62
     7
 10
3548.2140848454478146
 20
838.4191875095782507
 30
0.0
 11
3530.7482840064349148
 21
838.4191875095782507
 31
0.0
  0
LINE
  5
5804
  8
0
 62
     7
 10
3530.7482840064349148
 20
838.4191875095782507
 30
0.0
 11
3530.7482840064349148
 21
819.9365595017220585
 31
0.0
  0
LINE
  5
5805
  8
0
 62
     7
 10
3530.7482840064349148
 20
877.001763472490552
 30
0.0
 11
3498.5750513792499987
 21
848.46916148710784
 31
0.0
  0
LINE
  5
5806
  8
0
 62
     7
 10
3548.2140848454478146
 20
858.5191354646337913
 30
0.0
 11
3530.7482840064349148
 21
858.5191354646337913
 31
0.0
  0
LINE
  5
5807
  8
0
 62
     7
 10
3530.7482840064349148
 20
858.5191354646337913
 30
0.0
 11
3530.7482840064349148
 21
877.001763472490552
 31
0.0
  0
LINE
  5
5808
  8
0
 62
     7
 10
2812.2148659109238906
 20
917.062332160871847
 30
0.0
 11
2748.6767784117519113
 21
917.062332160871847
 31
0.0
  0
LINE
  5
5809
  8
0
 62
     7
 10
2768.6767784117541851
 20
887.062332160871847
 30
0.0
 11
2768.6767784117491829
 21
812.6591275856173979
 31
0.0
  0
SOLID
  5
580A
  8
0
 62
     7
 10
2763.6767784117519113
 20
887.062332160871847
 30
0.0
 11
2773.6767784117519113
 21
887.062332160871847
 31
0.0
 12
2768.6767784117541851
 22
917.062332160871847
 32
0.0
 13
2768.6767784117541851
 23
917.062332160871847
 33
0.0
  0
TEXT
  5
580B
  8
0
 62
     7
 10
2781.1767784117519113
 20
739.7432848646401453
 30
0.0
 40
25.0
  1
276
 50
90.0
  0
LINE
  5
580C
  8
0
 62
     7
 10
2812.2148659109238906
 20
641.062332160871847
 30
0.0
 11
2748.6767784117519113
 21
641.062332160871847
 31
0.0
  0
LINE
  5
580D
  8
0
 62
     7
 10
2768.6767784117510018
 20
671.0623321608713923
 30
0.0
 11
2768.6767784117510018
 21
733.4924609189511102
 31
0.0
  0
SOLID
  5
580E
  8
0
 62
     7
 10
2763.6767784117519113
 20
671.0623321608713923
 30
0.0
 11
2773.6767784117519113
 21
671.0623321608713923
 31
0.0
 12
2768.6767784117510018
 22
641.062332160871847
 32
0.0
 13
2768.6767784117510018
 23
641.062332160871847
 33
0.0
  0
LINE
  5
585C
  8
0
 62
     7
 10
3636.2148659109248001
 20
1030.1623321608719834
 30
0.0
 11
3702.8206927475530392
 21
1030.1623321608719834
 31
0.0
  0
LINE
  5
585D
  8
0
 62
     7
 10
3682.8206927475580414
 20
1000.1623321608719834
 30
0.0
 11
3682.820692747557132
 21
885.7996098775256542
 31
0.0
  0
SOLID
  5
585E
  8
0
 62
     7
 10
3677.8206927475530392
 20
1000.1623321608719834
 30
0.0
 11
3687.8206927475589509
 21
1000.1623321608719834
 31
0.0
 12
3682.8206927475580414
 22
1030.1623321608719834
 32
0.0
 13
3682.8206927475580414
 23
1030.1623321608719834
 33
0.0
  0
TEXT
  5
585F
  8
0
 62
     7
 10
3695.3206927475562225
 20
812.8837671565473784
 30
0.0
 40
25.0
  1
359
 50
90.0
  0
LINE
  5
5860
  8
0
 62
     7
 10
3636.2148659109279834
 20
671.1623321608730066
 30
0.0
 11
3702.8206927475530392
 21
671.1623321608730066
 31
0.0
  0
LINE
  5
5861
  8
0
 62
     7
 10
3682.8206927475580414
 20
701.1623321608728929
 30
0.0
 11
3682.8206927475580414
 21
806.6329432108583433
 31
0.0
  0
SOLID
  5
5862
  8
0
 62
     7
 10
3677.8206927475530392
 20
701.1623321608728929
 30
0.0
 11
3687.8206927475589509
 21
701.1623321608728929
 31
0.0
 12
3682.8206927475580414
 22
671.1623321608730066
 32
0.0
 13
3682.8206927475580414
 23
671.1623321608730066
 33
0.0
  0
LINE
  5
58B4
  8
0
 62
     7
 10
3583.7648659109258915
 20
1055.1623321608719834
 30
0.0
 11
3767.3419415983098588
 21
1055.1623321608719834
 31
0.0
  0
LINE
  5
58B5
  8
0
 62
     7
 10
3747.3419415983071303
 20
1025.1623321608719834
 30
0.0
 11
3747.3419415983071303
 21
926.088410443813018
 31
0.0
  0
SOLID
  5
58B6
  8
0
 62
     7
 10
3742.3419415983080398
 20
1025.1623321608719834
 30
0.0
 11
3752.3419415983089493
 21
1025.1623321608719834
 31
0.0
 12
3747.3419415983121326
 22
1055.1623321608719834
 32
0.0
 13
3747.3419415983121326
 23
1055.1623321608719834
 33
0.0
  0
LINE
  5
58B8
  8
0
 62
     7
 10
3587.1648659109259825
 20
624.1623321608716424
 30
0.0
 11
3767.3419415983098588
 21
624.1623321608716424
 31
0.0
  0
LINE
  5
58B9
  8
0
 62
     7
 10
3747.3419415983121326
 20
654.1623321608717561
 30
0.0
 11
3747.3419415983121326
 21
746.921743777146844
 31
0.0
  0
SOLID
  5
58BA
  8
0
 62
     7
 10
3742.3419415983080398
 20
654.1623321608717561
 30
0.0
 11
3752.3419415983121326
 21
654.1623321608717561
 31
0.0
 12
3747.3419415983121326
 22
624.1623321608716424
 32
0.0
 13
3747.3419415983121326
 23
624.1623321608716424
 33
0.0
  0
TEXT
  5
58BB
  8
0
 62
     7
 10
3759.8419415983098588
 20
753.172567722835538
 30
0.0
 40
25.0
  1
431 O/A
 50
90.0
  0
LINE
  5
5909
  8
0
  6
PHANTOM
 62
     7
 10
2988.7579761662282181
 20
1641.6501991520769934
 30
0.0
 11
2988.7579761662259443
 21
2384.6501991520799493
 31
0.0
  0
LINE
  5
590A
  8
0
  6
PHANTOM
 62
     7
 10
2988.7579761662259443
 20
2384.6501991520799493
 30
0.0
 11
2502.3369813536160109
 21
2384.6501991520799493
 31
0.0
  0
TEXT
  5
590B
  8
0
 62
     7
 10
3030.0477268084209754
 20
1812.981897091276096
 30
0.0
 40
25.0
  1
500 mm CLEARENCE
 50
90.0
  7
TITLE3
  0
LINE
  5
590C
  8
0
  6
PHANTOM
 62
     7
 10
2359.3079761662270357
 20
1641.6501991520769934
 30
0.0
 11
2988.7579761662282181
 21
1641.6501991520769934
 31
0.0
  0
LINE
  5
5967
  8
0
 62
     7
 10
2832.2148659109248001
 20
621.0623321608713923
 30
0.0
 11
2832.2148659109248001
 21
516.2506983474128219
 31
0.0
  0
LINE
  5
5968
  8
0
 62
     7
 10
2862.2148659109238906
 20
536.2506983474129356
 30
0.0
 11
3147.9124096857749464
 21
536.250698347413163
 31
0.0
  0
SOLID
  5
5969
  8
0
 62
     7
 10
2862.2148659109238906
 20
541.2506983474128219
 30
0.0
 11
2862.2148659109238906
 21
531.2506983474128219
 31
0.0
 12
2832.2148659109248001
 22
536.2506983474129356
 32
0.0
 13
2832.2148659109248001
 23
536.2506983474129356
 33
0.0
  0
LINE
  5
596A
  8
0
 62
     7
 10
3616.2148659109279834
 20
650.3263321608723118
 30
0.0
 11
3616.2148659109279834
 21
516.2506983474129356
 31
0.0
  0
LINE
  5
596B
  8
0
 62
     7
 10
3586.2148659109270739
 20
536.2506983474129356
 30
0.0
 11
3327.0790763524400973
 21
536.250698347413163
 31
0.0
  0
SOLID
  5
596C
  8
0
 62
     7
 10
3586.2148659109270739
 20
541.2506983474129356
 30
0.0
 11
3586.2148659109270739
 21
531.2506983474129356
 31
0.0
 12
3616.2148659109279834
 22
536.2506983474129356
 32
0.0
 13
3616.2148659109279834
 23
536.2506983474129356
 33
0.0
  0
TEXT
  5
596E
  8
0
 62
     7
 10
3154.1632336314628446
 20
523.7506983474120261
 30
0.0
 40
25.0
  1
784 O/A
  0
LINE
  5
59BF
  8
0
 62
     7
 10
2339.3079761662270357
 20
1690.1001991520779484
 30
0.0
 11
2339.3079761662270357
 21
1508.6518225811419143
 31
0.0
  0
LINE
  5
59C0
  8
0
 62
     7
 10
2311.2579761662259443
 20
1528.6518225811430511
 30
0.0
 11
1786.3497155656330051
 21
1528.6518225811439606
 31
0.0
  0
SOLID
  5
59C1
  8
0
 62
     7
 10
2311.2579761662259443
 20
1533.6518225811430511
 30
0.0
 11
2311.2579761662259443
 21
1523.6518225811430511
 31
0.0
 12
2339.3079761662270357
 22
1528.6518225811430511
 32
0.0
 13
2339.3079761662270357
 23
1528.6518225811430511
 33
0.0
  0
LINE
  5
59C2
  8
0
 62
     7
 10
1041.3079761662270357
 20
1528.6518225811439606
 30
0.0
 11
1544.5163822322990654
 21
1528.6518225811439606
 31
0.0
  0
SOLID
  5
59C3
  8
0
 62
     7
 10
1041.3079761662270357
 20
1533.6518225811430511
 30
0.0
 11
1041.3079761662270357
 21
1523.6518225811430511
 31
0.0
 12
1011.3079761662270357
 22
1528.6518225811439606
 32
0.0
 13
1011.3079761662270357
 23
1528.6518225811439606
 33
0.0
  0
TEXT
  5
59C4
  8
0
 62
     7
 10
1546.7672061779860542
 20
1515.9518225811430057
 30
0.0
 40
25.0
  1
1328 CTRS
  0
LINE
  5
5A12
  8
0
 62
     7
 10
2890.3648659109258006
 20
1071.8623321608720289
 30
0.0
 11
2890.3648659109258006
 21
1137.4921560517320813
 31
0.0
  0
LINE
  5
5A13
  8
0
 62
     7
 10
2920.3648659109258006
 20
1117.492156051730035
 30
0.0
 11
3113.8971762299129296
 21
1117.492156051730035
 31
0.0
  0
SOLID
  5
5A14
  8
0
 62
     7
 10
2920.3648659109258006
 20
1122.4921560517320813
 30
0.0
 11
2920.3648659109258006
 21
1112.4921560517320813
 31
0.0
 12
2890.3648659109258006
 22
1117.492156051730035
 32
0.0
 13
2890.3648659109258006
 23
1117.492156051730035
 33
0.0
  0
LINE
  5
5A15
  8
0
 62
     7
 10
3556.3648659109248911
 20
1071.8623321608720289
 30
0.0
 11
3556.3648659109248911
 21
1137.4921560517320813
 31
0.0
  0
LINE
  5
5A16
  8
0
 62
     7
 10
3526.3648659109271648
 20
1117.492156051730035
 30
0.0
 11
3318.2824790945210225
 21
1117.492156051730035
 31
0.0
  0
SOLID
  5
5A17
  8
0
 62
     7
 10
3526.3648659109271648
 20
1122.4921560517320813
 30
0.0
 11
3526.3648659109271648
 21
1112.4921560517320813
 31
0.0
 12
3556.3648659109248911
 22
1117.492156051730035
 32
0.0
 13
3556.3648659109248911
 23
1117.492156051730035
 33
0.0
  0
TEXT
  5
5A18
  8
0
 62
     7
 10
3120.148000175602192
 20
1105.3921560517319449
 30
0.0
 40
25.0
  1
666 CTRS
  0
LINE
  5
5A67
  8
0
 62
     7
 10
891.307976166226922
 20
2379.2001991520810407
 30
0.0
 11
891.307976166226922
 21
2572.959480900618928
 31
0.0
  0
TEXT
  5
5A6A
  8
0
 62
     7
 10
1572.0558516910020899
 20
2540.8594809006181094
 30
0.0
 40
25.0
  1
1593 CTRS
  0
LINE
  5
5A6C
  8
0
 62
     7
 10
2484.3079761662270357
 20
2379.2001991520810407
 30
0.0
 11
2484.3079761662270357
 21
2572.959480900618928
 31
0.0
  0
LINE
  5
5A6D
  8
0
 62
     7
 10
2454.3079761662270357
 20
2552.9594809006180185
 30
0.0
 11
1787.0163416122459239
 21
2552.9594809006180185
 31
0.0
  0
SOLID
  5
5A6E
  8
0
 62
     7
 10
2454.3079761662270357
 20
2557.959480900618928
 30
0.0
 11
2454.3079761662270357
 21
2547.9594809006180185
 31
0.0
 12
2484.3079761662270357
 22
2552.9594809006180185
 32
0.0
 13
2484.3079761662270357
 23
2552.9594809006180185
 33
0.0
  0
LINE
  5
5D99
  8
0
 62
     7
 10
921.3079761662266947
 20
2552.9594809006180185
 30
0.0
 11
1565.8050277453130548
 21
2552.9594809006180185
 31
0.0
  0
SOLID
  5
5D9A
  8
0
 62
     7
 10
921.3079761662266947
 20
2557.959480900618928
 30
0.0
 11
921.3079761662266947
 21
2547.9594809006180185
 31
0.0
 12
891.307976166226922
 22
2552.9594809006180185
 32
0.0
 13
891.307976166226922
 23
2552.9594809006180185
 33
0.0
  0
LINE
  5
5D9B
  8
0
 10
2488.7579761662268538
 20
624.1623321608717561
 30
0.0
 11
886.857976166227445
 21
624.1623321608717561
 31
0.0
  0
LINE
  5
5D9E
  8
0
 10
886.857976166227445
 20
649.1623321608717561
 30
0.0
 11
886.857976166227445
 21
624.1623321608717561
 31
0.0
  0
LINE
  5
5D9F
  8
0
 10
2488.7579761662268538
 20
649.1623321608717561
 30
0.0
 11
2488.7579761662268538
 21
624.1623321608717561
 31
0.0
  0
LINE
  5
5DA0
  8
0
 10
906.8079761662270357
 20
1055.1623321608719834
 30
0.0
 11
906.8079761662270357
 21
624.1623321608717561
 31
0.0
  0
LINE
  5
5DA1
  8
0
 10
906.8079761662270357
 20
649.1623321608717561
 30
0.0
 11
886.857976166227445
 21
649.1623321608717561
 31
0.0
  0
LINE
  5
5DA2
  8
0
 10
2468.8079761662270357
 20
677.3923321608718879
 30
0.0
 11
2535.8579761662272176
 21
677.3923321608718879
 31
0.0
  0
LINE
  5
5DA3
  8
0
 10
2535.8579761662272176
 20
676.3923321608724564
 30
0.0
 11
2551.8579761662272176
 21
676.3923321608724564
 31
0.0
  0
LINE
  5
5DA4
  8
0
 10
2468.8079761662270357
 20
699.392332160872229
 30
0.0
 11
2535.8579761662272176
 21
699.392332160872229
 31
0.0
  0
LINE
  5
5DA5
  8
0
 10
2535.8579761662272176
 20
700.3923321608715469
 30
0.0
 11
2551.8579761662272176
 21
700.3923321608715469
 31
0.0
  0
LINE
  5
5DA6
  8
0
 10
2551.8579761662272176
 20
700.3923321608715469
 30
0.0
 11
2551.8579761662272176
 21
676.3923321608724564
 31
0.0
  0
LINE
  5
5DA7
  8
0
 10
2535.8579761662272176
 20
700.3923321608715469
 30
0.0
 11
2535.8579761662272176
 21
676.3923321608724564
 31
0.0
  0
LINE
  5
5DA8
  8
0
 10
2468.8079761662270357
 20
759.8843665104870979
 30
0.0
 11
2539.1579761662269448
 21
759.8843665104870979
 31
0.0
  0
LINE
  5
5DA9
  8
0
 10
2539.1579761662269448
 20
758.8843665104864158
 30
0.0
 11
2551.8579761662272176
 21
758.8843665104864158
 31
0.0
  0
LINE
  5
5DAA
  8
0
 10
2468.8079761662270357
 20
772.5843665104866886
 30
0.0
 11
2539.1579761662269448
 21
772.5843665104870297
 31
0.0
  0
LINE
  5
5DAB
  8
0
 10
2539.1579761662269448
 20
773.5843665104870297
 30
0.0
 11
2551.8579761662272176
 21
773.5843665104870297
 31
0.0
  0
LINE
  5
5DAD
  8
0
 10
2551.8579761662272176
 20
773.5843665104870297
 30
0.0
 11
2551.8579761662272176
 21
758.8843665104864158
 31
0.0
  0
LINE
  5
5DAE
  8
0
 10
2488.7579761662268538
 20
624.9983321608724509
 30
0.0
 11
2516.7579761662268538
 21
624.9983321608719962
 31
0.0
  0
LINE
  5
5DAF
  8
0
 10
2510.7519761662269957
 20
640.9983321608724509
 30
0.0
 11
2516.7579761662268538
 21
640.9983321608724509
 31
0.0
  0
LINE
  5
5DB0
  8
0
 10
2516.7579761662268538
 20
640.9983321608719962
 30
0.0
 11
2516.7579761662268538
 21
624.9983321608717688
 31
0.0
  0
LINE
  5
5DB1
  8
0
 10
2488.7579761662268538
 20
639.1623321608719834
 30
0.0
 11
2510.7519761662269957
 21
639.1623321608719834
 31
0.0
  0
LINE
  5
5DB2
  8
0
 10
2468.8079761662270357
 20
659.1623321608719834
 30
0.0
 11
2510.7519761662269957
 21
659.1623321608719834
 31
0.0
  0
LINE
  5
5DB3
  8
0
 10
2510.7519761662269957
 20
659.1623321608719834
 30
0.0
 11
2510.7519761662269957
 21
639.1623321608719834
 31
0.0
  0
LINE
  5
5DB5
  8
0
 10
2468.8079761662270357
 20
1055.1623321608719834
 30
0.0
 11
2498.3079761662270357
 21
1055.1623321608719834
 31
0.0
  0
LINE
  5
5DB6
  8
0
 10
2471.3079761662270357
 20
1052.6623321608710739
 30
0.0
 11
2498.3079761662270357
 21
1052.6623321608710739
 31
0.0
  0
LINE
  5
5DB7
  8
0
 10
2498.3079761662270357
 20
1055.1623321608719834
 30
0.0
 11
2498.3079761662270357
 21
1052.6623321608710739
 31
0.0
  0
LINE
  5
5DB8
  8
0
 10
2484.3079761662270357
 20
1060.1623321608719834
 30
0.0
 11
2484.3079761662270357
 21
1047.6623321608719834
 31
0.0
  0
LINE
  5
5DB9
  8
0
 10
904.3079761662279452
 20
1052.6623321608710739
 30
0.0
 11
904.3079761662279452
 21
959.7623321608722335
 31
0.0
  0
LINE
  5
5DBA
  8
0
 10
906.8079761662270357
 20
1055.1623321608719834
 30
0.0
 11
877.3079761662270357
 21
1055.1623321608719834
 31
0.0
  0
LINE
  5
5DBB
  8
0
 10
904.3079761662279452
 20
1052.6623321608710739
 30
0.0
 11
877.3079761662270357
 21
1052.6623321608710739
 31
0.0
  0
LINE
  5
5DBD
  8
0
 10
877.3079761662270357
 20
1055.1623321608719834
 30
0.0
 11
877.3079761662270357
 21
1052.6623321608710739
 31
0.0
  0
LINE
  5
5DBE
  8
0
 10
891.307976166226922
 20
1060.1623321608719834
 30
0.0
 11
891.307976166226922
 21
1047.6623321608719834
 31
0.0
  0
LINE
  5
5DBF
  8
0
 10
2319.3079761662238525
 20
1033.212332160871938
 30
0.0
 11
2319.3079761662279452
 21
635.1123321608722563
 31
0.0
  0
LINE
  5
5DC0
  8
0
 10
1027.3079761662279452
 20
1041.8086217760519503
 30
0.0
 11
1027.3079761662279452
 21
635.1123321608722563
 31
0.0
  0
LINE
  5
5DC1
  8
0
 10
2319.3079761662279452
 20
635.1123321608722563
 30
0.0
 11
1027.3079761662279452
 21
635.1123321608722563
 31
0.0
  0
LINE
  5
5DC2
  8
0
 10
2319.3079761662238525
 20
1041.8086217760519503
 30
0.0
 11
1027.3079761662279452
 21
1041.8086217760519503
 31
0.0
  0
LINE
  5
5DC3
  8
0
 10
2222.3079761662261262
 20
641.0623321608720744
 30
0.0
 11
1124.3079761662258989
 21
641.062332160871847
 31
0.0
  0
LINE
  5
5DC4
  8
0
 10
2222.3079761662261262
 20
903.0553321608723536
 30
0.0
 11
1124.3079761662258989
 21
903.0553321608723536
 31
0.0
  0
LINE
  5
5DC5
  8
0
 10
1124.3079761662258989
 20
903.0553321608723536
 30
0.0
 11
1124.3079761662258989
 21
641.062332160871847
 31
0.0
  0
LINE
  5
5DC6
  8
0
 10
2222.3079761662261262
 20
903.0553321608723536
 30
0.0
 11
2222.3079761662261262
 21
641.0623321608720744
 31
0.0
  0
LINE
  5
5DC8
  8
0
 10
2395.3079761662238525
 20
1028.477332160872038
 30
0.0
 11
2319.3079761662238525
 21
1028.477332160872038
 31
0.0
  0
LINE
  5
5DCB
  8
0
 10
1027.3079761662279452
 20
1055.1623321608719834
 30
0.0
 11
1027.3079761662279452
 21
959.7623321608722335
 31
0.0
  0
LINE
  5
5DD3
  8
0
 10
2319.3079761662238525
 20
1055.1623321608719834
 30
0.0
 11
2319.3079761662238525
 21
959.7623321608722335
 31
0.0
  0
LINE
  5
5DD4
  8
0
 10
2321.8079761662279452
 20
1052.6623321608710739
 30
0.0
 11
2321.8079761662279452
 21
959.7623321608722335
 31
0.0
  0
LINE
  5
5DD5
  8
0
 10
2319.3079761662238525
 20
1055.1623321608719834
 30
0.0
 11
2353.3079761662270357
 21
1055.1623321608719834
 31
0.0
  0
LINE
  5
5DD6
  8
0
 10
2321.8079761662279452
 20
1052.6623321608710739
 30
0.0
 11
2353.3079761662270357
 21
1052.6623321608710739
 31
0.0
  0
LINE
  5
5DD7
  8
0
 10
2353.3079761662270357
 20
1055.1623321608719834
 30
0.0
 11
2353.3079761662270357
 21
1052.6623321608710739
 31
0.0
  0
LINE
  5
5DD8
  8
0
 10
2319.3079761662238525
 20
959.7623321608722335
 30
0.0
 11
2321.8079761662279452
 21
959.7623321608722335
 31
0.0
  0
LINE
  5
5DD9
  8
0
 10
2339.3079761662270357
 20
1060.1623321608719834
 30
0.0
 11
2339.3079761662270357
 21
1047.6623321608719834
 31
0.0
  0
LINE
  5
5DDA
  8
0
 10
2468.8079761662270357
 20
1044.1623321608719834
 30
0.0
 11
906.8079761662263536
 21
1044.1623321608719834
 31
0.0
  0
LINE
  5
5DE8
  8
0
  6
HIDDEN
 62
     7
 10
2319.3079761662238525
 20
958.7623321608704146
 30
0.0
 11
2319.3079761662238525
 21
1006.2623321608699598
 31
0.0
  0
LINE
  5
5E06
  8
0
  6
HIDDEN
 62
     7
 10
1027.3079761662279452
 20
958.7623321608704146
 30
0.0
 11
1027.3079761662279452
 21
1006.2623321608699598
 31
0.0
  0
TEXT
  5
5E17
  8
0
 10
1520.1237254500829295
 20
758.7444947434516962
 30
0.0
 40
37.5
  1
ISD 251LYX
  7
TITLE3
  0
LINE
  5
5E18
  8
0
 62
     7
 10
886.857976166227445
 20
604.1623321608718697
 30
0.0
 11
886.857976166227445
 21
516.2506983474129356
 31
0.0
  0
LINE
  5
5E19
  8
0
 62
     7
 10
916.8579761662269902
 20
536.250698347413163
 30
0.0
 11
1576.9265243400070631
 21
536.2506983474132767
 31
0.0
  0
SOLID
  5
5E1A
  8
0
 62
     7
 10
916.8579761662269902
 20
541.2506983474129356
 30
0.0
 11
916.8579761662269902
 21
531.2506983474129356
 31
0.0
 12
886.857976166227445
 22
536.250698347413163
 32
0.0
 13
886.857976166227445
 23
536.250698347413163
 33
0.0
  0
LINE
  5
5E1B
  8
0
 62
     7
 10
2551.8579761662272176
 20
656.8372906806257561
 30
0.0
 11
2551.8579761662272176
 21
516.2506983474129356
 31
0.0
  0
LINE
  5
5E1C
  8
0
 62
     7
 10
2521.8579761662281271
 20
536.250698347413163
 30
0.0
 11
1771.6739269515940123
 21
536.2506983474132767
 31
0.0
  0
SOLID
  5
5E1D
  8
0
 62
     7
 10
2521.8579761662281271
 20
541.2506983474129356
 30
0.0
 11
2521.8579761662281271
 21
531.2506983474129356
 31
0.0
 12
2551.8579761662272176
 22
536.250698347413163
 32
0.0
 13
2551.8579761662272176
 23
536.250698347413163
 33
0.0
  0
TEXT
  5
5E1E
  8
0
 62
     7
 10
1583.1773482856960982
 20
523.7506983474122535
 30
0.0
 40
25.0
  1
1665 O/A
  0
LINE
  5
5E36
  8
0
 10
2488.7579761662268538
 20
649.1623321608717561
 30
0.0
 11
2328.3079761662288547
 21
649.1623321608717561
 31
0.0
  0
LINE
  5
5E3A
  8
0
  6
HIDDEN
 62
     7
 10
2468.8079761662252167
 20
958.7623321608704146
 30
0.0
 11
2468.8079761662252167
 21
1006.2623321608699598
 31
0.0
  0
LINE
  5
5F0B
  8
0
 62
     7
 10
859.8079761662254441
 20
956.2623321608701872
 30
0.0
 11
859.8079761662254441
 21
1219.9668517125180642
 31
0.0
  0
LINE
  5
5F0C
  8
0
 62
     7
 10
889.8079761662254441
 20
1199.9668517125180642
 30
0.0
 11
1304.310587904572003
 21
1199.9668517125180642
 31
0.0
  0
SOLID
  5
5F0D
  8
0
 62
     7
 10
889.8079761662254441
 20
1204.9668517125180642
 30
0.0
 11
889.8079761662254441
 21
1194.9668517125180642
 31
0.0
 12
859.8079761662254441
 22
1199.9668517125180642
 32
0.0
 13
859.8079761662254441
 23
1199.9668517125180642
 33
0.0
  0
LINE
  5
5F0F
  8
0
 62
     7
 10
2485.8079761662238525
 20
1199.9668517125180642
 30
0.0
 11
2048.80847330732513
 21
1199.9668517125201106
 31
0.0
  0
SOLID
  5
5F10
  8
0
 62
     7
 10
2485.8079761662238525
 20
1204.9668517125180642
 30
0.0
 11
2485.8079761662238525
 21
1194.9668517125180642
 31
0.0
 12
2515.8079761662238525
 22
1199.9668517125180642
 32
0.0
 13
2515.8079761662238525
 23
1199.9668517125180642
 33
0.0
  0
TEXT
  5
5F11
  8
0
 62
     7
 10
1310.5614118502610381
 20
1187.4668517125180642
 30
0.0
 40
25.0
  1
1656 (SPRING MTG CTRS - OPTION)
  0
LINE
  5
5F12
  8
0
 62
     7
 10
979.0479761662268174
 20
956.2623321608695051
 30
0.0
 11
979.0479761662268174
 21
1160.8150777158609799
 31
0.0
  0
LINE
  5
5F13
  8
0
 62
     7
 10
1009.0479761662249985
 20
1140.8150777158609799
 30
0.0
 11
1305.6944552681759433
 21
1140.8150777158618894
 31
0.0
  0
SOLID
  5
5F14
  8
0
 62
     7
 10
1009.0479761662249985
 20
1145.8150777158609799
 30
0.0
 11
1009.0479761662249985
 21
1135.8150777158609799
 31
0.0
 12
979.0479761662268174
 22
1140.8150777158618894
 32
0.0
 13
979.0479761662268174
 23
1140.8150777158618894
 33
0.0
  0
TEXT
  5
5F15
  8
0
 62
     7
 10
1313.4552792138640598
 20
1128.3150777158609799
 30
0.0
 40
25.0
  1
1391 (SPRING MTG CTRS - OPTION)
  0
LINE
  5
5F16
  8
0
 62
     7
 10
2370.3052301640759651
 20
956.2623321608690503
 30
0.0
 11
2370.3052301640759651
 21
1160.8150777158600704
 31
0.0
  0
LINE
  5
5F17
  8
0
 62
     7
 10
2340.3052301640759651
 20
1140.8150777158618894
 30
0.0
 11
2039.7375708495490017
 21
1140.8150777158618894
 31
0.0
  0
SOLID
  5
5F18
  8
0
 62
     7
 10
2340.3052301640759651
 20
1145.8150777158600704
 30
0.0
 11
2340.3052301640759651
 21
1135.8150777158600704
 31
0.0
 12
2370.3052301640759651
 22
1140.8150777158618894
 32
0.0
 13
2370.3052301640759651
 23
1140.8150777158618894
 33
0.0
  0
ARC
  5
5F1C
  8
0
  6
HIDDEN
 62
     7
 10
884.3079761662268083
 20
958.7623321608700735
 30
0.0
 40
22.5
 50
270.0
 51
0.000000000000007
  0
ARC
  5
5F1D
  8
0
  6
HIDDEN
 62
     7
 10
884.3079761662268083
 20
958.7623321608700735
 30
0.0
 40
10.0
 50
270.0
 51
0.000000000000007
  0
LINE
  5
5F1E
  8
0
  6
HIDDEN
 62
     7
 10
884.3079761662268083
 20
948.7623321608700735
 30
0.0
 11
841.8079761662253304
 21
948.7623321608700735
 31
0.0
  0
LINE
  5
5F1F
  8
0
  6
HIDDEN
 62
     7
 10
877.3079761662270357
 20
929.2623321608720062
 30
0.0
 11
842.3079761662268083
 21
929.2623321608720062
 31
0.0
  0
LINE
  5
5F20
  8
0
  6
HIDDEN
 62
     7
 10
884.3079761662268083
 20
936.2623321608721199
 30
0.0
 11
841.8079761662253304
 21
936.2623321608721199
 31
0.0
  0
LINE
  5
5F21
  8
0
  6
HIDDEN
 62
     7
 10
841.8079761662253304
 20
936.2623321608721199
 30
0.0
 11
841.8079761662253304
 21
948.7623321608700735
 31
0.0
  0
LINE
  5
5F22
  8
0
  6
HIDDEN
 62
     7
 10
842.3079761662268083
 20
929.2623321608700735
 30
0.0
 11
842.3079761662268083
 21
932.2623321608720062
 31
0.0
  0
ARC
  5
5F23
  8
0
  6
HIDDEN
 62
     7
 10
846.3079761662266947
 20
932.2623321608720062
 30
0.0
 40
4.0
 50
90.0
 51
180.0
  0
LINE
  5
5F24
  8
0
  6
HIDDEN
 62
     7
 10
859.8079761662254441
 20
929.2623321608720062
 30
0.0
 11
859.8079761662254441
 21
938.934533206457445
 31
0.0
  0
ARC
  5
5F26
  8
0
  6
HIDDEN
 62
     7
 10
873.3079761662266947
 20
932.2623321608720062
 30
0.0
 40
4.0
 50
0.000000000000007
 51
90.0
  0
LINE
  5
5F27
  8
0
  6
HIDDEN
 62
     7
 10
906.8079761662270357
 20
1006.2623321608699598
 30
0.0
 11
894.3079761662271494
 21
1006.2623321608699598
 31
0.0
  0
LINE
  5
5F28
  8
0
  6
HIDDEN
 62
     7
 10
894.3079761662271494
 20
958.7623321608700735
 30
0.0
 11
894.3079761662271494
 21
1006.2623321608699598
 31
0.0
  0
POINT
  5
5F2A
  8
0
  6
HIDDEN
 62
     7
 10
859.8079761662254441
 20
936.2623321608721199
 30
0.0
 50
0.000000000000007
  0
LINE
  5
5F2B
  8
0
 10
1024.8079761662258989
 20
1052.6623321608710739
 30
0.0
 11
1024.8079761662258989
 21
959.7623321608722335
 31
0.0
  0
LINE
  5
5F2C
  8
0
 10
1027.3079761662270357
 20
1055.1623321608719834
 30
0.0
 11
993.3079761662274905
 21
1055.1623321608719834
 31
0.0
  0
LINE
  5
5F2D
  8
0
 10
1024.8079761662270357
 20
1052.6623321608710739
 30
0.0
 11
993.3079761662274905
 21
1052.6623321608710739
 31
0.0
  0
LINE
  5
5F2E
  8
0
 10
1027.3079761662279452
 20
959.7623321608722335
 30
0.0
 11
1024.8079761662258989
 21
959.7623321608722335
 31
0.0
  0
LINE
  5
5F2F
  8
0
 10
993.3079761662274905
 20
1055.1623321608719834
 30
0.0
 11
993.3079761662274905
 21
1052.6623321608710739
 31
0.0
  0
LINE
  5
5F30
  8
0
 10
1011.3079761662270357
 20
1060.1623321608719834
 30
0.0
 11
1011.3079761662270357
 21
1047.6623321608719834
 31
0.0
  0
LINE
  5
5F31
  8
0
  6
HIDDEN
 62
     7
 10
1027.3079761662279452
 20
958.7623321608700735
 30
0.0
 11
1027.3079761662279452
 21
1006.2623321608699598
 31
0.0
  0
ARC
  5
5F32
  8
0
  6
HIDDEN
 62
     7
 10
1003.2979761662270448
 20
958.7623321608700735
 30
0.0
 40
22.5
 50
270.0
 51
0.000000000000007
  0
ARC
  5
5F33
  8
0
  6
HIDDEN
 62
     7
 10
1003.2979761662270448
 20
958.7623321608700735
 30
0.0
 40
10.0
 50
270.0
 51
0.000000000000007
  0
LINE
  5
5F34
  8
0
  6
HIDDEN
 62
     7
 10
1003.2979761662270448
 20
948.7623321608700735
 30
0.0
 11
961.0479761662269311
 21
948.7623321608700735
 31
0.0
  0
LINE
  5
5F35
  8
0
  6
HIDDEN
 62
     7
 10
996.5479761662278406
 20
929.2623321608720062
 30
0.0
 11
961.5479761662269311
 21
929.2623321608720062
 31
0.0
  0
LINE
  5
5F36
  8
0
  6
HIDDEN
 62
     7
 10
1003.2979761662270448
 20
936.2623321608721199
 30
0.0
 11
961.0479761662269311
 21
936.2623321608721199
 31
0.0
  0
LINE
  5
5F37
  8
0
  6
HIDDEN
 62
     7
 10
961.0479761662269311
 20
936.2623321608721199
 30
0.0
 11
961.0479761662269311
 21
948.7623321608700735
 31
0.0
  0
LINE
  5
5F38
  8
0
  6
HIDDEN
 62
     7
 10
961.5479761662269311
 20
929.2623321608700735
 30
0.0
 11
961.5479761662269311
 21
932.2623321608720062
 31
0.0
  0
ARC
  5
5F39
  8
0
  6
HIDDEN
 62
     7
 10
965.5479761662268174
 20
932.2623321608720062
 30
0.0
 40
4.0
 50
90.0
 51
180.0
  0
LINE
  5
5F3A
  8
0
  6
HIDDEN
 62
     7
 10
979.0479761662268174
 20
929.2623321608720062
 30
0.0
 11
979.0479761662268174
 21
938.934533206457445
 31
0.0
  0
LINE
  5
5F3B
  8
0
  6
HIDDEN
 62
     7
 10
996.5479761662278406
 20
929.2623321608700735
 30
0.0
 11
996.5479761662278406
 21
932.2623321608720062
 31
0.0
  0
ARC
  5
5F3C
  8
0
  6
HIDDEN
 62
     7
 10
992.5479761662274996
 20
932.2623321608720062
 30
0.0
 40
4.0
 50
0.000000000000007
 51
90.0
  0
LINE
  5
5F3D
  8
0
  6
HIDDEN
 62
     7
 10
1025.7979761662270448
 20
1006.2623321608699598
 30
0.0
 11
1013.2979761662270448
 21
1006.2623321608699598
 31
0.0
  0
LINE
  5
5F3E
  8
0
  6
HIDDEN
 62
     7
 10
1013.2979761662270448
 20
958.7623321608700735
 30
0.0
 11
1013.2979761662270448
 21
1006.2623321608699598
 31
0.0
  0
LINE
  5
5F3F
  8
0
  6
HIDDEN
 62
     7
 10
1027.3079761662279452
 20
958.7623321608700735
 30
0.0
 11
1027.3079761662279452
 21
1006.2623321608699598
 31
0.0
  0
POINT
  5
5F40
  8
0
  6
HIDDEN
 62
     7
 10
979.0479761662268174
 20
936.2623321608721199
 30
0.0
 50
0.000000000000007
  0
LINE
  5
5F41
  8
0
  6
HIDDEN
 62
     7
 10
2468.8079761662252167
 20
958.7623321608704146
 30
0.0
 11
2468.8079761662252167
 21
1006.2623321608699598
 31
0.0
  0
LINE
  5
5F42
  8
0
  6
HIDDEN
 62
     7
 10
2468.8079761662252167
 20
958.7623321608700735
 30
0.0
 11
2468.8079761662252167
 21
1006.2623321608699598
 31
0.0
  0
ARC
  5
5F43
  8
0
  6
HIDDEN
 62
     7
 10
2491.3079761662238525
 20
958.7623321608700735
 30
0.0
 40
22.5
 50
180.0
 51
270.0
  0
ARC
  5
5F44
  8
0
  6
HIDDEN
 62
     7
 10
2491.3079761662238525
 20
958.7623321608700735
 30
0.0
 40
10.0
 50
180.0
 51
270.0
  0
LINE
  5
5F45
  8
0
  6
HIDDEN
 62
     7
 10
2491.3079761662238525
 20
948.7623321608700735
 30
0.0
 11
2533.8079761662252167
 21
948.7623321608700735
 31
0.0
  0
LINE
  5
5F46
  8
0
  6
HIDDEN
 62
     7
 10
2498.3079761662238525
 20
929.2623321608720062
 30
0.0
 11
2533.3079761662238525
 21
929.2623321608720062
 31
0.0
  0
LINE
  5
5F47
  8
0
  6
HIDDEN
 62
     7
 10
2491.3079761662238525
 20
936.2623321608721199
 30
0.0
 11
2533.8079761662252167
 21
936.2623321608721199
 31
0.0
  0
LINE
  5
5F48
  8
0
  6
HIDDEN
 62
     7
 10
2533.8079761662252167
 20
936.2623321608721199
 30
0.0
 11
2533.8079761662252167
 21
948.7623321608700735
 31
0.0
  0
LINE
  5
5F49
  8
0
  6
HIDDEN
 62
     7
 10
2533.3079761662238525
 20
929.2623321608700735
 30
0.0
 11
2533.3079761662238525
 21
932.2623321608720062
 31
0.0
  0
ARC
  5
5F4A
  8
0
  6
HIDDEN
 62
     7
 10
2529.3079761662238525
 20
932.2623321608720062
 30
0.0
 40
4.0
 50
0.000000000000007
 51
90.0
  0
LINE
  5
5F4B
  8
0
  6
HIDDEN
 62
     7
 10
2515.8079761662238525
 20
929.2623321608720062
 30
0.0
 11
2515.8079761662238525
 21
938.934533206457445
 31
0.0
  0
LINE
  5
5F4C
  8
0
  6
HIDDEN
 62
     7
 10
2498.3079761662238525
 20
929.2623321608700735
 30
0.0
 11
2498.3079761662238525
 21
932.2623321608720062
 31
0.0
  0
ARC
  5
5F4D
  8
0
  6
HIDDEN
 62
     7
 10
2502.3079761662252167
 20
932.2623321608720062
 30
0.0
 40
4.0
 50
90.0
 51
180.0
  0
LINE
  5
5F4E
  8
0
  6
HIDDEN
 62
     7
 10
2468.8079761662252167
 20
1006.2623321608699598
 30
0.0
 11
2481.3079761662238525
 21
1006.2623321608699598
 31
0.0
  0
LINE
  5
5F4F
  8
0
  6
HIDDEN
 62
     7
 10
2481.3079761662238525
 20
958.7623321608700735
 30
0.0
 11
2481.3079761662238525
 21
1006.2623321608699598
 31
0.0
  0
LINE
  5
5F50
  8
0
  6
HIDDEN
 62
     7
 10
2468.8079761662252167
 20
958.7623321608700735
 30
0.0
 11
2468.8079761662252167
 21
1006.2623321608699598
 31
0.0
  0
POINT
  5
5F51
  8
0
  6
HIDDEN
 62
     7
 10
2515.8079761662238525
 20
936.2623321608721199
 30
0.0
 50
180.0
  0
LINE
  5
5F52
  8
0
  6
HIDDEN
 62
     7
 10
2319.3079761662238525
 20
958.762332160869164
 30
0.0
 11
2319.3079761662238525
 21
1006.2623321608690503
 31
0.0
  0
LINE
  5
5F53
  8
0
  6
HIDDEN
 62
     7
 10
2319.3079761662238525
 20
958.7623321608687093
 30
0.0
 11
2319.3079761662238525
 21
1006.2623321608690503
 31
0.0
  0
ARC
  5
5F54
  8
0
  6
HIDDEN
 62
     7
 10
2341.8079761662270357
 20
958.762332160869164
 30
0.0
 40
22.5
 50
180.0
 51
270.0
  0
ARC
  5
5F55
  8
0
  6
HIDDEN
 62
     7
 10
2341.8079761662270357
 20
958.762332160869164
 30
0.0
 40
10.0
 50
180.0
 51
270.0
  0
LINE
  5
5F56
  8
0
  6
HIDDEN
 62
     7
 10
2341.8079761662270357
 20
948.762332160869164
 30
0.0
 11
2388.0579761662288547
 21
948.762332160869164
 31
0.0
  0
LINE
  5
5F57
  8
0
  6
HIDDEN
 62
     7
 10
2352.5579761662261262
 20
929.262332160871324
 30
0.0
 11
2387.5579761662270357
 21
929.262332160871324
 31
0.0
  0
LINE
  5
5F58
  8
0
  6
HIDDEN
 62
     7
 10
2341.8079761662270357
 20
936.2623321608706419
 30
0.0
 11
2388.0579761662288547
 21
936.2623321608706419
 31
0.0
  0
LINE
  5
5F59
  8
0
  6
HIDDEN
 62
     7
 10
2388.0579761662288547
 20
936.2623321608706419
 30
0.0
 11
2388.0579761662288547
 21
948.762332160869164
 31
0.0
  0
LINE
  5
5F5A
  8
0
  6
HIDDEN
 62
     7
 10
2387.5579761662270357
 20
929.262332160869164
 30
0.0
 11
2387.5579761662270357
 21
932.262332160871324
 31
0.0
  0
ARC
  5
5F5B
  8
0
  6
HIDDEN
 62
     7
 10
2383.5579761662270357
 20
932.262332160871324
 30
0.0
 40
4.0
 50
0.000000000000007
 51
90.0
  0
LINE
  5
5F5C
  8
0
  6
HIDDEN
 62
     7
 10
2370.0579761662270357
 20
929.262332160871324
 30
0.0
 11
2370.0579761662270357
 21
938.9345332064567629
 31
0.0
  0
LINE
  5
5F5D
  8
0
  6
HIDDEN
 62
     7
 10
2352.5579761662261262
 20
929.262332160869164
 30
0.0
 11
2352.5579761662261262
 21
932.262332160871324
 31
0.0
  0
ARC
  5
5F5E
  8
0
  6
HIDDEN
 62
     7
 10
2356.5579761662252167
 20
932.262332160871324
 30
0.0
 40
4.0
 50
90.0
 51
180.0
  0
LINE
  5
5F5F
  8
0
  6
HIDDEN
 62
     7
 10
2319.3079761662238525
 20
1006.2623321608690503
 30
0.0
 11
2331.8079761662261262
 21
1006.2623321608690503
 31
0.0
  0
LINE
  5
5F60
  8
0
  6
HIDDEN
 62
     7
 10
2331.8079761662261262
 20
958.762332160869164
 30
0.0
 11
2331.8079761662261262
 21
1006.2623321608690503
 31
0.0
  0
LINE
  5
5F61
  8
0
  6
HIDDEN
 62
     7
 10
2319.3079761662238525
 20
958.762332160869164
 30
0.0
 11
2319.3079761662238525
 21
1006.2623321608690503
 31
0.0
  0
POINT
  5
5F62
  8
0
  6
HIDDEN
 62
     7
 10
2370.0579761662270357
 20
936.2623321608706419
 30
0.0
 50
180.0
  0
LINE
  5
5F70
  8
0
 62
     7
 10
1011.3079761662270357
 20
1690.1001991520779484
 30
0.0
 11
1011.3079761662270357
 21
1508.6518225811419143
 31
0.0
  0
LINE
  5
6368
  8
0
 10
2539.1579761662269448
 20
773.5843665104870297
 30
0.0
 11
2539.1579761662269448
 21
758.8843665104864158
 31
0.0
  0
LINE
  5
636A
  8
0
 10
2468.8079761662270357
 20
2142.7101991520771662
 30
0.0
 11
2535.8579761662272176
 21
2142.7101991520771662
 31
0.0
  0
LINE
  5
636B
  8
0
 10
2535.8579761662272176
 20
2141.7101991520780757
 30
0.0
 11
2551.8579761662272176
 21
2141.7101991520780757
 31
0.0
  0
LINE
  5
636C
  8
0
 10
2468.8079761662270357
 20
2164.710199152075802
 30
0.0
 11
2535.8579761662272176
 21
2164.7101991520780757
 31
0.0
  0
LINE
  5
636D
  8
0
 10
2535.8579761662272176
 20
2165.7101991520780757
 30
0.0
 11
2551.8579761662272176
 21
2165.7101991520780757
 31
0.0
  0
LINE
  5
636E
  8
0
 10
2551.8579761662272176
 20
2165.7101991520780757
 30
0.0
 11
2551.8579761662272176
 21
2141.7101991520780757
 31
0.0
  0
LINE
  5
636F
  8
0
 10
2535.8579761662272176
 20
2165.7101991520780757
 30
0.0
 11
2535.8579761662272176
 21
2160.0601991520770753
 31
0.0
  0
LINE
  5
6371
  8
0
 10
2468.8079761662270357
 20
2147.3601991520790762
 30
0.0
 11
2539.1579761662269448
 21
2147.3601991520790762
 31
0.0
  0
LINE
  5
6372
  8
0
 10
2539.1579761662269448
 20
2146.3601991520790762
 30
0.0
 11
2551.8579761662272176
 21
2146.3601991520790762
 31
0.0
  0
LINE
  5
6373
  8
0
 10
2468.8079761662270357
 20
2160.0601991520770753
 30
0.0
 11
2539.1579761662269448
 21
2160.0601991520770753
 31
0.0
  0
LINE
  5
6374
  8
0
 10
2539.1579761662269448
 20
2161.0601991520770753
 30
0.0
 11
2551.8579761662272176
 21
2161.0601991520770753
 31
0.0
  0
LINE
  5
6375
  8
0
 10
2551.8579761662272176
 20
2161.0601991520770753
 30
0.0
 11
2551.8579761662272176
 21
2146.3601991520790762
 31
0.0
  0
LINE
  5
6376
  8
0
 10
2539.1579761662269448
 20
2161.0601991520770753
 30
0.0
 11
2539.1579761662269448
 21
2146.3601991520790762
 31
0.0
  0
LINE
  5
6377
  8
0
 10
2488.7579761662268538
 20
2345.2001991520801312
 30
0.0
 11
2488.7579761662268538
 21
2163.7101991520771662
 31
0.0
  0
LINE
  5
6DA9
  8
0
 62
     7
 10
2515.8079761662261262
 20
956.2623321608701872
 30
0.0
 11
2515.8079761662261262
 21
1219.9668517125180642
 31
0.0
  0
CIRCLE
  5
7168
  8
0
 10
3556.3648659109248911
 20
998.2623321608722335
 30
0.0
 40
6.0
  0
CIRCLE
  5
716A
  8
0
 10
3556.3648659109248911
 20
968.2623321608723472
 30
0.0
 40
6.0
  0
CIRCLE
  5
716B
  8
0
 10
2890.3648659109258006
 20
998.2623321608722335
 30
0.0
 40
6.0
  0
CIRCLE
  5
716C
  8
0
 10
2890.3648659109258006
 20
968.2623321608723472
 30
0.0
 40
6.0
  0
LINE
  5
71B9
  8
0
 10
2468.8079761662270357
 20
1044.1623321608719834
 30
0.0
 11
2468.8079761662270357
 21
649.1623321608717561
 31
0.0
  0
LINE
  5
71BA
  8
0
 10
2468.807976166222943
 20
1055.1623321608719834
 30
0.0
 11
2468.807976166222943
 21
959.7623321608722335
 31
0.0
  0
LINE
  5
71BB
  8
0
 10
2471.3079761662270357
 20
1052.6623321608710739
 30
0.0
 11
2471.3079761662270357
 21
959.7623321608722335
 31
0.0
  0
LINE
  5
71BC
  8
0
 10
2468.807976166222943
 20
959.7623321608722335
 30
0.0
 11
2471.3079761662270357
 21
959.7623321608722335
 31
0.0
  0
LINE
  5
71BD
  8
0
 10
1027.3079761662279452
 20
649.1623321608717561
 30
0.0
 11
906.8079761662270357
 21
649.1623321608717561
 31
0.0
  0
LINE
  5
7997
  8
0
 10
2535.8579761662272176
 20
2147.3601991520790762
 30
0.0
 11
2535.8579761662272176
 21
2141.7101991520780757
 31
0.0
  0
LINE
  5
799C
  8
0
 10
2395.3079761662252167
 20
859.477332160872038
 30
0.0
 11
2319.3079761662238525
 21
859.477332160872038
 31
0.0
  0
LINE
  5
799D
  8
0
 10
2328.3079761662288547
 20
646.4773321608719243
 30
0.0
 11
2319.3079761662238525
 21
646.4773321608719243
 31
0.0
  0
LINE
  5
799E
  8
0
 10
2328.3079761662261262
 20
859.477332160872038
 30
0.0
 11
2328.3079761662288547
 21
646.4773321608719243
 31
0.0
  0
LINE
  5
799F
  8
0
 10
2395.3079761662252167
 20
1028.477332160872038
 30
0.0
 11
2395.3079761662252167
 21
859.477332160872038
 31
0.0
  0
CIRCLE
  5
79AB
  8
0
 10
3443.7898659109241635
 20
634.3258443717791124
 30
0.0
 40
9.5
  0
LINE
  5
79AC
  8
0
 10
2937.2148659109238906
 20
859.4773321608722654
 30
0.0
 11
3246.2148659109279834
 21
859.477332160872038
 31
0.0
  0
LINE
  5
79B7
  8
0
 10
2962.2148659109229811
 20
646.4773321608719243
 30
0.0
 11
3233.2148659109279834
 21
646.4773321608719243
 31
0.0
  0
LINE
  5
79BA
  8
0
 10
3233.2148659109279834
 20
859.477332160872038
 30
0.0
 11
3233.2148659109279834
 21
646.4773321608719243
 31
0.0
  0
LINE
  5
79BB
  8
0
 10
2962.2148659109238906
 20
859.4773321608722654
 30
0.0
 11
2962.2148659109211621
 21
646.4773321608719243
 31
0.0
  0
LINE
  5
79C8
  8
0
 62
     7
 10
941.7833682703053455
 20
2425.6501991520772208
 30
0.0
 11
773.6101251230451226
 21
2425.6501991520772208
 31
0.0
  0
LINE
  5
79C9
  8
0
 62
     7
 10
793.6101251230410298
 20
2395.6501991520772208
 30
0.0
 11
793.610125123042053
 21
2324.9262981529927856
 31
0.0
  0
SOLID
  5
79CA
  8
0
 62
     7
 10
798.6101251230451226
 20
2395.6501991520772208
 30
0.0
 11
788.6101251230408025
 21
2395.6501991520772208
 31
0.0
 12
793.6101251230410298
 22
2425.6501991520772208
 32
0.0
 13
793.6101251230410298
 23
2425.6501991520772208
 33
0.0
  0
TEXT
  5
79CB
  8
0
 62
     7
 10
806.1101251230427351
 20
2252.0104554320150783
 30
0.0
 40
25.0
  1
300
 50
90.0
  0
LINE
  5
79CC
  8
0
 62
     7
 10
873.1949974959675274
 20
2125.6501991520781303
 30
0.0
 11
773.6101251230451226
 21
2125.6501991520781303
 31
0.0
  0
LINE
  5
79CD
  8
0
 62
     7
 10
793.6101251230410298
 20
2155.6501991520781303
 30
0.0
 11
793.6101251230410298
 21
2245.7596314863249063
 31
0.0
  0
SOLID
  5
79CE
  8
0
 62
     7
 10
798.6101251230451226
 20
2155.6501991520781303
 30
0.0
 11
788.6101251230408025
 21
2155.6501991520781303
 31
0.0
 12
793.6101251230410298
 22
2125.6501991520781303
 32
0.0
 13
793.6101251230410298
 23
2125.6501991520781303
 33
0.0
  0
LINE
  5
79D1
  8
0
 62
     7
 10
873.1949974959675274
 20
2125.6501991520781303
 30
0.0
 11
773.6101251230451226
 21
2125.6501991520781303
 31
0.0
  0
LINE
  5
79D2
  8
0
 62
     7
 10
793.6101251230410298
 20
2095.6501991520781303
 30
0.0
 11
793.610125123042053
 21
1918.6449071649360576
 31
0.0
  0
SOLID
  5
79D3
  8
0
 62
     7
 10
798.6101251230451226
 20
2095.6501991520781303
 30
0.0
 11
788.6101251230408025
 21
2095.6501991520781303
 31
0.0
 12
793.6101251230410298
 22
2125.6501991520781303
 32
0.0
 13
793.6101251230410298
 23
2125.6501991520781303
 33
0.0
  0
TEXT
  5
79D4
  8
0
 62
     7
 10
806.1101251230427351
 20
1845.729064443956986
 30
0.0
 40
25.0
  1
486
 50
90.0
  0
LINE
  5
79D5
  8
0
 62
     7
 10
1108.9928340838459917
 20
1641.6501991520779029
 30
0.0
 11
773.6101251230451226
 21
1641.6501991520779029
 31
0.0
  0
LINE
  5
79D6
  8
0
 62
     7
 10
793.6101251230410298
 20
1671.6501991520779029
 30
0.0
 11
793.6101251230410298
 21
1839.4782404982679509
 31
0.0
  0
SOLID
  5
79D7
  8
0
 62
     7
 10
798.6101251230451226
 20
1671.6501991520779029
 30
0.0
 11
788.6101251230408025
 21
1671.6501991520779029
 31
0.0
 12
793.6101251230410298
 22
1641.6501991520779029
 32
0.0
 13
793.6101251230410298
 23
1641.6501991520779029
 33
0.0
  0
TEXT
  5
79DB
  8
0
 62
     7
 10
843.167959945023199
 20
2202.6310861191600452
 30
0.0
 40
25.0
  1
Coil box
 50
90.0
  0
TEXT
  5
79DC
  8
0
 62
     7
 10
843.167959945023199
 20
1807.5961129755239654
 30
0.0
 40
25.0
  1
Fan box
 50
90.0
  0
CIRCLE
  5
7B2A
  8
0
 10
3344.2748659109261098
 20
688.392332160872229
 30
0.0
 40
9.5
  0
CIRCLE
  5
7B2B
  8
0
 10
3344.2748659109261098
 20
749.5372523182051054
 30
0.0
 40
5.0
  0
LINE
  5
82F6
  8
0
  6
PHANTOM
 62
     7
 10
386.8579761662259102
 20
1641.6501991520779029
 30
0.0
 11
386.8579761662268197
 21
2384.6501991520808588
 31
0.0
  0
LINE
  5
82F7
  8
0
  6
PHANTOM
 62
     7
 10
386.8579761662268197
 20
2384.6501991520808588
 30
0.0
 11
773.6101251230412572
 21
2384.6501991520799493
 31
0.0
  0
TEXT
  5
82F8
  8
0
 62
     7
 10
370.5682255240321865
 20
1812.9818970912770055
 30
0.0
 40
25.0
  1
500 mm CLEARENCE
 50
90.0
  7
TITLE3
  0
LINE
  5
82F9
  8
0
  6
PHANTOM
 62
     7
 10
753.6101251230451226
 20
1641.6501991520779029
 30
0.0
 11
386.8579761662259102
 21
1641.6501991520779029
 31
0.0
  0
ENDSEC
  0
EOF
