  0
SECTION
  2
HEADER
  9
$ACADVER
  1
AC1009
  9
$INSBASE
 10
0.0
 20
0.0
 30
0.0
  9
$EXTMIN
 10
1575.6826981712179077
 20
-148.1667746308121139
 30
-0.0000000000000053
  9
$EXTMAX
 10
6203.1302042667894057
 20
3481.9523400746620609
 30
0.0000000000000099
  9
$LIMMIN
 10
0.0
 20
0.0
  9
$LIMMAX
 10
7780.0
 20
5320.0
  9
$ORTHOMODE
 70
     1
  9
$REGENMODE
 70
     1
  9
$FILLMODE
 70
     1
  9
$QTEXTMODE
 70
     0
  9
$MIRRTEXT
 70
     0
  9
$DRAGMODE
 70
     2
  9
$LTSCALE
 40
100.0
  9
$OSMODE
 70
  4095
  9
$ATTMODE
 70
     1
  9
$TEXTSIZE
 40
45.0
  9
$TRACEWID
 40
0.05
  9
$TEXTSTYLE
  7
TITLE3
  9
$CLAYER
  8
OUTLINE
  9
$CELTYPE
  6
BYLAYER
  9
$CECOLOR
 62
   256
  9
$DIMSCALE
 40
1.0
  9
$DIMASZ
 40
0.12
  9
$DIMEXO
 40
0.05
  9
$DIMDLI
 40
0.5
  9
$DIMRND
 40
0.0
  9
$DIMDLE
 40
0.0
  9
$DIMEXE
 40
0.1
  9
$DIMTP
 40
0.1
  9
$DIMTM
 40
0.1
  9
$DIMTXT
 40
0.12
  9
$DIMCEN
 40
0.0
  9
$DIMTSZ
 40
0.0
  9
$DIMTOL
 70
     0
  9
$DIMLIM
 70
     0
  9
$DIMTIH
 70
     1
  9
$DIMTOH
 70
     1
  9
$DIMSE1
 70
     0
  9
$DIMSE2
 70
     0
  9
$DIMTAD
 70
     0
  9
$DIMZIN
 70
     7
  9
$DIMBLK
  1

  9
$DIMASO
 70
     0
  9
$DIMSHO
 70
     0
  9
$DIMPOST
  1

  9
$DIMAPOST
  1
mm
  9
$DIMALT
 70
     0
  9
$DIMALTD
 70
     2
  9
$DIMALTF
 40
25.3999999999999986
  9
$DIMLFAC
 40
1.0
  9
$DIMTOFL
 70
     0
  9
$DIMTVP
 40
0.0
  9
$DIMTIX
 70
     0
  9
$DIMSOXD
 70
     0
  9
$DIMSAH
 70
     0
  9
$DIMBLK1
  1

  9
$DIMBLK2
  1

  9
$DIMSTYLE
  2
AM_ANSI
  9
$DIMCLRD
 70
   256
  9
$DIMCLRE
 70
   256
  9
$DIMCLRT
 70
     2
  9
$DIMTFAC
 40
0.71
  9
$DIMGAP
 40
0.06
  9
$LUNITS
 70
     2
  9
$LUPREC
 70
     2
  9
$SKETCHINC
 40
0.1
  9
$FILLETRAD
 40
0.0
  9
$AUNITS
 70
     0
  9
$AUPREC
 70
     2
  9
$MENU
  1
\acad12\support\cnc
  9
$ELEVATION
 40
0.0
  9
$PELEVATION
 40
0.0
  9
$THICKNESS
 40
0.0
  9
$LIMCHECK
 70
     0
  9
$BLIPMODE
 70
     0
  9
$CHAMFERA
 40
0.0
  9
$CHAMFERB
 40
0.0
  9
$SKPOLY
 70
     0
  9
$TDCREATE
 40
2451402.6391435191035271
  9
$TDUPDATE
 40
2458892.6276851850561798
  9
$TDINDWG
 40
0.7009893403
  9
$TDUSRTIMER
 40
0.7009811574
  9
$USRTIMER
 70
     1
  9
$ANGBASE
 50
0.0
  9
$ANGDIR
 70
     0
  9
$PDMODE
 70
     2
  9
$PDSIZE
 40
15.0
  9
$PLINEWID
 40
0.0
  9
$COORDS
 70
     1
  9
$SPLFRAME
 70
     0
  9
$SPLINETYPE
 70
     6
  9
$SPLINESEGS
 70
     8
  9
$ATTDIA
 70
     1
  9
$ATTREQ
 70
     1
  9
$HANDLING
 70
     1
  9
$HANDSEED
  5
2CB8
  9
$SURFTAB1
 70
     6
  9
$SURFTAB2
 70
     6
  9
$SURFTYPE
 70
     6
  9
$SURFU
 70
     6
  9
$SURFV
 70
     6
  9
$UCSNAME
  2

  9
$UCSORG
 10
0.0
 20
0.0
 30
0.0
  9
$UCSXDIR
 10
1.0
 20
0.0
 30
0.0
  9
$UCSYDIR
 10
0.0
 20
1.0
 30
0.0
  9
$PUCSNAME
  2

  9
$PUCSORG
 10
0.0
 20
0.0
 30
0.0
  9
$PUCSXDIR
 10
1.0
 20
0.0
 30
0.0
  9
$PUCSYDIR
 10
0.0
 20
1.0
 30
0.0
  9
$USERI1
 70
     0
  9
$USERI2
 70
     0
  9
$USERI3
 70
     0
  9
$USERI4
 70
     0
  9
$USERI5
 70
     0
  9
$USERR1
 40
0.0
  9
$USERR2
 40
0.0
  9
$USERR3
 40
0.0
  9
$USERR4
 40
0.0
  9
$USERR5
 40
0.0
  9
$WORLDVIEW
 70
     1
  9
$SHADEDGE
 70
     3
  9
$SHADEDIF
 70
    70
  9
$TILEMODE
 70
     1
  9
$MAXACTVP
 70
    16
  9
$PLIMCHECK
 70
     0
  9
$PEXTMIN
 10
1.0000000000000000E+20
 20
1.0000000000000000E+20
 30
1.0000000000000000E+20
  9
$PEXTMAX
 10
-1.0000000000000000E+20
 20
-1.0000000000000000E+20
 30
-1.0000000000000000E+20
  9
$PLIMMIN
 10
0.0
 20
0.0
  9
$PLIMMAX
 10
12.0
 20
9.0
  9
$UNITMODE
 70
     0
  9
$VISRETAIN
 70
     0
  9
$PLINEGEN
 70
     0
  9
$PSLTSCALE
 70
     0
  0
ENDSEC
  0
SECTION
  2
TABLES
  0
TABLE
  2
VPORT
 70
     1
  0
VPORT
  2
*ACTIVE
 70
     0
 10
0.0
 20
0.0
 11
1.0
 21
1.0
 12
3889.4064512190029745
 22
1666.8927827219249593
 13
0.0
 23
0.0
 14
50.0
 24
50.0
 15
100.0
 25
100.0
 16
0.0
 26
0.0
 36
1.0
 17
0.0
 27
0.0
 37
0.0
 40
3653.5392380261550898
 41
1.6264800861141011
 42
50.0
 43
0.0
 44
0.0
 50
0.0
 51
0.0
 71
     0
 72
   100
 73
     1
 74
     0
 75
     0
 76
     0
 77
     0
 78
     0
  0
ENDTAB
  0
TABLE
  2
LTYPE
 70
    21
  0
LTYPE
  2
CONTINUOUS
 70
     0
  3
Solid line
 72
    65
 73
     0
 40
0.0
  0
LTYPE
  2
PHANTOM2
 70
     0
  3
Phantom (.5x) ___ _ _ ___ _ _ ___ _ _ ___ _ _
 72
    65
 73
     6
 40
1.25
 49
0.625
 49
-0.125
 49
0.125
 49
-0.125
 49
0.125
 49
-0.125
  0
LTYPE
  2
PHANTOM
 70
     0
  3
______  __  __  ______  __  __  ______  __  __ 
 72
    65
 73
     6
 40
2.5
 49
1.25
 49
-0.25
 49
0.25
 49
-0.25
 49
0.25
 49
-0.25
  0
LTYPE
  2
HIDDEN
 70
     0
  3
Hidden __ __ __ __ __ __ __ __ __ __ __ __ __ _
 72
    65
 73
     2
 40
0.375
 49
0.25
 49
-0.125
  0
LTYPE
  2
CENTER
 70
     0
  3
Center ____ _ ____ _ ____ _ ____ _ ____ _ ____
 72
    65
 73
     4
 40
2.0
 49
1.25
 49
-0.25
 49
0.25
 49
-0.25
  0
LTYPE
  2
AM_ISO02W050
 70
     0
  3
__ __ __ __ __ __ __ __ __ __ __ __ __ __ __
 72
    65
 73
     2
 40
7.5
 49
6.0
 49
-1.5
  0
LTYPE
  2
AM_ISO08W050
 70
     0
  3
____ . ____ . ____ . ____ . ____ . ____ . ____
 72
    65
 73
     4
 40
18.0
 49
12.0
 49
-1.5
 49
3.0
 49
-1.5
  0
LTYPE
  2
AM_ISO09W050
 70
     0
  3
_____ . . _____ . . _____ . . ____ .. ____
 72
    65
 73
     6
 40
22.5
 49
12.0
 49
-1.5
 49
3.0
 49
-1.5
 49
3.0
 49
-1.5
  0
LTYPE
  2
AMCONSTR
 70
     0
  3
_______________________
 72
    65
 73
     2
 40
9999.0
 49
9999.0
 49
0.0
  0
LTYPE
  2
AM_ISO08W050X2
 70
     0
  3
__ . __ . __ . __ . __ . __
 72
    65
 73
     4
 40
9.0
 49
6.0
 49
-0.75
 49
1.5
 49
-0.75
  0
LTYPE
  2
AM_ISO02W050X2
 70
     0
  3
 _ _ _ _ _ _ _ _ _ _ _ _
 72
    65
 73
     2
 40
3.75
 49
3.0
 49
-0.75
  0
LTYPE
  2
AMZIGZAG
 70
     0
  3
/\/-/\/-/\/-/\/-/\/-/\/
 72
    65
 73
     2
 40
11.0000999999999998
 49
0.0001
 49
-11.0
  0
LTYPE
  2
CENTER2
 70
     0
  3
Center (.5x) ___ _ ___ _ ___ _ ___ _ ___ _ ___
 72
    65
 73
     4
 40
1.125
 49
0.75
 49
-0.125
 49
0.125
 49
-0.125
  0
LTYPE
  2
HIDDEN2
 70
     0
  3
Hidden (.5x) _ _ _ _ _ _ _ _ _ _ _ _ _ _ _ _ _
 72
    65
 73
     2
 40
0.1875
 49
0.125
 49
-0.0625
  0
LTYPE
  2
AMZIGZAG2
 70
     0
  3
/\/-/\/-/\/-/\/-/\/-/\/
 72
    65
 73
     2
 40
0.4401
 49
0.0001
 49
-0.4400000000000003
  0
LTYPE
  2
ACANSTGB
 70
     0
  3
__ . . __ . .
 72
    65
 73
     6
 40
0.35433070866
 49
0.15748031496
 49
-0.03937007874
 49
0.03937007874
 49
-0.03937007874
 49
0.03937007874
 49
-0.03937007874
  0
LTYPE
  2
ACANSTGL
 70
     0
  3
_ _ _ _ _
 72
    65
 73
     2
 40
0.11811023622
 49
0.07874015748
 49
-0.03937007874
  0
LTYPE
  2
DASHED
 70
     0
  3
Dashed __ __ __ __ __ __ __ __ __ __ __ __ __ _
 72
    65
 73
     2
 40
0.75
 49
0.5
 49
-0.25
  0
LTYPE
  2
DOT
 70
     0
  3
Dot . . . . . . . . . . . . . . . . . . . . . .
 72
    65
 73
     2
 40
0.25
 49
0.0
 49
-0.25
  0
ENDTAB
  0
TABLE
  2
LAYER
 70
     8
  0
LAYER
  2
0
 70
     0
 62
     7
  6
CONTINUOUS
  0
LAYER
  2
OUTLINE
 70
     0
 62
     7
  6
CONTINUOUS
  0
LAYER
  2
TEXT
 70
     0
 62
   100
  6
CONTINUOUS
  0
LAYER
  2
DIM
 70
     0
 62
     2
  6
CONTINUOUS
  0
LAYER
  2
MTG-FEET
 70
     0
 62
    30
  6
CONTINUOUS
  0
LAYER
  2
OVERLAY-A3
 70
     0
 62
     7
  6
CONTINUOUS
  0
LAYER
  2
CLEAR
 70
     0
 62
     1
  6
PHANTOM
  0
LAYER
  2
VISIBLE
 70
     0
 62
     7
  6
CONTINUOUS
  0
ENDTAB
  0
TABLE
  2
STYLE
 70
     9
  0
STYLE
  2
STANDARD
 70
     0
 40
0.0
 41
1.0
 50
0.0
 71
     0
 42
0.2
  3
txt
  4

  0
STYLE
  2
ANNOTATIVE
 70
     0
 40
0.0
 41
1.0
 50
0.0
 71
     0
 42
0.2
  3
txt
  4

  0
STYLE
  2
TITLE3
 70
     0
 40
45.0
 41
1.0
 50
0.0
 71
     0
 42
45.0
  3
SIMPLEX
  4

  0
STYLE
  2
TITLE5
 70
     0
 40
75.0
 41
1.0
 50
0.0
 71
     0
 42
100.0
  3
SIMPLEX
  4

  0
STYLE
  2
SIMPLEX
 70
     0
 40
60.0
 41
1.0
 50
0.0
 71
     0
 42
60.0
  3
simplex
  4

  0
STYLE
  2

 70
     1
 40
0.0
 41
1.0
 50
0.0
 71
     0
 42
45.0
  3
genltshp.shx
  4

  0
STYLE
  2
ACANSTS
 70
     0
 40
1.0
 41
1.0
 50
0.0
 71
     0
 42
45.0
  3
romans.shx
  4

  0
STYLE
  2
ACANSGDT
 70
     0
 40
0.0
 41
1.0
 50
0.0
 71
     0
 42
45.0
  3
amgdt.shx
  4

  0
STYLE
  2
NOTE_TEXT
 70
     0
 40
0.0
 41
1.0
 50
0.0
 71
     0
 42
0.2
  3
txt
  4

  0
ENDTAB
  0
TABLE
  2
VIEW
 70
     0
  0
ENDTAB
  0
TABLE
  2
UCS
 70
     0
  0
ENDTAB
  0
TABLE
  2
APPID
 70
    15
  0
APPID
  2
ACAD
 70
     0
  0
APPID
  2
ACADANNOTATIVE
 70
     0
  0
APPID
  2
ACAD_MLEADERVER
 70
     0
  0
APPID
  2
ACAD_PSEXT
 70
     0
  0
APPID
  2
MCAD_NO_VIS
 70
     0
  0
APPID
  2
ACAD_TEMP_GRAPHIC
 70
     0
  0
APPID
  2
AD_DRAW
 70
     0
  0
APPID
  2
ACATTRIBSERVICES
 70
     0
  0
APPID
  2
DESIGNERASSEMBLIES
 70
     0
  0
APPID
  2
ACADM_DIM_EDIT
 70
     0
  0
APPID
  2
AMDT_DM_ADJ
 70
     0
  0
APPID
  2
ACAD_EXEMPT_FROM_CAD_STANDARDS
 70
     0
  0
APPID
  2
ACAD_NAV_VCDISPLAY
 70
     0
  0
APPID
  2
ACAD_DSTYLE_DIMBREAK
 70
     0
  0
APPID
  2
ACAD_DSTYLE_DIMJAG
 70
     0
  0
ENDTAB
  0
TABLE
  2
DIMSTYLE
 70
    10
  0
DIMSTYLE
  2
STANDARD
 70
     0
  3

  4

  5

  6

  7

 40
1.0
 41
0.18
 42
0.0625
 43
0.38
 44
0.18
 45
0.0
 46
0.0
 47
0.0
 48
0.0
140
0.18
141
0.09
142
0.0
143
25.3999999999999986
144
1.0
145
0.0
146
1.0
147
0.09
 71
     0
 72
     0
 73
     1
 74
     1
 75
     0
 76
     0
 77
     0
 78
     0
170
     0
171
     2
172
     0
173
     0
174
     0
175
     0
176
     0
177
     0
178
     0
  0
DIMSTYLE
  2
ANNOTATIVE
 70
     0
  3

  4

  5

  6

  7

 40
1.0
 41
0.18
 42
0.0625
 43
0.38
 44
0.18
 45
0.0
 46
0.0
 47
0.0
 48
0.0
140
0.18
141
0.09
142
0.0
143
25.3999999999999986
144
1.0
145
0.0
146
1.0
147
0.09
 71
     0
 72
     0
 73
     1
 74
     1
 75
     0
 76
     0
 77
     0
 78
     0
170
     0
171
     2
172
     0
173
     0
174
     0
175
     0
176
     0
177
     0
178
     0
  0
DIMSTYLE
  2
AM_ANSI
 70
     0
  3

  4
mm
  5

  6

  7

 40
1.0
 41
0.12
 42
0.05
 43
0.5
 44
0.1
 45
0.0
 46
0.0
 47
0.1
 48
0.1
140
0.12
141
0.0
142
0.0
143
25.3999999999999986
144
1.0
145
0.0
146
0.71
147
0.06
 71
     0
 72
     0
 73
     1
 74
     1
 75
     0
 76
     0
 77
     0
 78
     7
170
     0
171
     2
172
     0
173
     0
174
     0
175
     0
176
   256
177
   256
178
     2
  0
DIMSTYLE
  2
AM_ANSI$3
 70
     0
  3

  4
mm
  5

  6

  7

 40
1.0
 41
0.12
 42
0.05
 43
0.5
 44
0.1
 45
0.0
 46
0.0
 47
0.1
 48
0.1
140
0.12
141
0.0
142
0.0
143
25.3999999999999986
144
1.0
145
0.0
146
0.71
147
0.06
 71
     0
 72
     0
 73
     1
 74
     1
 75
     0
 76
     0
 77
     0
 78
     7
170
     0
171
     2
172
     0
173
     0
174
     0
175
     0
176
   256
177
   256
178
     2
  0
DIMSTYLE
  2
AM_ANSI$4
 70
     0
  3

  4
mm
  5

  6

  7

 40
1.0
 41
0.12
 42
0.05
 43
0.5
 44
0.1
 45
0.0
 46
0.0
 47
0.1
 48
0.1
140
0.12
141
0.0
142
0.0
143
25.3999999999999986
144
1.0
145
0.0
146
0.71
147
0.06
 71
     0
 72
     0
 73
     1
 74
     1
 75
     0
 76
     0
 77
     0
 78
     7
170
     0
171
     2
172
     0
173
     0
174
     0
175
     0
176
   256
177
   256
178
     2
  0
DIMSTYLE
  2
AM_ANSI$7
 70
     0
  3

  4
mm
  5

  6

  7

 40
1.0
 41
0.12
 42
0.05
 43
0.5
 44
0.1
 45
0.0
 46
0.0
 47
0.1
 48
0.1
140
0.12
141
0.0
142
0.0
143
25.3999999999999986
144
1.0
145
0.0
146
0.71
147
0.06
 71
     0
 72
     0
 73
     1
 74
     1
 75
     0
 76
     0
 77
     0
 78
     7
170
     0
171
     2
172
     0
173
     0
174
     0
175
     0
176
   256
177
   256
178
     2
  0
DIMSTYLE
  2
AM_ANSI$SF
 70
     0
  3

  4
mm
  5

  6

  7

 40
1.0
 41
0.12
 42
0.05
 43
0.5
 44
0.1
 45
0.0
 46
0.0
 47
0.1
 48
0.1
140
0.12
141
0.0
142
0.0
143
25.3999999999999986
144
1.0
145
0.0
146
0.71
147
0.06
 71
     0
 72
     0
 73
     1
 74
     1
 75
     1
 76
     1
 77
     0
 78
     7
170
     0
171
     2
172
     0
173
     0
174
     0
175
     0
176
   256
177
   256
178
     2
  0
DIMSTYLE
  2
AM_ANSI$SH
 70
     0
  3

  4
mm
  5

  6

  7

 40
1.0
 41
0.12
 42
0.05
 43
0.5
 44
0.1
 45
0.0
 46
0.0
 47
0.1
 48
0.1
140
0.12
141
0.0
142
0.0
143
25.3999999999999986
144
1.0
145
0.0
146
0.71
147
0.06
 71
     0
 72
     0
 73
     1
 74
     1
 75
     1
 76
     1
 77
     0
 78
     7
170
     0
171
     2
172
     0
173
     1
174
     0
175
     0
176
   256
177
   256
178
     2
  0
DIMSTYLE
  2
DEFAULT
 70
     0
  3

  4

  5

  6

  7

 40
9.0909090909090917
 41
2.5
 42
1.600199999999999
 43
5.9999999999999991
 44
3.174999999999998
 45
0.00000001
 46
10.0
 47
0.0
 48
0.0
140
3.0500001907348611
141
0.09
142
0.0
143
1.0
144
1.0
145
0.0
146
0.9993442296981812
147
0.8
 71
     0
 72
     0
 73
     0
 74
     1
 75
     0
 76
     0
 77
     0
 78
     0
170
     0
171
     1
172
     0
173
     0
174
     0
175
     0
176
   256
177
   256
178
   256
  0
ENDTAB
  0
ENDSEC
  0
SECTION
  2
BLOCKS
  0
BLOCK
  8
0
  2
$MODEL_SPACE
 70
     0
 10
0.0
 20
0.0
 30
0.0
  3
$MODEL_SPACE
  1

  0
ENDBLK
  5
2BE1
  8
0
  0
BLOCK
 67
     1
  8
0
  2
$PAPER_SPACE
 70
     0
 10
0.0
 20
0.0
 30
0.0
  3
$PAPER_SPACE
  1

  0
ENDBLK
  5
2BDD
 67
     1
  8
0
  0
BLOCK
  8
0
  2
LINES
 70
     0
 10
0.0
 20
0.0
 30
0.0
  3
LINES
  1

  0
ENDBLK
  5
F67
  8
0
  0
BLOCK
  8
0
  2
NEW_BLOCK
 70
     0
 10
0.0
 20
0.0
 30
0.0
  3
NEW_BLOCK
  1

  0
TEXT
  5
F6A
  8
TEXT
 10
27.2859468218030017
 20
25.2714217595241699
 30
0.0
 40
40.0
  1
available on request
  7
TITLE3
  0
TEXT
  5
F6B
  8
TEXT
 10
27.2859468218030017
 20
93.8428503309527144
 30
0.0
 40
40.0
  1
Certified dimensions
  7
TITLE3
  0
TEXT
  5
F6C
  8
TEXT
 10
27.2859468218030017
 20
162.4142789023811986
 30
0.0
 40
40.0
  1
without notice or obligation.
  7
TITLE3
  0
TEXT
  5
F6D
  8
TEXT
 10
27.2859468218030017
 20
230.9857074738096969
 30
0.0
 40
40.0
  1
specifications at any time
  7
TITLE3
  0
TEXT
  5
F6E
  8
TEXT
 10
27.2859468218030017
 20
299.5571360452383942
 30
0.0
 40
40.0
  1
the right to change 
  7
TITLE3
  0
TEXT
  5
F6F
  8
TEXT
 10
27.2859468218030017
 20
436.6999931880948793
 30
0.0
 40
40.0
  1
NOTE
  7
TITLE3
  0
TEXT
  5
F70
  8
TEXT
 10
27.2859468218030017
 20
368.1285646166667789
 30
0.0
 40
40.0
  1
The manufacturer reserves
  7
TITLE3
  0
ENDBLK
  5
F71
  8
0
  0
BLOCK
  8
0
  2
GENAXEH
 70
     0
 10
0.0
 20
0.0
 30
0.0
  3
GENAXEH
  1

  0
LINE
  5
11EC
  8
0
 10
-1.0
 20
0.0
 30
0.0
 11
1.0
 21
0.0
 31
0.0
  0
ENDBLK
  5
11EE
  8
0
  0
BLOCK
  8
0
  2
*U5
 70
     1
 10
0.0
 20
0.0
 30
0.0
  3
*U5
  1

  0
TEXT
  5
1550
  8
TEXT
 10
2626.7282533009820327
 20
705.9616187665197913
 30
0.0
 40
60.0
  1
OSA 175
  7
TITLE5
  0
TEXT
  5
1551
  8
TEXT
 10
2678.1568247295531364
 20
605.9616187665197913
 30
0.0
 40
60.0
  1
RKTHG
  7
TITLE5
  0
ENDBLK
  5
1553
  8
0
  0
BLOCK
  8
0
  2
*U6
 70
     1
 10
0.0
 20
0.0
 30
0.0
  3
*U6
  1

  0
TEXT
  5
1555
  8
TEXT
 10
2158.6995816958569776
 20
4047.9584319483901709
 30
0.0
 40
60.0
  1
OSA 175RKTHG
  7
TITLE5
  0
ENDBLK
  5
1557
  8
0
  0
BLOCK
  8
0
  2
*U7
 70
     1
 10
0.0
 20
0.0
 30
0.0
  3
*U7
  1

  0
TEXT
  5
1867
  8
OVERLAY-A3
 10
4236.5413026078322218
 20
4150.0630656892280967
 30
0.0
 40
45.0
  1
389
 50
90.0
  0
ENDBLK
  5
1869
  8
0
  0
BLOCK
  8
0
  2
*U8
 70
     1
 10
0.0
 20
0.0
 30
0.0
  3
*U8
  1

  0
TEXT
  5
186B
  8
OVERLAY-A3
 10
5609.6572296216972973
 20
4060.5630656892271872
 30
0.0
 40
45.0
  1
422 O/A
 50
90.0
  0
ENDBLK
  5
186D
  8
0
  0
BLOCK
  8
0
  2
*U9
 70
     1
 10
0.0
 20
0.0
 30
0.0
  3
*U9
  1

  0
TEXT
  5
186F
  8
OVERLAY-A3
 10
5363.7440490226281327
 20
4532.8929573842469836
 30
0.0
 40
45.0
  1
17
 50
90.0
  0
ENDBLK
  5
1871
  8
0
  0
BLOCK
  8
0
  2
*U10
 70
     1
 10
0.0
 20
0.0
 30
0.0
  3
*U10
  1

  0
TEXT
  5
1873
  8
OVERLAY-A3
 10
1820.6766810885631003
 20
597.6428250264956432
 30
0.0
 40
45.0
  1
1119 O/A
 50
90.0
  0
ENDBLK
  5
1875
  8
0
  0
BLOCK
  8
0
  2
*U11
 70
     1
 10
0.0
 20
0.0
 30
0.0
  3
*U11
  1

  0
TEXT
  5
1877
  8
OVERLAY-A3
 10
1967.8643715286330007
 20
100.7515184167496045
 30
0.0
 40
45.0
  1
180
  0
ENDBLK
  5
1879
  8
0
  0
BLOCK
  8
0
  2
*U12
 70
     1
 10
0.0
 20
0.0
 30
0.0
  3
*U12
  1

  0
TEXT
  5
187B
  8
OVERLAY-A3
 10
2316.7143715286329098
 20
100.7515184167496045
 30
0.0
 40
45.0
  1
765 CTRS
  0
ENDBLK
  5
187D
  8
0
  0
BLOCK
  8
0
  2
*U13
 70
     1
 10
0.0
 20
0.0
 30
0.0
  3
*U13
  1

  0
TEXT
  5
187F
  8
OVERLAY-A3
 10
2332.5143715286330917
 20
1354.8076330213950769
 30
0.0
 40
45.0
  1
1127 O/A
  0
ENDBLK
  5
1881
  8
0
  0
BLOCK
  8
0
  2
*U14
 70
     1
 10
0.0
 20
0.0
 30
0.0
  3
*U14
  1

  0
TEXT
  5
1883
  8
OVERLAY-A3
 10
3261.5784385225920232
 20
4035.0630656892280967
 30
0.0
 40
45.0
  1
375 CTRS
 50
90.0
  0
ENDBLK
  5
1885
  8
0
  0
BLOCK
  8
0
  2
*U15
 70
     1
 10
0.0
 20
0.0
 30
0.0
  3
*U15
  1

  0
TEXT
  5
1887
  8
OVERLAY-A3
 10
5545.0379560977771689
 20
3752.0630656892299157
 30
0.0
 40
45.0
  1
20.5
 50
90.0
  0
ENDBLK
  5
1889
  8
0
  0
BLOCK
  8
0
  2
*U16
 70
     1
 10
0.0
 20
0.0
 30
0.0
  3
*U16
  1

  0
TEXT
  5
28D6
  8
OVERLAY-A3
 10
5609.6572296216972973
 20
4060.5630656892271872
 30
0.0
 40
45.0
  1
422 O/A
 50
90.0
  0
ENDBLK
  5
28D7
  8
0
  0
BLOCK
  8
0
  2
*U17
 70
     1
 10
0.0
 20
0.0
 30
0.0
  3
*U17
  1

  0
TEXT
  5
2A57
  8
OVERLAY-A3
 10
5609.6572296216972973
 20
4060.5630656892271872
 30
0.0
 40
45.0
  1
422 O/A
 50
90.0
  0
ENDBLK
  5
2A58
  8
0
  0
BLOCK
  8
0
  2
A$C02B81017
 70
     0
 10
0.0
 20
0.0
 30
0.0
  3
A$C02B81017
  1

  0
TEXT
  5
2AB0
  8
OUTLINE
 10
59.9999938068731282
 20
0.0000035620641938
 30
0.0
 40
60.0
  1
OSA 211RLTFH
 50
90.0
  7
TITLE5
  0
ENDBLK
  5
2AB2
  8
0
  0
ENDSEC
  0
SECTION
  2
ENTITIES
  0
TEXT
  5
F78
  8
0
 62
     7
 10
4640.7698882569711714
 20
259.2742466930232013
 30
0.0
 40
62.5
  1
temperzone OSA 251RLTFH
 41
1.143858959470474
  7
TITLE5
 72
     5
 11
6108.0413511491569807
 21
259.2742466930232013
 31
0.0
  0
TEXT
  5
F79
  8
0
 62
     7
 10
5535.1145011680309835
 20
-41.0013200398965907
 30
0.0
 40
37.5
  1
OSA251RLTFH
 41
1.054038461538459
  7
TITLE3
 72
     5
 11
5926.614501168030074
 21
-41.0013200398965907
 31
0.0
  0
INSERT
  5
FCE
  8
MTG-FEET
  2
LINES
 10
637.4231943994607263
 20
2246.7294005091212057
 30
0.0
  0
TEXT
  5
FDF
  8
0
 62
     7
 10
4813.4812302888676641
 20
17.0
 30
0.0
 40
37.5
  1
29-01-20
 41
0.8296296296296171
  7
TITLE3
 72
     5
 11
5053.4812302888640261
 21
17.0
 31
0.0
  0
TEXT
  5
FE0
  8
OVERLAY-A3
 10
4640.2527955588921031
 20
18.2468207901514212
 30
0.0
 40
36.0
  1
Date
  7
SIMPLEX
  0
TEXT
  5
FE1
  8
OVERLAY-A3
 10
5987.074249677419175
 20
46.254953035116813
 30
0.0
 40
36.0
  1
Revision
 41
0.7812095035934977
  7
SIMPLEX
 72
     5
 11
6145.1017721186181006
 21
46.254953035116813
 31
0.0
  0
LINE
  5
FE2
  8
OVERLAY-A3
 10
5969.64448610225827
 20
-116.7362607275242965
 30
0.0
 11
5969.64448610225827
 21
104.4029835628199976
 31
0.0
  0
LINE
  5
FE3
  8
OVERLAY-A3
 10
4596.9347553027409958
 20
357.8266282468321151
 30
0.0
 11
4596.9347553027409958
 21
-116.7362607275242965
 31
0.0
  0
LINE
  5
FE4
  8
OVERLAY-A3
 10
5493.277978136658021
 20
-116.7362607275242965
 30
0.0
 11
5493.277978136658021
 21
104.4029835628199976
 31
0.0
  0
LINE
  5
FE5
  8
OVERLAY-A3
 10
5493.277978136656202
 20
-8.0311010958044982
 30
0.0
 11
4596.9347553027409958
 21
-8.0311010958044982
 31
0.0
  0
LINE
  5
FE6
  8
OVERLAY-A3
 10
6160.2706589737817922
 20
104.4029835628199976
 30
0.0
 11
4596.9347553027409958
 21
104.4029835628199976
 31
0.0
  0
LINE
  5
FE7
  8
OVERLAY-A3
 10
4596.9347553027409958
 20
-116.7362607275242965
 30
0.0
 11
6159.8243982062540454
 21
-116.7362607275242965
 31
0.0
  0
LINE
  5
FE8
  8
OVERLAY-A3
 10
6159.8243982062540454
 20
-116.7362607275242965
 30
0.0
 11
6159.8243982062540454
 21
357.8266282468321151
 31
0.0
  0
LINE
  5
FE9
  8
OVERLAY-A3
 10
6159.8243982062540454
 20
357.8266282468321151
 30
0.0
 11
4596.9347553027409958
 21
357.8266282468321151
 31
0.0
  0
TEXT
  5
FEA
  8
OVERLAY-A3
 10
4634.6322897716809166
 20
-76.1162679019634538
 30
0.0
 40
30.0
  1
Scale
 41
1.3701747965659949
  7
SIMPLEX
 72
     5
 11
4785.3515173939404121
 21
-76.1162679019634538
 31
0.0
  0
TEXT
  5
FEB
  8
OVERLAY-A3
 10
5580.1961465182139364
 20
45.3401472600643132
 30
0.0
 40
30.0
  1
Drawing No.
  7
SIMPLEX
 72
     2
 11
5841.6247179467845854
 21
45.3401472600643132
 31
0.0
  0
LINE
  5
FEC
  8
OVERLAY-A3
 10
1576.1105239390610677
 20
-148.0
 30
0.0
 11
6202.9074611170181015
 21
-148.0
 31
0.0
  0
LINE
  5
FED
  8
OVERLAY-A3
 10
6202.9074611170181015
 20
-148.0
 30
0.0
 11
6202.907461117017192
 21
3477.5393139767302273
 31
0.0
  0
LINE
  5
FEE
  8
OVERLAY-A3
 10
6202.907461117017192
 20
3477.5393139767302273
 30
0.0
 11
1576.1105239390610677
 21
3481.5393139767302273
 31
0.0
  0
LINE
  5
FEF
  8
OVERLAY-A3
 10
1576.1105239390610677
 20
3481.5393139767302273
 30
0.0
 11
1576.1105239390610677
 21
-148.0
 31
0.0
  0
TEXT
  5
FF0
  8
0
 62
     7
 10
4867.0507665719778743
 20
-73.7899429766430615
 30
0.0
 40
37.5
  1
1:20
  7
TITLE3
  0
LINE
  5
2778
  8
VISIBLE
 10
3624.2911918232680364
 20
541.3622396394137013
 30
0.0
 11
3624.2911918232680364
 21
1863.3622396394300722
 31
0.0
  0
LINE
  5
277A
  8
VISIBLE
 10
4044.0411918234458426
 20
541.3622396394132466
 30
0.0
 11
3962.1236774020089797
 21
541.3622396394132466
 31
0.0
  0
LINE
  5
277B
  8
VISIBLE
 10
3962.1236774020089797
 20
541.3622396394132466
 30
0.0
 11
3619.291191823283043
 21
541.3622396394137013
 31
0.0
  0
LINE
  5
277C
  8
VISIBLE
 10
3866.4577038493380314
 20
505.8122396394135762
 30
0.0
 11
3803.2246797972229615
 21
505.8122396394131215
 31
0.0
  0
LINE
  5
277D
  8
VISIBLE
 10
3915.3911918232838616
 20
539.8122396394135194
 30
0.0
 11
3885.3042115987300349
 21
539.8122396394137468
 31
0.0
  0
LINE
  5
277E
  8
VISIBLE
 10
3915.3911918232838616
 20
541.3622396394131329
 30
0.0
 11
3915.3911918232838616
 21
539.8122396394135194
 31
0.0
  0
LINE
  5
277F
  8
VISIBLE
 10
3885.3042115987300349
 20
539.8122396394137468
 30
0.0
 11
3866.4577038493380314
 21
505.8122396394135762
 31
0.0
  0
LINE
  5
2780
  8
VISIBLE
 10
3784.378172047829139
 20
539.8122396394137468
 30
0.0
 11
3754.2911918232812241
 21
539.8122396394134057
 31
0.0
  0
LINE
  5
2781
  8
VISIBLE
 10
3754.2911918232812241
 20
539.8122396394134057
 30
0.0
 11
3754.2911918232812241
 21
541.3622396394129055
 31
0.0
  0
LINE
  5
2782
  8
VISIBLE
 10
3803.2246797972229615
 20
505.8122396394131215
 30
0.0
 11
3784.378172047829139
 21
539.8122396394137468
 31
0.0
  0
LINE
  5
2783
  8
VISIBLE
 10
2977.7577038493391228
 20
505.8122396394136899
 30
0.0
 11
2914.5246797972240529
 21
505.8122396394135762
 31
0.0
  0
LINE
  5
2784
  8
VISIBLE
 10
3026.691191823283134
 20
539.8122396394137468
 30
0.0
 11
2996.6042115987329453
 21
539.8122396394137468
 31
0.0
  0
LINE
  5
2785
  8
VISIBLE
 10
3026.691191823283134
 20
540.4122396394105863
 30
0.0
 11
3026.691191823283134
 21
539.8122396394137468
 31
0.0
  0
LINE
  5
2786
  8
VISIBLE
 10
2996.6042115987329453
 20
539.8122396394137468
 30
0.0
 11
2977.7577038493391228
 21
505.8122396394135762
 31
0.0
  0
LINE
  5
2787
  8
VISIBLE
 10
2895.6781720478279567
 20
539.8122396394137468
 30
0.0
 11
2865.5911918232809512
 21
539.8122396394135194
 31
0.0
  0
LINE
  5
2788
  8
VISIBLE
 10
2865.5911918232809512
 20
539.8122396394135194
 30
0.0
 11
2865.5911918232809512
 21
540.4122396394105863
 31
0.0
  0
LINE
  5
2789
  8
VISIBLE
 10
2914.5246797972240529
 20
505.8122396394135762
 30
0.0
 11
2898.8323982639349197
 21
534.1218649146321695
 31
0.0
  0
LINE
  5
278A
  8
VISIBLE
 10
2898.8323982639349197
 20
534.1218649146321695
 30
0.0
 11
2895.6781720478279567
 21
539.8122396394137468
 31
0.0
  0
LINE
  5
278B
  8
VISIBLE
 10
3619.291191823283043
 20
540.4122396394105863
 30
0.0
 11
2736.9411918233167853
 21
540.4122396394105863
 31
0.0
  0
LINE
  5
278C
  8
VISIBLE
 10
3619.291191823283043
 20
1863.3622396394309817
 30
0.0
 11
3619.291191823283043
 21
540.4122396394105863
 31
0.0
  0
LINE
  5
2790
  8
VISIBLE
 10
2736.941191823446843
 20
1877.3622396395549004
 30
0.0
 11
2736.9411918233167853
 21
540.4122396394105863
 31
0.0
  0
LINE
  5
2791
  8
VISIBLE
 10
4044.0411918234458426
 20
1877.3622396393921008
 30
0.0
 11
4044.0411918234458426
 21
541.3622396394132466
 31
0.0
  0
LINE
  5
2792
  8
VISIBLE
 10
2736.9411918234450241
 20
1863.3622396395569467
 30
0.0
 11
4044.0411918234458426
 21
1863.3622396393921008
 31
0.0
  0
LINE
  5
2793
  8
VISIBLE
 10
4044.0411918234458426
 20
1877.3622396393921008
 30
0.0
 11
2736.941191823446843
 21
1877.3622396395549004
 31
0.0
  0
ARC
  5
2794
  8
VISIBLE
 10
3834.8411918236729434
 20
3218.8122992275189063
 30
0.0
 40
6.000000000000016
 50
317.54584979554852
 51
0.0
  0
ARC
  5
2795
  8
VISIBLE
 10
3834.8411918236729434
 20
3218.8122992275189063
 30
0.0
 40
6.0
 50
180.0
 51
222.4541502044515937
  0
ARC
  5
2796
  8
VISIBLE
 10
3834.8411918236729434
 20
2776.8122992275189063
 30
0.0
 40
6.0
 50
180.0
 51
0.0
  0
LINE
  5
2797
  8
VISIBLE
 10
3804.8740058435901119
 20
3228.8122992275189063
 30
0.0
 11
3828.8411918236729434
 21
3228.8122992275189063
 31
0.0
  0
LINE
  5
2798
  8
VISIBLE
 10
3864.808377803753956
 20
2766.8122992275189063
 30
0.0
 11
3804.8740058435901119
 21
2766.8122992275189063
 31
0.0
  0
LINE
  5
2799
  8
VISIBLE
 10
3840.8411918236729434
 20
3228.8122992275189063
 30
0.0
 11
3864.808377803753956
 21
3228.8122992275189063
 31
0.0
  0
LINE
  5
279A
  8
VISIBLE
 10
3874.982886790890916
 20
2779.2622992275209981
 30
0.0
 11
3867.2573129837410306
 21
2766.8122992275179968
 31
0.0
  0
LINE
  5
279B
  8
VISIBLE
 10
3867.2573129837410306
 20
2766.8122992275179968
 30
0.0
 11
3865.9016524376761481
 21
2766.8122992275189063
 31
0.0
  0
LINE
  5
279C
  8
VISIBLE
 10
3793.7066520298999421
 20
3214.7622992275228171
 30
0.0
 11
3802.4250706636021278
 21
3228.8122992275189063
 31
0.0
  0
LINE
  5
279D
  8
VISIBLE
 10
3803.7807312096679198
 20
3228.8122992275198158
 30
0.0
 11
3802.4250706636021278
 21
3228.8122992275189063
 31
0.0
  0
LINE
  5
279E
  8
VISIBLE
 10
3867.2573129837410306
 20
3228.8122992275189063
 30
0.0
 11
3875.975731617531892
 21
3214.7622992275519209
 31
0.0
  0
LINE
  5
279F
  8
VISIBLE
 10
3865.9016524376761481
 20
3228.8122992275198158
 30
0.0
 11
3867.2573129837410306
 21
3228.8122992275189063
 31
0.0
  0
LINE
  5
27A0
  8
VISIBLE
 10
3802.4250706636021278
 20
2766.8122992275179968
 30
0.0
 11
3794.6994968564899864
 21
2779.2622992274141325
 31
0.0
  0
LINE
  5
27A1
  8
VISIBLE
 10
3802.4250706636021278
 20
2766.8122992275179968
 30
0.0
 11
3803.7807312096679198
 21
2766.8122992275189063
 31
0.0
  0
LINE
  5
27A2
  8
VISIBLE
 10
3803.7807312096679198
 20
3228.8122992275189063
 30
0.0
 11
3804.8740058435901119
 21
3228.8122992275189063
 31
0.0
  0
LINE
  5
27A3
  8
VISIBLE
 10
3804.8740058435901119
 20
2766.8122992275179968
 30
0.0
 11
3803.7807312096679198
 21
2766.8122992275179968
 31
0.0
  0
LINE
  5
27A4
  8
VISIBLE
 10
3864.808377803753956
 20
3228.8122992275198158
 30
0.0
 11
3865.9016524376761481
 21
3228.8122992275198158
 31
0.0
  0
LINE
  5
27A5
  8
VISIBLE
 10
3865.9016524376761481
 20
2766.8122992275179968
 30
0.0
 11
3864.808377803753956
 21
2766.8122992275179968
 31
0.0
  0
ARC
  5
27A6
  8
VISIBLE
 10
2946.1411918236749443
 20
3218.8122992275189063
 30
0.0
 40
6.0000000000000071
 50
317.545849795638901
 51
0.0
  0
ARC
  5
27A7
  8
VISIBLE
 10
2946.1411918236749443
 20
3218.8122992275189063
 30
0.0
 40
5.9999999999999583
 50
180.0
 51
222.454150204361099
  0
ARC
  5
27A8
  8
VISIBLE
 10
2946.1411918236749443
 20
2776.7991706404241086
 30
0.0
 40
5.9866662141628089
 50
179.8743519001178015
 51
0.1256480998821996
  0
LINE
  5
27A9
  8
VISIBLE
 10
2916.1740058435921128
 20
3228.8122992275189063
 30
0.0
 11
2940.1411918236749443
 21
3228.8122992275189063
 31
0.0
  0
LINE
  5
27AA
  8
VISIBLE
 10
2978.557312983742122
 20
2766.8122992275179968
 30
0.0
 11
2916.1740058435921128
 21
2766.8122992275179968
 31
0.0
  0
LINE
  5
27AB
  8
VISIBLE
 10
2952.1411918236740348
 20
3228.8122992275189063
 30
0.0
 11
2976.1083778037541379
 21
3228.8122992275189063
 31
0.0
  0
LINE
  5
27AC
  8
VISIBLE
 10
2986.2828867911371162
 20
2779.2622992279289065
 30
0.0
 11
2978.557312983742122
 21
2766.8122992275179968
 31
0.0
  0
LINE
  5
27AD
  8
VISIBLE
 10
2905.0066520299051263
 20
3214.7622992275260003
 30
0.0
 11
2913.7250706636009454
 21
3228.8122992275189063
 31
0.0
  0
LINE
  5
27AE
  8
VISIBLE
 10
2915.0807312096699206
 20
3228.8122992275189063
 30
0.0
 11
2913.7250706636009454
 21
3228.8122992275189063
 31
0.0
  0
LINE
  5
27AF
  8
VISIBLE
 10
2978.557312983742122
 20
3228.8122992275189063
 30
0.0
 11
2987.2757316175288906
 21
3214.7622992275560136
 31
0.0
  0
LINE
  5
27B0
  8
VISIBLE
 10
2977.201652437678149
 20
3228.8122992275189063
 30
0.0
 11
2978.557312983742122
 21
3228.8122992275189063
 31
0.0
  0
LINE
  5
27B1
  8
VISIBLE
 10
2913.7250706636009454
 20
2766.8122992275179968
 30
0.0
 11
2906.0031065340349414
 21
2779.2622992279289065
 31
0.0
  0
LINE
  5
27B2
  8
VISIBLE
 10
2913.7250706636009454
 20
2766.8122992275179968
 30
0.0
 11
2915.0807312096699206
 21
2766.8122992275179968
 31
0.0
  0
LINE
  5
27B3
  8
VISIBLE
 10
2915.0807312096699206
 20
3228.8122992275189063
 30
0.0
 11
2916.1740058435921128
 21
3228.8122992275189063
 31
0.0
  0
LINE
  5
27B4
  8
VISIBLE
 10
2916.1740058435921128
 20
2766.8122992275179968
 30
0.0
 11
2915.0807312096699206
 21
2766.8122992275179968
 31
0.0
  0
LINE
  5
27B5
  8
VISIBLE
 10
2976.1083778037541379
 20
3228.8122992275189063
 30
0.0
 11
2977.201652437678149
 21
3228.8122992275189063
 31
0.0
  0
LINE
  5
27B6
  8
VISIBLE
 10
3965.7131218328399882
 20
2779.262299227918902
 30
0.0
 11
2815.2692618148280417
 21
2779.2622992279311802
 31
0.0
  0
LINE
  5
27B7
  8
VISIBLE
 10
2736.941191823841109
 20
3214.7622992279320897
 30
0.0
 11
4044.0411918238391991
 21
3214.7622992279198115
 31
0.0
  0
LINE
  5
27B8
  8
VISIBLE
 10
4044.0411918238360158
 20
2857.5903692189149297
 30
0.0
 11
3965.7131218328399882
 21
2779.262299227918902
 31
0.0
  0
LINE
  5
27B9
  8
VISIBLE
 10
2815.2692618148280417
 20
2779.2622992279311802
 30
0.0
 11
2736.9411918238370163
 21
2857.5903692189208414
 31
0.0
  0
LINE
  5
27BA
  8
VISIBLE
 10
2736.9411918238370163
 20
2857.5903692189208414
 30
0.0
 11
2736.941191823841109
 21
3214.7622992279320897
 31
0.0
  0
LINE
  5
27BB
  8
VISIBLE
 10
4044.0411918238391991
 20
3214.7622992279198115
 30
0.0
 11
4044.0411918238360158
 21
2857.5903692189149297
 31
0.0
  0
LINE
  5
27BC
  8
VISIBLE
 10
5319.7086688991939809
 20
541.3622396394137013
 30
0.0
 11
5319.7086688991939809
 21
1863.3622396394030147
 31
0.0
  0
LINE
  5
27BE
  8
VISIBLE
 10
5423.6586688991837946
 20
541.3622396394137013
 30
0.0
 11
4988.1586688993584175
 21
541.3622396394132466
 31
0.0
  0
LINE
  5
27BF
  8
VISIBLE
 10
5437.7086688991903429
 20
505.8122396394135762
 30
0.0
 11
4975.7086688991912524
 21
505.8122396394135762
 31
0.0
  0
LINE
  5
27C0
  8
VISIBLE
 10
5437.7086688991903429
 20
505.8122396394135762
 30
0.0
 11
5437.7086688991903429
 21
507.2547727027238125
 31
0.0
  0
LINE
  5
27C1
  8
VISIBLE
 10
4975.7086688991912524
 20
505.8122396394135762
 30
0.0
 11
4975.7086688991912524
 21
507.2547727027238125
 31
0.0
  0
LINE
  5
27C2
  8
VISIBLE
 10
4999.7086688991912524
 20
541.3622396394132466
 30
0.0
 11
4999.7086688991912524
 21
539.8122396394137468
 31
0.0
  0
LINE
  5
27C3
  8
VISIBLE
 10
4999.7086688991912524
 20
539.8122396394137468
 30
0.0
 11
4999.7086688991767005
 21
534.8733198261427333
 31
0.0
  0
LINE
  5
27C4
  8
VISIBLE
 10
4975.7086688991912524
 20
508.0062276141056259
 30
0.0
 11
4999.7086688991767005
 21
534.8733198261427333
 31
0.0
  0
LINE
  5
27C5
  8
VISIBLE
 10
4975.7086688991912524
 20
507.2547727027238125
 30
0.0
 11
4975.7086688991912524
 21
508.0062276141056259
 31
0.0
  0
LINE
  5
27C6
  8
VISIBLE
 10
5413.7086688991821575
 20
534.8733198261659254
 30
0.0
 11
5413.70866889917761
 21
541.3622396394137013
 31
0.0
  0
LINE
  5
27C7
  8
VISIBLE
 10
5437.7086688991903429
 20
508.0062276141056259
 30
0.0
 11
5437.7086688991903429
 21
507.2547727027238125
 31
0.0
  0
LINE
  5
27C8
  8
VISIBLE
 10
5413.7086688991821575
 20
534.8733198261659254
 30
0.0
 11
5437.7086688991903429
 21
508.0062276141056259
 31
0.0
  0
LINE
  5
27C9
  8
VISIBLE
 10
5413.7086688991903429
 20
539.8122396394137468
 30
0.0
 11
4999.7086688991912524
 21
539.8122396394137468
 31
0.0
  0
LINE
  5
27CA
  8
VISIBLE
 10
4999.7086688991930714
 20
540.4122396394109273
 30
0.0
 11
4988.1586688993584175
 21
540.4122396394109273
 31
0.0
  0
LINE
  5
27CB
  8
VISIBLE
 10
4988.1586688993584175
 20
540.4122396394111547
 30
0.0
 11
4988.1586688991837946
 21
1877.3622396393921008
 31
0.0
  0
LINE
  5
27CC
  8
VISIBLE
 10
5423.6586688991837946
 20
1877.3622396393921008
 30
0.0
 11
5423.6586688991837946
 21
541.3622396394137013
 31
0.0
  0
LINE
  5
27CD
  8
VISIBLE
 10
4988.1586688991856136
 20
1863.3622396393921008
 30
0.0
 11
5423.6586688991837946
 21
1863.3622396393921008
 31
0.0
  0
LINE
  5
27CE
  8
VISIBLE
 10
5423.6586688991837946
 20
1877.3622396393921008
 30
0.0
 11
4988.1586688991837946
 21
1877.3622396393921008
 31
0.0
  0
LINE
  5
27CF
  8
VISIBLE
 10
5324.7086688991912524
 20
541.3622396394137013
 30
0.0
 11
5324.7086688991912524
 21
1863.3622396394030147
 31
0.0
  0
LINE
  5
27D0
  8
VISIBLE
 10
5342.7086688991912524
 20
541.3622396394137013
 30
0.0
 11
5342.7086688991912524
 21
1863.3622396394030147
 31
0.0
  0
LINE
  5
27D1
  8
VISIBLE
 10
5344.2086688991912524
 20
1863.3622396394030147
 30
0.0
 11
5344.2086688991912524
 21
541.3622396394137013
 31
0.0
  0
CIRCLE
  5
27D3
  8
0
 10
3202.5911918232809512
 20
1548.5622396394119278
 30
0.0
 40
290.0
  0
CIRCLE
  5
27D4
  8
0
 10
3202.5911918232809512
 20
883.5622396394104499
 30
0.0
 40
290.0
  0
LINE
  5
27D5
  8
0
 10
2940.1545400048330521
 20
2776.8122992275179968
 30
0.0
 11
2940.1545400048330521
 21
2779.2622992279289065
 31
0.0
  0
LINE
  5
27D6
  8
0
 10
2952.1278436425118343
 20
2776.8122992275179968
 30
0.0
 11
2952.1278436425118343
 21
2779.2622992279289065
 31
0.0
  0
LINE
  5
27D7
  8
0
 10
3828.8411918236729434
 20
2776.8122992275189063
 30
0.0
 11
3828.8411918236729434
 21
2779.2622992279198115
 31
0.0
  0
LINE
  5
27D8
  8
0
 10
3840.8411918236729434
 20
2776.8122992275189063
 30
0.0
 11
3840.8411918236729434
 21
2779.2622992279198115
 31
0.0
  0
LINE
  5
27D9
  8
0
 10
2940.1411918236749443
 20
3218.8122992275189063
 30
0.0
 11
2940.1411918236749443
 21
3228.8122992275189063
 31
0.0
  0
LINE
  5
27DA
  8
0
 10
2952.1411918236740348
 20
3218.8122992275189063
 30
0.0
 11
2952.1411918236740348
 21
3228.8122992275189063
 31
0.0
  0
LINE
  5
27DB
  8
0
 10
3828.8411918236729434
 20
3218.8122992275189063
 30
0.0
 11
3828.8411918236729434
 21
3228.8122992275189063
 31
0.0
  0
LINE
  5
27DC
  8
0
 10
3840.8411918236729434
 20
3218.8122992275189063
 30
0.0
 11
3840.8411918236729434
 21
3228.8122992275189063
 31
0.0
  0
TEXT
  5
280D
  8
OVERLAY-A3
 10
3267.7503544893370417
 20
3383.2899491068369571
 30
0.0
 40
45.0
  1
150 mm MIN CLEARANCE
  0
TEXT
  5
280E
  8
OVERLAY-A3
 10
2954.6660318078088494
 20
2326.6368772174951118
 30
0.0
 40
45.0
  1
500 mm MIN CLEARANCE
  0
TEXT
  5
280F
  8
OVERLAY-A3
 10
2483.4527169095099453
 20
2883.2316175946261865
 30
0.0
 40
45.0
  1
150 mm MIN
 50
90.0
  0
TEXT
  5
2810
  8
OVERLAY-A3
 10
2560.5955740523681925
 20
2886.4837426895242061
 30
0.0
 40
45.0
  1
CLEARANCE
 50
90.0
  0
TEXT
  5
2811
  8
OVERLAY-A3
 10
4678.4137708132720945
 20
2862.6291370485091647
 30
0.0
 40
45.0
  1
750 mm MIN
 50
90.0
  0
TEXT
  5
2812
  8
OVERLAY-A3
 10
4755.5566279561307965
 20
2877.8253417834271204
 30
0.0
 40
45.0
  1
CLEARANCE
 50
90.0
  0
LINE
  5
2813
  8
0
  6
PHANTOM
 62
     7
 10
2586.9411918238470207
 20
3362.2622992279289065
 30
0.0
 11
2586.9411918238470207
 21
2779.2622992279311802
 31
0.0
  0
LINE
  5
2814
  8
0
  6
PHANTOM
 62
     7
 10
2586.9411918238461112
 20
3362.2622992279289065
 30
0.0
 11
4794.0411918238460203
 21
3362.2622992279289065
 31
0.0
  0
LINE
  5
2815
  8
0
  6
PHANTOM
 62
     7
 10
4794.0411918238460203
 20
3362.2622992279289065
 30
0.0
 11
4794.0411918238460203
 21
2779.2622992279311802
 31
0.0
  0
LINE
  5
2816
  8
0
  6
PHANTOM
 62
     7
 10
2736.9411918238420185
 20
2279.2622992279311802
 30
0.0
 11
4044.0411918238360158
 21
2279.262299227927997
 31
0.0
  0
LINE
  5
2817
  8
0
  6
PHANTOM
 62
     7
 10
2736.9411918238420185
 20
2754.2622992279311802
 30
0.0
 11
2736.9411918238420185
 21
2279.2622992279311802
 31
0.0
  0
LINE
  5
2818
  8
0
  6
PHANTOM
 62
     7
 10
4044.0411918238360158
 20
2754.2622992279289065
 30
0.0
 11
4044.0411918238360158
 21
2279.262299227927997
 31
0.0
  0
LINE
  5
2819
  8
0
  6
PHANTOM
 62
     7
 10
4222.2052588176329664
 20
2779.2622992279311802
 30
0.0
 11
4794.0411918238460203
 21
2779.2622992279311802
 31
0.0
  0
LINE
  5
281A
  8
0
  6
PHANTOM
 62
     7
 10
2711.9411918238461112
 20
2779.2622992279311802
 30
0.0
 11
2586.9411918238470207
 21
2779.2622992279311802
 31
0.0
  0
LINE
  5
282C
  8
OVERLAY-A3
 10
3834.8411918236729434
 20
3218.8122992275189063
 30
0.0
 11
4202.2052588176311474
 21
3218.81229922752118
 31
0.0
  0
LINE
  5
282D
  8
OVERLAY-A3
 10
3834.8411918236729434
 20
2776.8122992275189063
 30
0.0
 11
4202.2052588176311474
 21
2776.8122992275189063
 31
0.0
  0
LINE
  5
282E
  8
OVERLAY-A3
 10
4174.7052588176284189
 20
3263.81229922752118
 30
0.0
 11
4174.7052588176284189
 21
3308.81229922752118
 31
0.0
  0
LINE
  5
282F
  8
OVERLAY-A3
 10
4174.7052588176302379
 20
2731.8122992275189063
 30
0.0
 11
4174.7052588176302379
 21
2686.8122992275239085
 31
0.0
  0
SOLID
  5
2830
  8
OVERLAY-A3
 10
4167.2052588176284189
 20
3263.81229922752118
 30
0.0
 11
4182.2052588176284189
 21
3263.81229922752118
 31
0.0
 12
4174.7052588176284189
 22
3218.81229922752118
 32
0.0
 13
4174.7052588176284189
 23
3218.81229922752118
 33
0.0
  0
SOLID
  5
2831
  8
OVERLAY-A3
 10
4167.2052588176311474
 20
2731.8122992275189063
 30
0.0
 11
4182.2052588176311474
 21
2731.8122992275189063
 31
0.0
 12
4174.7052588176302379
 22
2776.8122992275189063
 32
0.0
 13
4174.7052588176302379
 23
2776.8122992275189063
 33
0.0
  0
TEXT
  5
2832
  8
OVERLAY-A3
 10
4197.2052588176311474
 20
2822.9824313495369097
 30
0.0
 40
45.0
  1
442 CTRS
 50
90.0
  0
TEXT
  5
2843
  8
OUTLINE
 10
3095.2589996754331878
 20
2969.0917918517388898
 30
0.0
 40
60.0
  1
OSA 251RLTFH
  7
TITLE5
  0
LINE
  5
284F
  8
0
 62
     7
 10
3414.0428783171241776
 20
3146.92977324520416
 30
0.0
 11
3385.5102763317358949
 21
3114.7565406180151513
 31
0.0
  0
LINE
  5
2850
  8
0
 62
     7
 10
3375.4603023542090341
 20
3164.3955740842138766
 30
0.0
 11
3395.560250309265939
 21
3164.3955740842138766
 31
0.0
  0
LINE
  5
2851
  8
0
 62
     7
 10
3395.560250309265939
 20
3164.3955740842138766
 30
0.0
 11
3395.560250309265939
 21
3146.9297732452000673
 31
0.0
  0
LINE
  5
2852
  8
0
 62
     7
 10
3395.560250309265939
 20
3146.9297732452000673
 30
0.0
 11
3414.0428783171241776
 21
3146.92977324520416
 31
0.0
  0
LINE
  5
2853
  8
0
 62
     7
 10
3356.9776743463530693
 20
3146.92977324520416
 30
0.0
 11
3385.5102763317358949
 21
3114.7565406180151513
 31
0.0
  0
LINE
  5
2854
  8
0
 62
     7
 10
3375.4603023542090341
 20
3164.3955740842138766
 30
0.0
 11
3375.4603023542090341
 21
3146.9297732452000673
 31
0.0
  0
LINE
  5
2855
  8
0
 62
     7
 10
3375.4603023542090341
 20
3146.9297732452000673
 30
0.0
 11
3356.9776743463530693
 21
3146.92977324520416
 31
0.0
  0
LINE
  5
2861
  8
0
 62
     7
 10
3414.0428783171241776
 20
2863.2316936012362021
 30
0.0
 11
3385.5102763317358949
 21
2831.0584609740481028
 31
0.0
  0
LINE
  5
2862
  8
0
 62
     7
 10
3375.4603023542090341
 20
2880.6974944402459187
 30
0.0
 11
3395.560250309265939
 21
2880.6974944402459187
 31
0.0
  0
LINE
  5
2863
  8
0
 62
     7
 10
3395.560250309265939
 20
2880.6974944402459187
 30
0.0
 11
3395.560250309265939
 21
2863.2316936012330189
 31
0.0
  0
LINE
  5
2864
  8
0
 62
     7
 10
3395.560250309265939
 20
2863.2316936012330189
 30
0.0
 11
3414.0428783171241776
 21
2863.2316936012362021
 31
0.0
  0
LINE
  5
2865
  8
0
 62
     7
 10
3356.9776743463530693
 20
2863.2316936012362021
 30
0.0
 11
3385.5102763317358949
 21
2831.0584609740481028
 31
0.0
  0
LINE
  5
2866
  8
0
 62
     7
 10
3375.4603023542090341
 20
2880.6974944402459187
 30
0.0
 11
3375.4603023542090341
 21
2863.2316936012330189
 31
0.0
  0
LINE
  5
2867
  8
0
 62
     7
 10
3375.4603023542090341
 20
2863.2316936012330189
 30
0.0
 11
3356.9776743463530693
 21
2863.2316936012362021
 31
0.0
  0
LINE
  5
287D
  8
OVERLAY-A3
 10
2716.9411918234459336
 20
1877.3592431469119219
 30
0.0
 11
2628.9535001570438908
 21
1877.3592431469239727
 31
0.0
  0
LINE
  5
287E
  8
OVERLAY-A3
 10
2658.9535001570438908
 20
1836.3592431469239727
 30
0.0
 11
2658.9535001570438908
 21
1373.8409194886201021
 31
0.0
  0
LINE
  5
287F
  8
OVERLAY-A3
 10
2658.9535001570438908
 20
550.7192431469245548
 30
0.0
 11
2658.9535001570438908
 21
1012.8409194886210116
 31
0.0
  0
SOLID
  5
2880
  8
OVERLAY-A3
 10
2651.4535001570438908
 20
1836.3592431469239727
 30
0.0
 11
2666.4535001570429813
 21
1836.3592431469239727
 31
0.0
 12
2658.9535001570438908
 22
1877.3592431469239727
 32
0.0
 13
2658.9535001570438908
 23
1877.3592431469239727
 33
0.0
  0
SOLID
  5
2881
  8
OVERLAY-A3
 10
2651.4535001570438908
 20
550.7192431469245548
 30
0.0
 11
2666.4535001570429813
 21
550.7192431469245548
 31
0.0
 12
2658.9535001570438908
 22
505.7192431469246117
 32
0.0
 13
2658.9535001570438908
 23
505.7192431469246117
 33
0.0
  0
LINE
  5
2882
  8
OVERLAY-A3
 10
2894.5246797972231434
 20
505.8122396394135762
 30
0.0
 11
2628.9535001570438908
 21
505.7192431469246117
 31
0.0
  0
TEXT
  5
2883
  8
OVERLAY-A3
 10
2681.4535001570411623
 20
1033.1459901363780318
 30
0.0
 40
45.0
  1
1372 O/A
 50
90.0
  0
LINE
  5
288F
  8
OVERLAY-A3
 10
2736.941191823446843
 20
1897.3622396395549004
 30
0.0
 11
2736.941191823446843
 21
1967.5270476344569488
 31
0.0
  0
LINE
  5
2890
  8
OVERLAY-A3
 10
4044.0411918234458426
 20
1897.3622396395549004
 30
0.0
 11
4044.0411918234458426
 21
1967.5270476344569488
 31
0.0
  0
LINE
  5
2891
  8
OVERLAY-A3
 10
2781.941191823446843
 20
1937.5270476344569488
 30
0.0
 11
3204.3726754970221009
 21
1937.5270476344569488
 31
0.0
  0
LINE
  5
2892
  8
OVERLAY-A3
 10
3999.0411918234472068
 20
1937.5270476344569488
 30
0.0
 11
3579.3726754970248294
 21
1937.5270476344569488
 31
0.0
  0
SOLID
  5
2893
  8
OVERLAY-A3
 10
2781.941191823446843
 20
1945.0270476344560393
 30
0.0
 11
2781.941191823446843
 21
1930.0270476344569488
 31
0.0
 12
2736.941191823446843
 22
1937.5270476344569488
 32
0.0
 13
2736.941191823446843
 23
1937.5270476344569488
 33
0.0
  0
SOLID
  5
2894
  8
OVERLAY-A3
 10
3999.0411918234472068
 20
1945.0270476344560393
 30
0.0
 11
3999.0411918234472068
 21
1930.0270476344569488
 31
0.0
 12
4044.0411918234458426
 22
1937.5270476344569488
 32
0.0
 13
4044.0411918234458426
 23
1937.5270476344569488
 33
0.0
  0
TEXT
  5
2895
  8
OVERLAY-A3
 10
3234.3726754970221009
 20
1923.6088853569910953
 30
0.0
 40
45.0
  1
1307 O/A
  0
TEXT
  5
289C
  8
OUTLINE
 10
3649.7735451323760572
 20
1233.9146914807520261
 30
0.0
 40
60.0
  1
OSA 251
  7
TITLE5
  0
TEXT
  5
289D
  8
OUTLINE
 10
3701.2021165609471609
 20
1133.9146914807499797
 30
0.0
 40
60.0
  1
RLTFH
  7
TITLE5
  0
SOLID
  5
28B6
  8
OVERLAY-A3
 10
2991.1411918232811331
 20
455.9103613186302937
 30
0.0
 11
2991.1411918232811331
 21
440.9103613186304074
 31
0.0
 12
2946.1411918232811331
 22
448.4103613186304074
 32
0.0
 13
2946.1411918232811331
 23
448.4103613186304074
 33
0.0
  0
LINE
  5
28B7
  8
OVERLAY-A3
 10
2946.1411918232811331
 20
485.8122396394135762
 30
0.0
 11
2946.1411918232811331
 21
418.4103613186302937
 31
0.0
  0
LINE
  5
28B8
  8
OVERLAY-A3
 10
3834.8411918232832249
 20
485.8122396394135762
 30
0.0
 11
3834.8411918232832249
 21
418.4103613186302937
 31
0.0
  0
LINE
  5
28B9
  8
OVERLAY-A3
 10
2991.1411918232811331
 20
448.4103613186304074
 30
0.0
 11
3191.5144131524871227
 21
448.4103613186304074
 31
0.0
  0
LINE
  5
28BA
  8
OVERLAY-A3
 10
3789.8411918232832249
 20
448.4103613186304074
 30
0.0
 11
3596.5144131524889417
 21
448.4103613186304074
 31
0.0
  0
SOLID
  5
28BB
  8
OVERLAY-A3
 10
2991.1411918232811331
 20
455.9103613186302937
 30
0.0
 11
2991.1411918232811331
 21
440.9103613186304074
 31
0.0
 12
2946.1411918232811331
 22
448.4103613186304074
 32
0.0
 13
2946.1411918232811331
 23
448.4103613186304074
 33
0.0
  0
SOLID
  5
28BC
  8
OVERLAY-A3
 10
3789.8411918232832249
 20
455.9103613186302937
 30
0.0
 11
3789.8411918232832249
 21
440.9103613186304074
 31
0.0
 12
3834.8411918232832249
 22
448.4103613186304074
 32
0.0
 13
3834.8411918232832249
 23
448.4103613186304074
 33
0.0
  0
TEXT
  5
28BD
  8
OVERLAY-A3
 10
3221.5144131524889417
 20
424.1364496555867163
 30
0.0
 40
45.0
  1
889 CTRS
  0
LINE
  5
28D0
  8
OVERLAY-A3
 10
2739.1989082699069513
 20
514.601667928376628
 30
0.0
 11
2739.1989082699069513
 21
418.4103613186302937
 31
0.0
  0
LINE
  5
28D1
  8
OVERLAY-A3
 10
2694.1989082699101345
 20
448.4103613186304074
 30
0.0
 11
2649.198908269911044
 21
448.4103613186304074
 31
0.0
  0
SOLID
  5
28D2
  8
OVERLAY-A3
 10
2694.1989082699101345
 20
455.9103613186302937
 30
0.0
 11
2694.1989082699101345
 21
440.9103613186304074
 31
0.0
 12
2739.1989082699069513
 22
448.4103613186304074
 32
0.0
 13
2739.1989082699069513
 23
448.4103613186304074
 33
0.0
  0
TEXT
  5
28D3
  8
OVERLAY-A3
 10
2787.7993463483999221
 20
426.2692160680207962
 30
0.0
 40
45.0
  1
209
  0
LINE
  5
2A64
  8
OVERLAY-A3
 10
5437.7086688991894334
 20
485.8122396394135762
 30
0.0
 11
5437.7086688991894334
 21
388.2523033328162114
 31
0.0
  0
LINE
  5
2A65
  8
OVERLAY-A3
 10
4975.7086688991912524
 20
485.8122396394135762
 30
0.0
 11
4975.7086688991912524
 21
388.2523033328162114
 31
0.0
  0
LINE
  5
2A66
  8
OVERLAY-A3
 10
5482.7086688991894334
 20
418.2523033328160977
 30
0.0
 11
5527.7086688991903429
 21
418.2523033328160977
 31
0.0
  0
LINE
  5
2A67
  8
OVERLAY-A3
 10
4930.7086688991894334
 20
418.2523033328160977
 30
0.0
 11
4885.7086688991912524
 21
418.2523033328160977
 31
0.0
  0
SOLID
  5
2A68
  8
OVERLAY-A3
 10
5482.7086688991894334
 20
425.7523033328160977
 30
0.0
 11
5482.7086688991894334
 21
410.7523033328162114
 31
0.0
 12
5437.7086688991894334
 22
418.2523033328160977
 32
0.0
 13
5437.7086688991894334
 23
418.2523033328160977
 33
0.0
  0
SOLID
  5
2A69
  8
OVERLAY-A3
 10
4930.7086688991894334
 20
425.7523033328160977
 30
0.0
 11
4930.7086688991894334
 21
410.7523033328162114
 31
0.0
 12
4975.7086688991912524
 22
418.2523033328160977
 32
0.0
 13
4975.7086688991912524
 23
418.2523033328160977
 33
0.0
  0
TEXT
  5
2A70
  8
OVERLAY-A3
 10
5062.9018465929220838
 20
397.1958296631427743
 30
0.0
 40
45.0
  1
462 O/A
  0
LINE
  5
2A86
  8
OVERLAY-A3
 10
5423.6586688991856136
 20
1897.3622396393921008
 30
0.0
 11
5423.6586688991856136
 21
2013.9182303466600388
 31
0.0
  0
LINE
  5
2A87
  8
OVERLAY-A3
 10
4988.1586688991837946
 20
1897.3622396393921008
 30
0.0
 11
4988.1586688991837946
 21
2013.9182303466600388
 31
0.0
  0
LINE
  5
2A88
  8
OVERLAY-A3
 10
5378.658668899188342
 20
1983.9182303466609483
 30
0.0
 11
5294.1586688991874325
 21
1983.9182303466609483
 31
0.0
  0
LINE
  5
2A89
  8
OVERLAY-A3
 10
5033.1586688991856136
 20
1983.9182303466609483
 30
0.0
 11
5114.1586688991892515
 21
1983.9182303466609483
 31
0.0
  0
SOLID
  5
2A8A
  8
OVERLAY-A3
 10
5378.658668899188342
 20
1991.4182303466609483
 30
0.0
 11
5378.658668899188342
 21
1976.4182303466609483
 31
0.0
 12
5423.6586688991856136
 22
1983.9182303466609483
 32
0.0
 13
5423.6586688991856136
 23
1983.9182303466609483
 33
0.0
  0
SOLID
  5
2A8B
  8
OVERLAY-A3
 10
5033.1586688991856136
 20
1991.4182303466609483
 30
0.0
 11
5033.1586688991856136
 21
1976.4182303466609483
 31
0.0
 12
4988.1586688991837946
 22
1983.9182303466609483
 32
0.0
 13
4988.1586688991837946
 23
1983.9182303466609483
 33
0.0
  0
TEXT
  5
2A8C
  8
OVERLAY-A3
 10
5144.1586688991874325
 20
1961.4182303466600388
 30
0.0
 40
45.0
  1
436
  0
LINE
  5
2AA2
  8
0
 62
     7
 10
5391.9116881200015996
 20
1173.8296376540220081
 30
0.0
 11
5359.7384554928121361
 21
1202.362239639408017
 31
0.0
  0
LINE
  5
2AA3
  8
0
 62
     7
 10
5409.3774889590122257
 20
1212.4122136169351052
 30
0.0
 11
5409.3774889590122257
 21
1192.3122656618800193
 31
0.0
  0
LINE
  5
2AA4
  8
0
 62
     7
 10
5409.3774889590122257
 20
1192.3122656618800193
 30
0.0
 11
5391.9116881199961426
 21
1192.3122656618800193
 31
0.0
  0
LINE
  5
2AA5
  8
0
 62
     7
 10
5391.9116881199961426
 20
1192.3122656618800193
 30
0.0
 11
5391.9116881200015996
 21
1173.8296376540220081
 31
0.0
  0
LINE
  5
2AA6
  8
0
 62
     7
 10
5391.9116881200015996
 20
1230.89484162479107
 30
0.0
 11
5359.7384554928121361
 21
1202.362239639408017
 31
0.0
  0
LINE
  5
2AA7
  8
0
 62
     7
 10
5409.3774889590122257
 20
1212.4122136169351052
 30
0.0
 11
5391.9116881199961426
 21
1212.4122136169351052
 31
0.0
  0
LINE
  5
2AA8
  8
0
 62
     7
 10
5391.9116881199961426
 20
1212.4122136169351052
 30
0.0
 11
5391.9116881200015996
 21
1230.89484162479107
 31
0.0
  0
TEXT
  5
2AAE
  8
OUTLINE
 10
5187.4510910188637354
 20
918.1453613270862206
 30
0.0
 40
60.0
  1
OSA 251RLTFH
 50
90.0
  7
TITLE5
  0
TEXT
  5
2ABE
  8
0
 62
     7
 10
1736.2014519018209739
 20
-4.2702135817224498
 30
0.0
 40
33.5999999999967329
  1
available on request
  7
TITLE3
  0
TEXT
  5
2ABF
  8
0
 62
     7
 10
1736.2014519018209739
 20
53.3297864182718371
 30
0.0
 40
33.5999999999967329
  1
Certified dimensions
  7
TITLE3
  0
TEXT
  5
2AC0
  8
0
 62
     7
 10
1736.2014519018209739
 20
110.9297864182662039
 30
0.0
 40
33.5999999999967329
  1
without notice or obligation.
  7
TITLE3
  0
TEXT
  5
2AC1
  8
0
 62
     7
 10
1736.2014519018209739
 20
168.5297864182604997
 30
0.0
 40
33.5999999999967329
  1
specifications at any time
  7
TITLE3
  0
TEXT
  5
2AC2
  8
0
 62
     7
 10
1736.2014519018209739
 20
226.1297864182550086
 30
0.0
 40
33.5999999999967329
  1
the right to change 
  7
TITLE3
  0
TEXT
  5
2AC3
  8
0
 62
     7
 10
1736.2014519018209739
 20
341.3297864182433159
 30
0.0
 40
33.5999999999967329
  1
NOTE
  7
TITLE3
  0
TEXT
  5
2AC4
  8
0
 62
     7
 10
1736.2014519018209739
 20
283.7297864182493186
 30
0.0
 40
33.5999999999967329
  1
The manufacturer reserves
  7
TITLE3
  0
ENDSEC
  0
EOF
