  0
SECTION
  2
HEADER
  9
$ACADVER
  1
AC1009
  9
$INSBASE
 10
0.0
 20
0.0
 30
0.0
  9
$EXTMIN
 10
1516.9195755442119662
 20
-0.0810491740030557
 30
-0.0000000000000053
  9
$EXTMAX
 10
5835.1187292289905599
 20
3694.4986127923511958
 30
0.0000000000000099
  9
$LIMMIN
 10
0.0
 20
0.0
  9
$LIMMAX
 10
7780.0
 20
5320.0
  9
$ORTHOMODE
 70
     0
  9
$REGENMODE
 70
     1
  9
$FILLMODE
 70
     1
  9
$QTEXTMODE
 70
     0
  9
$MIRRTEXT
 70
     0
  9
$DRAGMODE
 70
     2
  9
$LTSCALE
 40
100.0
  9
$OSMODE
 70
  4095
  9
$ATTMODE
 70
     1
  9
$TEXTSIZE
 40
40.0
  9
$TRACEWID
 40
0.05
  9
$TEXTSTYLE
  7
TITLE3
  9
$CLAYER
  8
VISIBLE
  9
$CELTYPE
  6
BYLAYER
  9
$CECOLOR
 62
   256
  9
$DIMSCALE
 40
1.0
  9
$DIMASZ
 40
0.12
  9
$DIMEXO
 40
0.05
  9
$DIMDLI
 40
0.5
  9
$DIMRND
 40
0.0
  9
$DIMDLE
 40
0.0
  9
$DIMEXE
 40
0.1
  9
$DIMTP
 40
0.1
  9
$DIMTM
 40
0.1
  9
$DIMTXT
 40
0.12
  9
$DIMCEN
 40
0.0
  9
$DIMTSZ
 40
0.0
  9
$DIMTOL
 70
     0
  9
$DIMLIM
 70
     0
  9
$DIMTIH
 70
     1
  9
$DIMTOH
 70
     1
  9
$DIMSE1
 70
     0
  9
$DIMSE2
 70
     0
  9
$DIMTAD
 70
     0
  9
$DIMZIN
 70
     7
  9
$DIMBLK
  1

  9
$DIMASO
 70
     0
  9
$DIMSHO
 70
     0
  9
$DIMPOST
  1

  9
$DIMAPOST
  1
mm
  9
$DIMALT
 70
     0
  9
$DIMALTD
 70
     2
  9
$DIMALTF
 40
25.3999999999999986
  9
$DIMLFAC
 40
1.0
  9
$DIMTOFL
 70
     0
  9
$DIMTVP
 40
0.0
  9
$DIMTIX
 70
     0
  9
$DIMSOXD
 70
     0
  9
$DIMSAH
 70
     0
  9
$DIMBLK1
  1

  9
$DIMBLK2
  1

  9
$DIMSTYLE
  2
AM_ANSI
  9
$DIMCLRD
 70
   256
  9
$DIMCLRE
 70
   256
  9
$DIMCLRT
 70
     2
  9
$DIMTFAC
 40
0.71
  9
$DIMGAP
 40
0.06
  9
$LUNITS
 70
     2
  9
$LUPREC
 70
     2
  9
$SKETCHINC
 40
0.1
  9
$FILLETRAD
 40
0.0
  9
$AUNITS
 70
     0
  9
$AUPREC
 70
     2
  9
$MENU
  1
\acad12\support\cnc
  9
$ELEVATION
 40
0.0
  9
$PELEVATION
 40
0.0
  9
$THICKNESS
 40
0.0
  9
$LIMCHECK
 70
     0
  9
$BLIPMODE
 70
     0
  9
$CHAMFERA
 40
0.0
  9
$CHAMFERB
 40
0.0
  9
$SKPOLY
 70
     0
  9
$TDCREATE
 40
2451402.555810185149312
  9
$TDUPDATE
 40
2458892.5765972221270204
  9
$TDINDWG
 40
1.0105115856
  9
$TDUSRTIMER
 40
1.0105071528
  9
$USRTIMER
 70
     1
  9
$ANGBASE
 50
0.0
  9
$ANGDIR
 70
     0
  9
$PDMODE
 70
     2
  9
$PDSIZE
 40
15.0
  9
$PLINEWID
 40
0.0
  9
$COORDS
 70
     1
  9
$SPLFRAME
 70
     0
  9
$SPLINETYPE
 70
     6
  9
$SPLINESEGS
 70
     8
  9
$ATTDIA
 70
     1
  9
$ATTREQ
 70
     1
  9
$HANDLING
 70
     1
  9
$HANDSEED
  5
1AF5D
  9
$SURFTAB1
 70
     6
  9
$SURFTAB2
 70
     6
  9
$SURFTYPE
 70
     6
  9
$SURFU
 70
     6
  9
$SURFV
 70
     6
  9
$UCSNAME
  2

  9
$UCSORG
 10
0.0
 20
0.0
 30
0.0
  9
$UCSXDIR
 10
1.0
 20
0.0
 30
0.0
  9
$UCSYDIR
 10
0.0
 20
1.0
 30
0.0
  9
$PUCSNAME
  2

  9
$PUCSORG
 10
0.0
 20
0.0
 30
0.0
  9
$PUCSXDIR
 10
1.0
 20
0.0
 30
0.0
  9
$PUCSYDIR
 10
0.0
 20
1.0
 30
0.0
  9
$USERI1
 70
     0
  9
$USERI2
 70
     0
  9
$USERI3
 70
     0
  9
$USERI4
 70
     0
  9
$USERI5
 70
     0
  9
$USERR1
 40
0.0
  9
$USERR2
 40
0.0
  9
$USERR3
 40
0.0
  9
$USERR4
 40
0.0
  9
$USERR5
 40
0.0
  9
$WORLDVIEW
 70
     1
  9
$SHADEDGE
 70
     3
  9
$SHADEDIF
 70
    70
  9
$TILEMODE
 70
     1
  9
$MAXACTVP
 70
    16
  9
$PLIMCHECK
 70
     0
  9
$PEXTMIN
 10
1.0000000000000000E+20
 20
1.0000000000000000E+20
 30
1.0000000000000000E+20
  9
$PEXTMAX
 10
-1.0000000000000000E+20
 20
-1.0000000000000000E+20
 30
-1.0000000000000000E+20
  9
$PLIMMIN
 10
0.0
 20
0.0
  9
$PLIMMAX
 10
12.0
 20
9.0
  9
$UNITMODE
 70
     0
  9
$VISRETAIN
 70
     0
  9
$PLINEGEN
 70
     0
  9
$PSLTSCALE
 70
     0
  0
ENDSEC
  0
SECTION
  2
TABLES
  0
TABLE
  2
VPORT
 70
     1
  0
VPORT
  2
*ACTIVE
 70
     0
 10
0.0
 20
0.0
 11
1.0
 21
1.0
 12
-400.8798996255981137
 22
173.6173120362932139
 13
0.0
 23
0.0
 14
50.0
 24
50.0
 15
100.0
 25
100.0
 16
0.0
 26
0.0
 36
10118.4409632755196071
 17
4076.8990520121988084
 27
1673.5914697728810552
 37
0.0
 40
3718.4156597854921529
 41
1.6264800861141011
 42
50.0
 43
0.0
 44
0.0
 50
0.0
 51
0.0
 71
     0
 72
   100
 73
     1
 74
     0
 75
     0
 76
     0
 77
     0
 78
     0
  0
ENDTAB
  0
TABLE
  2
LTYPE
 70
     4
  0
LTYPE
  2
CONTINUOUS
 70
     0
  3
Solid line
 72
    65
 73
     0
 40
0.0
  0
LTYPE
  2
ACISOWELD
 70
     0
  3
_ _ _ _ _
 72
    65
 73
     2
 40
2.0
 49
2.0
 49
-1.0
  0
LTYPE
  2
PHANTOM
 70
     0
  3
Phantom ______  __  __  ______  __  __  ______
 72
    65
 73
     6
 40
2.5
 49
1.25
 49
-0.25
 49
0.25
 49
-0.25
 49
0.25
 49
-0.25
  0
ENDTAB
  0
TABLE
  2
LAYER
 70
    12
  0
LAYER
  2
0
 70
     0
 62
     7
  6
CONTINUOUS
  0
LAYER
  2
VISIBLE
 70
     0
 62
     7
  6
CONTINUOUS
  0
LAYER
  2
DIM
 70
     0
 62
     7
  6
CONTINUOUS
  0
LAYER
  2
OUTLINE
 70
     0
 62
     7
  6
CONTINUOUS
  0
LAYER
  2
TEXT
 70
     0
 62
   100
  6
CONTINUOUS
  0
LAYER
  2
MTG-FEET
 70
     0
 62
    30
  6
CONTINUOUS
  0
LAYER
  2
OVERLAY-A3
 70
     0
 62
     7
  6
CONTINUOUS
  0
LAYER
  2
DEFPOINTS
 70
     0
 62
     7
  6
CONTINUOUS
  0
LAYER
  2
SKETCH_GEOMETRY__ANSI_0
 70
     0
 62
     7
  6
CONTINUOUS
  0
LAYER
  2
DIMENSION
 70
     0
 62
     3
  6
CONTINUOUS
  0
LAYER
  2
SYMBOL
 70
     0
 62
     7
  6
CONTINUOUS
  0
LAYER
  2
AM_5
 70
     0
 62
     3
  6
CONTINUOUS
  0
ENDTAB
  0
TABLE
  2
STYLE
 70
     7
  0
STYLE
  2
STANDARD
 70
     0
 40
0.0
 41
1.0
 50
0.0
 71
     0
 42
0.2
  3
txt
  4

  0
STYLE
  2
ANNOTATIVE
 70
     0
 40
0.0
 41
1.0
 50
0.0
 71
     0
 42
0.2
  3
txt
  4

  0
STYLE
  2
TITLE3
 70
     0
 40
40.0
 41
1.0
 50
0.0
 71
     0
 42
40.0
  3
SIMPLEX.shx
  4

  0
STYLE
  2
TITLE5
 70
     0
 40
75.0
 41
1.0
 50
0.0
 71
     0
 42
100.0
  3
SIMPLEX
  4

  0
STYLE
  2
SIMPLEX
 70
     0
 40
60.0
 41
1.0
 50
0.0
 71
     0
 42
60.0
  3
simplex
  4

  0
STYLE
  2
NOTE_TEXT0
 70
     0
 40
0.0
 41
1.0
 50
0.0
 71
     0
 42
0.2
  3
txt
  4

  0
STYLE
  2
NOTE_TEXT
 70
     0
 40
0.0
 41
1.0
 50
0.0
 71
     0
 42
0.2
  3
txt
  4

  0
ENDTAB
  0
TABLE
  2
VIEW
 70
     0
  0
ENDTAB
  0
TABLE
  2
UCS
 70
     0
  0
ENDTAB
  0
TABLE
  2
APPID
 70
    26
  0
APPID
  2
ACAD
 70
     0
  0
APPID
  2
ACADANNOTATIVE
 70
     0
  0
APPID
  2
ACAD_MLEADERVER
 70
     0
  0
APPID
  2
ACAD_PSEXT
 70
     0
  0
APPID
  2
ACAECLAYERSTANDARD
 70
     0
  0
APPID
  2
MCAD_NO_VIS
 70
     0
  0
APPID
  2
ACAD_TEMP_GRAPHIC
 70
     0
  0
APPID
  2
AD_DRAW
 70
     0
  0
APPID
  2
ACATTRIBSERVICES
 70
     0
  0
APPID
  2
DESIGNERASSEMBLIES
 70
     0
  0
APPID
  2
ACADM_DIM_EDIT
 70
     0
  0
APPID
  2
AMDT_DM_ADJ
 70
     0
  0
APPID
  2
ACAD_EXEMPT_FROM_CAD_STANDARDS
 70
     0
  0
APPID
  2
ACAD_DSTYLE_DIMBREAK
 70
     0
  0
APPID
  2
ACAD_DSTYLE_DIMJAG
 70
     0
  0
APPID
  2
ACAD_NAV_VCDISPLAY
 70
     0
  0
APPID
  2
ACAD_DSTYLE_DIMARC_LENGTH_
 70
     0
  0
APPID
  2
ACAD_DSTYLE_DIM_LINETYPE
 70
     0
  0
APPID
  2
ACAD_DSTYLE_DIM_EXT1_LINETYPE
 70
     0
  0
APPID
  2
ACAD_DSTYLE_DIM_EXT2_LINETYPE
 70
     0
  0
APPID
  2
ACAD_DSTYLE_DIMRADIAL_EXTENSION
 70
     0
  0
APPID
  2
ACADANNOMONITORALERTICONDI
 70
     0
  0
APPID
  2
ACADANNOMONITORALERTICOND0
 70
     0
  0
APPID
  2
ACADANNOMONITORALERTICOND1
 70
     0
  0
APPID
  2
ACADANNOMONITORALERTICOND2
 70
     0
  0
APPID
  2
ACADANNOMONITORALERTICOND3
 70
     0
  0
ENDTAB
  0
TABLE
  2
DIMSTYLE
 70
     6
  0
DIMSTYLE
  2
STANDARD
 70
     0
  3

  4

  5

  6

  7

 40
1.0
 41
0.18
 42
0.0625
 43
0.38
 44
0.18
 45
0.0
 46
0.0
 47
0.0
 48
0.0
140
0.18
141
0.09
142
0.0
143
25.3999999999999986
144
1.0
145
0.0
146
1.0
147
0.09
 71
     0
 72
     0
 73
     1
 74
     1
 75
     0
 76
     0
 77
     0
 78
     0
170
     0
171
     2
172
     0
173
     0
174
     0
175
     0
176
     0
177
     0
178
     0
  0
DIMSTYLE
  2
ANNOTATIVE
 70
     0
  3

  4

  5

  6

  7

 40
1.0
 41
0.18
 42
0.0625
 43
0.38
 44
0.18
 45
0.0
 46
0.0
 47
0.0
 48
0.0
140
0.18
141
0.09
142
0.0
143
25.3999999999999986
144
1.0
145
0.0
146
1.0
147
0.09
 71
     0
 72
     0
 73
     1
 74
     1
 75
     0
 76
     0
 77
     0
 78
     0
170
     0
171
     2
172
     0
173
     0
174
     0
175
     0
176
     0
177
     0
178
     0
  0
DIMSTYLE
  2
AM_ANSI
 70
     0
  3

  4
mm
  5

  6

  7

 40
1.0
 41
0.12
 42
0.05
 43
0.5
 44
0.1
 45
0.0
 46
0.0
 47
0.1
 48
0.1
140
0.12
141
0.0
142
0.0
143
25.3999999999999986
144
1.0
145
0.0
146
0.71
147
0.06
 71
     0
 72
     0
 73
     1
 74
     1
 75
     0
 76
     0
 77
     0
 78
     7
170
     0
171
     2
172
     0
173
     0
174
     0
175
     0
176
   256
177
   256
178
     2
  0
DIMSTYLE
  2
DEFAULT
 70
     0
  3

  4

  5

  6

  7

 40
9.0909090909090917
 41
2.5
 42
1.600199999999999
 43
5.9999999999999991
 44
3.1749999999999989
 45
0.00000001
 46
10.0
 47
0.0
 48
0.0
140
3.0500001907348628
141
0.09
142
0.0
143
1.0
144
1.0
145
0.0
146
0.9993442296981812
147
0.8
 71
     0
 72
     0
 73
     0
 74
     1
 75
     0
 76
     0
 77
     0
 78
     0
170
     0
171
     1
172
     0
173
     0
174
     0
175
     0
176
   256
177
   256
178
   256
  0
DIMSTYLE
  2
PIPEWORK
 70
     0
  3

  4

  5

  6

  7

 40
9.0909090909090917
 41
2.5
 42
1.600199999999999
 43
5.9999999999999991
 44
3.1749999999999989
 45
0.00000001
 46
10.0
 47
0.0
 48
0.0
140
3.0500001907348628
141
0.09
142
0.0
143
1.0
144
1.0
145
0.0
146
0.9993442296981812
147
0.8
 71
     0
 72
     0
 73
     0
 74
     1
 75
     0
 76
     0
 77
     0
 78
     8
170
     0
171
     1
172
     0
173
     0
174
     0
175
     0
176
   256
177
   256
178
   256
  0
ENDTAB
  0
ENDSEC
  0
SECTION
  2
BLOCKS
  0
BLOCK
  8
0
  2
$MODEL_SPACE
 70
     0
 10
0.0
 20
0.0
 30
0.0
  3
$MODEL_SPACE
  1

  0
ENDBLK
  5
1AB4C
  8
0
  0
BLOCK
 67
     1
  8
0
  2
$PAPER_SPACE
 70
     0
 10
0.0
 20
0.0
 30
0.0
  3
$PAPER_SPACE
  1

  0
ENDBLK
  5
1AB48
 67
     1
  8
0
  0
BLOCK
  8
0
  2
LINES
 70
     0
 10
0.0
 20
0.0
 30
0.0
  3
LINES
  1

  0
ENDBLK
  5
F67
  8
0
  0
BLOCK
  8
0
  2
*U3
 70
     1
 10
0.0
 20
0.0
 30
0.0
  3
*U3
  1

  0
TEXT
  5
E140
  8
TEXT
 10
3129.5915530601109822
 20
1091.1391399370620547
 30
0.0
 40
27.4319999999999986
  1
%%UFRONT VIEW
  7
TITLE5
  0
ENDBLK
  5
E142
  8
0
  0
BLOCK
  8
0
  2
*U4
 70
     1
 10
0.0
 20
0.0
 30
0.0
  3
*U4
  1

  0
TEXT
  5
E158
  8
TEXT
 10
3138.9410607304948826
 20
1890.5242063329010307
 30
0.0
 40
27.4319999999999986
  1
%%UPLAN VIEW
  7
TITLE5
  0
ENDBLK
  5
E15A
  8
0
  0
BLOCK
  8
0
  2
*U5
 70
     1
 10
0.0
 20
0.0
 30
0.0
  3
*U5
  1

  0
TEXT
  5
E1A2
  8
TEXT
 10
4833.8483145166974282
 20
1248.7416267678549957
 30
0.0
 40
27.4319999999999986
  1
%%USIDE VIEW
  7
TITLE5
  0
ENDBLK
  5
E1A4
  8
0
  0
BLOCK
  8
0
  2
AIR_FLOW_ARROW0
 70
     0
 10
0.0
 20
0.0
 30
0.0
  3
AIR_FLOW_ARROW0
  1

  0
INSERT
  5
F3D1
  8
OUTLINE
  6
CONTINUOUS
  2
*U7
 10
0.0
 20
0.0
 30
0.0
1001
ACAD
1002
{
1000
R14_HATCH_DATA
1000
F3D1
1011
1.0
1021
0.0
1031
0.0
1021
0.0
1031
0.0
1011
0.0
1021
0.0
1031
0.0
1021
1.0
1031
0.0
1011
0.0
1021
0.0
1031
0.0
1021
0.0
1031
1.0
1040
0.0
1010
0.0
1020
0.0
1030
1.0
1000
SOLID
1070
     1
1070
     0
1071
        1
1071
        1
1071
        3
1070
     1
1040
0.0
1040
-5.8677570360447362
1040
-1.171875
1040
1.163492963955262
1070
     1
1040
-1.171875
1040
1.163492963955262
1040
1.171875
1040
1.163492963955262
1070
     1
1040
1.171875
1040
1.163492963955262
1040
0.0
1040
-5.8677570360447362
1071
        0
1070
     0
1070
     1
1071
        1
1040
0.0
1040
0.0
1040
0.0
1002
}
  0
LINE
  5
F3D2
  8
SKETCH_GEOMETRY__ANSI_0
 10
1.171875
 20
1.163492963955262
 30
0.0
 11
0.0
 21
-5.8677570360447362
 31
0.0
  0
LINE
  5
F3D3
  8
SKETCH_GEOMETRY__ANSI_0
 10
0.0
 20
-5.8677570360447362
 30
0.0
 11
-1.171875
 21
1.163492963955262
 31
0.0
  0
LINE
  5
F3D4
  8
SKETCH_GEOMETRY__ANSI_0
 10
-1.171875
 20
1.163492963955262
 30
0.0
 11
1.171875
 21
1.163492963955262
 31
0.0
  0
LINE
  5
F3D5
  8
OUTLINE
 10
0.0
 20
1.157503906667898
 30
0.0
 11
0.0
 21
5.8677570360447362
 31
0.0
  0
ENDBLK
  5
F3D6
  8
0
  0
BLOCK
  8
0
  2
*U7
 70
     1
 10
0.0
 20
0.0
 30
0.0
  3
*U7
  1

  0
SOLID
  5
123A8
  8
OUTLINE
  6
CONTINUOUS
 10
1.171875
 20
1.163492963955262
 30
0.0
 11
-1.171875
 21
1.163492963955262
 31
0.0
 12
0.0
 22
-5.8677570360447362
 32
0.0
 13
0.0
 23
-5.8677570360447362
 33
0.0
210
0.0
220
0.0
230
-1.0
  0
LINE
  5
123A9
  8
OUTLINE
  6
CONTINUOUS
 10
1.171875
 20
1.163492963955262
 30
0.0
 11
0.0
 21
-5.8677570360447362
 31
0.0
  0
LINE
  5
123AA
  8
OUTLINE
  6
CONTINUOUS
 10
0.0
 20
-5.8677570360447362
 30
0.0
 11
-1.171875
 21
1.163492963955262
 31
0.0
  0
ENDBLK
  5
123AC
  8
0
  0
BLOCK
  8
0
  2
*U8
 70
     1
 10
0.0
 20
0.0
 30
0.0
  3
*U8
  1

  0
TEXT
  5
124D0
  8
SYMBOL
 10
9573.6985950213947945
 20
1692.8144731220208996
 30
0.0
 40
32.0842109228435319
  1
Ebox
  7
NOTE_TEXT0
  0
ENDBLK
  5
124D2
  8
0
  0
BLOCK
  8
0
  2
*U9
 70
     1
 10
0.0
 20
0.0
 30
0.0
  3
*U9
  1

  0
TEXT
  5
124D4
  8
SYMBOL
 10
9334.1146215687185759
 20
1665.3997044024949901
 30
0.0
 40
32.0842109228435319
  1
Air flow
  7
NOTE_TEXT0
  0
ENDBLK
  5
124D6
  8
0
  0
BLOCK
  8
0
  2
*U10
 70
     1
 10
0.0
 20
0.0
 30
0.0
  3
*U10
  1

  0
TEXT
  5
124D8
  8
SYMBOL
 10
8796.5432568793712562
 20
2800.4843431920248804
 30
0.0
 40
32.0842109228435319
  1
Air flow
  7
NOTE_TEXT0
  0
ENDBLK
  5
124DA
  8
0
  0
BLOCK
  8
0
  2
*U11
 70
     1
 10
0.0
 20
0.0
 30
0.0
  3
*U11
  1

  0
TEXT
  5
124DC
  8
SYMBOL
 10
11197.0303506134296185
 20
1228.1421219446099258
 30
0.0
 40
32.0842109228435319
  1
Air flow
  7
NOTE_TEXT0
  0
ENDBLK
  5
124DE
  8
0
  0
BLOCK
  8
0
  2
*U12
 70
     1
 10
0.0
 20
0.0
 30
0.0
  3
*U12
  1

  0
TEXT
  5
124E0
  8
SYMBOL
 10
10188.5702120724909037
 20
1210.1888505651370451
 30
0.0
 40
32.0842109228435319
  1
Air flow
  7
NOTE_TEXT0
  0
ENDBLK
  5
124E2
  8
0
  0
BLOCK
  8
0
  2
*U13
 70
     1
 10
0.0
 20
0.0
 30
0.0
  3
*U13
  1

  0
TEXT
  5
124E4
  8
SYMBOL
 10
10403.6226656131293566
 20
1621.2220592211210715
 30
0.0
 40
32.0842109228435319
  1
Access panel
  7
NOTE_TEXT0
  0
ENDBLK
  5
124E6
  8
0
  0
BLOCK
  8
0
  2
*U14
 70
     1
 10
0.0
 20
0.0
 30
0.0
  3
*U14
  1

  0
TEXT
  5
1983B
  8
DIMENSION
 62
     0
 10
3815.0157381413760049
 20
3119.0475414027519037
 30
0.0
 40
40.0
  1
50 RA Spigot
 50
90.0
  7
TITLE3
  0
ENDBLK
  5
1983D
  8
0
  0
BLOCK
  8
0
  2
*U15
 70
     1
 10
0.0
 20
0.0
 30
0.0
  3
*U15
  1

  0
TEXT
  5
1980B
  8
DIMENSION
 62
     0
 10
4561.3046493364481648
 20
2527.5348337685200022
 30
0.0
 40
40.0
  1
691 O/D
 50
90.0
  7
TITLE3
  0
ENDBLK
  5
1980D
  8
0
  0
BLOCK
  8
0
  2
*U16
 70
     1
 10
0.0
 20
0.0
 30
0.0
  3
*U16
  1

  0
TEXT
  5
1980F
  8
DIMENSION
 62
     0
 10
4464.2207087282613429
 20
2907.4186765589711285
 30
0.0
 40
40.0
  1
277
 50
90.0
  7
TITLE3
  0
ENDBLK
  5
19811
  8
0
  0
BLOCK
  8
0
  2
*U17
 70
     1
 10
0.0
 20
0.0
 30
0.0
  3
*U17
  1

  0
TEXT
  5
19817
  8
DIMENSION
 62
     0
 10
4038.0138692964660549
 20
1313.9625431174379173
 30
0.0
 40
40.0
  1
29
  7
TITLE3
  0
ENDBLK
  5
19819
  8
0
  0
BLOCK
  8
0
  2
*U18
 70
     1
 10
0.0
 20
0.0
 30
0.0
  3
*U18
  1

  0
TEXT
  5
197B5
  8
DIMENSION
 62
     0
 10
3947.1954395682928407
 20
1251.0008840507719015
 30
0.0
 40
40.0
  1
308
  7
TITLE3
  0
ENDBLK
  5
197B7
  8
0
  0
BLOCK
  8
0
  2
*U19
 70
     1
 10
0.0
 20
0.0
 30
0.0
  3
*U19
  1

  0
TEXT
  5
197B9
  8
DIMENSION
 62
     0
 10
4282.7612422262218388
 20
1251.0008840507719015
 30
0.0
 40
40.0
  1
75
  7
TITLE3
  0
ENDBLK
  5
197BB
  8
0
  0
BLOCK
  8
0
  2
*U20
 70
     1
 10
0.0
 20
0.0
 30
0.0
  3
*U20
  1

  0
TEXT
  5
197E9
  8
DIMENSION
 62
     0
 10
4329.3393362673341471
 20
1510.0596496819489403
 30
0.0
 40
40.0
  1
76
 50
90.0
  7
TITLE3
  0
ENDBLK
  5
197EB
  8
0
  0
BLOCK
  8
0
  2
*U21
 70
     1
 10
0.0
 20
0.0
 30
0.0
  3
*U21
  1

  0
TEXT
  5
197BD
  8
DIMENSION
 62
     0
 10
2855.3061538540591755
 20
1257.6675507174379618
 30
0.0
 40
40.0
  1
1505 SA Spigot
  7
TITLE3
  0
ENDBLK
  5
197BF
  8
0
  0
BLOCK
  8
0
  2
*U22
 70
     1
 10
0.0
 20
0.0
 30
0.0
  3
*U22
  1

  0
TEXT
  5
197E3
  8
DIMENSION
 62
     0
 10
2006.2436351286200988
 20
1591.1161505129459783
 30
0.0
 40
40.0
  1
253
  7
TITLE3
  0
TEXT
  5
197E4
  8
DIMENSION
 62
     0
 10
2023.3864922714769818
 20
1524.4494838462790085
 30
0.0
 40
40.0
  1
SA
  7
TITLE3
  0
TEXT
  5
197E5
  8
DIMENSION
 62
     0
 10
1951.0055398905240054
 20
1457.7828171796120387
 30
0.0
 40
40.0
  1
 Spigot
  7
TITLE3
  0
ENDBLK
  5
197E7
  8
0
  0
BLOCK
  8
0
  2
*U23
 70
     1
 10
0.0
 20
0.0
 30
0.0
  3
*U23
  1

  0
TEXT
  5
197C1
  8
DIMENSION
 62
     0
 10
4210.5720948450925789
 20
2244.8656175267510662
 30
0.0
 40
40.0
  1
86
  7
TITLE3
  0
ENDBLK
  5
197C3
  8
0
  0
BLOCK
  8
0
  2
*U24
 70
     1
 10
0.0
 20
0.0
 30
0.0
  3
*U24
  1

  0
TEXT
  5
197C5
  8
DIMENSION
 62
     0
 10
2051.6975678057078767
 20
2352.0912848599141398
 30
0.0
 40
40.0
  1
134
  7
TITLE3
  0
ENDBLK
  5
197C7
  8
0
  0
BLOCK
  8
0
  2
*U25
 70
     1
 10
0.0
 20
0.0
 30
0.0
  3
*U25
  1

  0
TEXT
  5
197DD
  8
DIMENSION
 62
     0
 10
2013.3020019174289246
 20
2848.010877559211167
 30
0.0
 40
40.0
  1
559
  7
TITLE3
  0
TEXT
  5
197DE
  8
DIMENSION
 62
     0
 10
1936.1591447745720416
 20
2781.3442108925451066
 30
0.0
 40
40.0
  1
Mounting
  7
TITLE3
  0
TEXT
  5
197DF
  8
DIMENSION
 62
     0
 10
1939.9686685840958944
 20
2714.6775442258772273
 30
0.0
 40
40.0
  1
 centres
  7
TITLE3
  0
ENDBLK
  5
197E1
  8
0
  0
BLOCK
  8
0
  2
*U26
 70
     1
 10
0.0
 20
0.0
 30
0.0
  3
*U26
  1

  0
TEXT
  5
197C9
  8
DIMENSION
 62
     0
 10
2904.3537729019581093
 20
3204.1233985236490298
 30
0.0
 40
40.0
  1
1772 RA Spigot
  7
TITLE3
  0
ENDBLK
  5
197CB
  8
0
  0
BLOCK
  8
0
  2
*U27
 70
     1
 10
0.0
 20
0.0
 30
0.0
  3
*U27
  1

  0
TEXT
  5
197CD
  8
DIMENSION
 62
     0
 10
2884.1565720935768695
 20
3286.127243415608973
 30
0.0
 40
40.0
  1
1923 Mounting centres
  7
TITLE3
  0
ENDBLK
  5
197CF
  8
0
  0
BLOCK
  8
0
  2
*U28
 70
     1
 10
0.0
 20
0.0
 30
0.0
  3
*U28
  1

  0
TEXT
  5
197D1
  8
DIMENSION
 62
     0
 10
3067.0151686442668506
 20
3367.3810883075680067
 30
0.0
 40
40.0
  1
2022 O/D
  7
TITLE3
  0
ENDBLK
  5
197D3
  8
0
  0
BLOCK
  8
0
  2
*U29
 70
     1
 10
0.0
 20
0.0
 30
0.0
  3
*U29
  1

  0
TEXT
  5
197D5
  8
DIMENSION
 62
     0
 10
2334.3737782800608329
 20
3128.8841974684119123
 30
0.0
 40
40.0
  1
51
  7
TITLE3
  0
ENDBLK
  5
197D7
  8
0
  0
BLOCK
  8
0
  2
*U30
 70
     1
 10
0.0
 20
0.0
 30
0.0
  3
*U30
  1

  0
TEXT
  5
19813
  8
DIMENSION
 62
     0
 10
4313.463972372374883
 20
2938.9596411253619408
 30
0.0
 40
40.0
  1
218
 50
90.0
  7
TITLE3
  0
ENDBLK
  5
19815
  8
0
  0
BLOCK
  8
0
  2
*U31
 70
     1
 10
0.0
 20
0.0
 30
0.0
  3
*U31
  1

  0
TEXT
  5
197F6
  8
DIMENSION
 62
     0
 10
5813.6738929522798571
 20
1463.2933470240670886
 30
0.0
 40
40.0
  1
432 O/D
 50
90.0
  7
TITLE3
  0
ENDBLK
  5
197F8
  8
0
  0
BLOCK
  8
0
  2
*U32
 70
     1
 10
0.0
 20
0.0
 30
0.0
  3
*U32
  1

  0
TEXT
  5
197F1
  8
DIMENSION
 62
     0
 10
5542.0380953179328571
 20
1542.340966071685898
 30
0.0
 40
40.0
  1
365
 50
90.0
  7
TITLE3
  0
TEXT
  5
197F2
  8
DIMENSION
 62
     0
 10
5608.7047619846007365
 20
1428.0552517859719046
 30
0.0
 40
40.0
  1
 RA Spigot
 50
90.0
  7
TITLE3
  0
ENDBLK
  5
197F4
  8
0
  0
BLOCK
  8
0
  2
*U33
 70
     1
 10
0.0
 20
0.0
 30
0.0
  3
*U33
  1

  0
TEXT
  5
197ED
  8
DIMENSION
 62
     0
 10
5503.0706439442656119
 20
1278.1544425338920519
 30
0.0
 40
40.0
  1
44
 50
90.0
  7
TITLE3
  0
ENDBLK
  5
197EF
  8
0
  0
BLOCK
  8
0
  2
*U34
 70
     1
 10
0.0
 20
0.0
 30
0.0
  3
*U34
  1

  0
TEXT
  5
197D9
  8
DIMENSION
 62
     0
 10
4691.3851819548199273
 20
1274.0949501182269614
 30
0.0
 40
40.0
  1
32
 50
90.0
  7
TITLE3
  0
ENDBLK
  5
197DB
  8
0
  0
BLOCK
  8
0
  2
*U35
 70
     1
 10
0.0
 20
0.0
 30
0.0
  3
*U35
  1

  0
TEXT
  5
19807
  8
DIMENSION
 62
     0
 10
4635.3285272338689538
 20
1750.47936330443099
 30
0.0
 40
40.0
  1
65
 50
90.0
  7
TITLE3
  0
ENDBLK
  5
19809
  8
0
  0
BLOCK
  8
0
  2
*U36
 70
     1
 10
0.0
 20
0.0
 30
0.0
  3
*U36
  1

  0
TEXT
  5
1982F
  8
DIMENSION
 62
     0
 10
3662.1906381823928314
 20
1996.9368926731049214
 30
0.0
 40
40.0
  1
50 SA Spigot
 50
90.0
  7
TITLE3
  0
ENDBLK
  5
19831
  8
0
  0
BLOCK
  8
0
  2
*U37
 70
     1
 10
0.0
 20
0.0
 30
0.0
  3
*U37
  1

  0
TEXT
  5
19833
  8
DIMENSION
 62
     0
 10
1701.7528538782300984
 20
2914.677544225875863
 30
0.0
 40
40.0
  1
631
  7
TITLE3
  0
TEXT
  5
19834
  8
DIMENSION
 62
     0
 10
1630.3242824496589947
 20
2848.010877559211167
 30
0.0
 40
40.0
  1
Optional
  7
TITLE3
  0
TEXT
  5
19835
  8
DIMENSION
 62
     0
 10
1657.9433300687069277
 20
2781.3442108925451066
 30
0.0
 40
40.0
  1
Spring
  7
TITLE3
  0
TEXT
  5
19836
  8
DIMENSION
 62
     0
 10
1616.990949116325055
 20
2714.6775442258790463
 30
0.0
 40
40.0
  1
Mounting
  7
TITLE3
  0
TEXT
  5
19837
  8
DIMENSION
 62
     0
 10
1620.8004729258500447
 20
2648.010877559211167
 30
0.0
 40
40.0
  1
 centres
  7
TITLE3
  0
ENDBLK
  5
19839
  8
0
  0
BLOCK
  8
0
  2
*U38
 70
     1
 10
0.0
 20
0.0
 30
0.0
  3
*U38
  1

  0
TEXT
  5
19802
  8
VISIBLE
 10
4163.2451040582427595
 20
2081.0909146606359172
 30
0.0
 40
40.0
  1
500
  7
TITLE3
  0
TEXT
  5
19803
  8
VISIBLE
 10
4074.6736754868120443
 20
2014.4242479939700843
 30
0.0
 40
40.0
  1
Clearance
  7
TITLE3
  0
ENDBLK
  5
19805
  8
0
  0
BLOCK
  8
0
  2
*D39
 70
     1
 10
0.0
 20
0.0
 30
0.0
  3
*D39
  1

  0
LINE
  5
19969
  8
DIMENSION
 62
     0
 10
2340.0490109969141486
 20
1397.6433961196369182
 30
0.0
 11
2340.0490109969141486
 21
1256.0008840507719015
 31
0.0
  0
LINE
  5
1996A
  8
DIMENSION
 62
     0
 10
3844.8490109968711295
 20
1396.6933961198760699
 30
0.0
 11
3844.8490109968711295
 21
1256.0008840507719015
 31
0.0
  0
LINE
  5
1996B
  8
DIMENSION
 62
     0
 10
2355.0490109969141486
 20
1271.0008840507719015
 30
0.0
 11
2855.21615385405903
 21
1271.0008840507719015
 31
0.0
  0
LINE
  5
1996C
  8
DIMENSION
 62
     0
 10
3829.8490109968711295
 20
1271.0008840507719015
 30
0.0
 11
3329.681868139773087
 21
1271.0008840507719015
 31
0.0
  0
INSERT
  5
1996D
  8
VISIBLE
  2
*U40
 10
0.0
 20
0.0
 30
0.0
  0
SOLID
  5
1996E
  8
DIMENSION
 62
     0
 10
2355.0490109969141486
 20
1273.5008840507719015
 30
0.0
 11
2355.0490109969141486
 21
1268.5008840507719015
 31
0.0
 12
2340.0490109969141486
 22
1271.0008840507719015
 32
0.0
 13
2340.0490109969141486
 23
1271.0008840507719015
 33
0.0
  0
SOLID
  5
1996F
  8
DIMENSION
 62
     0
 10
3829.8490109968711295
 20
1273.5008840507719015
 30
0.0
 11
3829.8490109968711295
 21
1268.5008840507719015
 31
0.0
 12
3844.8490109968711295
 22
1271.0008840507719015
 32
0.0
 13
3844.8490109968711295
 23
1271.0008840507719015
 33
0.0
  0
POINT
  5
19970
  8
DEFPOINTS
 62
     0
 10
2340.0490109969141486
 20
1412.6433961196360087
 30
0.0
  0
POINT
  5
19971
  8
DEFPOINTS
 62
     0
 10
3844.8490109968711295
 20
1411.6933961198760699
 30
0.0
  0
POINT
  5
19972
  8
DEFPOINTS
 62
     0
 10
3844.8490109968711295
 20
1271.0008840507719015
 30
0.0
  0
ENDBLK
  5
19968
  8
0
  0
BLOCK
  8
0
  2
*U40
 70
     1
 10
0.0
 20
0.0
 30
0.0
  3
*U40
  1

  0
TEXT
  5
19BE8
  8
DIMENSION
 62
     0
 10
2855.3061538540591755
 20
1257.6675507174379618
 30
0.0
 40
40.0
  1
1505 SA Spigot
  7
TITLE3
  0
ENDBLK
  5
19BEA
  8
0
  0
BLOCK
  8
0
  2
*D41
 70
     1
 10
0.0
 20
0.0
 30
0.0
  3
*D41
  1

  0
LINE
  5
19976
  8
DIMENSION
 62
     0
 10
2325.0490109968732213
 20
1409.7433961201390957
 30
0.0
 11
2042.6722065571900657
 21
1409.7433961201390957
 31
0.0
  0
LINE
  5
19977
  8
DIMENSION
 62
     0
 10
2326.9990109968730394
 20
1662.6933961196500604
 30
0.0
 11
2042.6722065571900657
 21
1662.6933961196500604
 31
0.0
  0
LINE
  5
19978
  8
DIMENSION
 62
     0
 10
2057.6722065571912026
 20
1424.7433961201390957
 30
0.0
 11
2057.6722065571912026
 21
1444.3594838462779535
 31
0.0
  0
LINE
  5
19979
  8
DIMENSION
 62
     0
 10
2057.6722065571912026
 20
1647.6933961196500604
 30
0.0
 11
2057.6722065571912026
 21
1631.2061505129440775
 31
0.0
  0
INSERT
  5
1997A
  8
VISIBLE
  2
*U42
 10
0.0
 20
0.0
 30
0.0
  0
SOLID
  5
1997B
  8
DIMENSION
 62
     0
 10
2055.1722065571912026
 20
1424.7433961201390957
 30
0.0
 11
2060.1722065571912026
 21
1424.7433961201390957
 31
0.0
 12
2057.6722065571912026
 22
1409.7433961201390957
 32
0.0
 13
2057.6722065571912026
 23
1409.7433961201390957
 33
0.0
  0
SOLID
  5
1997C
  8
DIMENSION
 62
     0
 10
2055.1722065571912026
 20
1647.6933961196500604
 30
0.0
 11
2060.1722065571912026
 21
1647.6933961196500604
 31
0.0
 12
2057.6722065571912026
 22
1662.6933961196500604
 32
0.0
 13
2057.6722065571912026
 23
1662.6933961196500604
 33
0.0
  0
POINT
  5
1997D
  8
DEFPOINTS
 62
     0
 10
2340.0490109968732213
 20
1409.7433961201390957
 30
0.0
  0
POINT
  5
1997E
  8
DEFPOINTS
 62
     0
 10
2341.9990109968730394
 20
1662.6933961196500604
 30
0.0
  0
POINT
  5
1997F
  8
DEFPOINTS
 62
     0
 10
2057.6722065571912026
 20
1662.6933961196500604
 30
0.0
  0
ENDBLK
  5
19975
  8
0
  0
BLOCK
  8
0
  2
*U42
 70
     1
 10
0.0
 20
0.0
 30
0.0
  3
*U42
  1

  0
TEXT
  5
19BEC
  8
DIMENSION
 62
     0
 10
2006.2436351286200988
 20
1591.1161505129450688
 30
0.0
 40
40.0
  1
253
  7
TITLE3
  0
TEXT
  5
19BED
  8
DIMENSION
 62
     0
 10
2023.3864922714769818
 20
1524.449483846278099
 30
0.0
 40
40.0
  1
SA
  7
TITLE3
  0
TEXT
  5
19BEE
  8
DIMENSION
 62
     0
 10
1951.0055398905240054
 20
1457.7828171796120387
 30
0.0
 40
40.0
  1
 Spigot
  7
TITLE3
  0
ENDBLK
  5
19BF0
  8
0
  0
BLOCK
  8
0
  2
*D43
 70
     1
 10
0.0
 20
0.0
 30
0.0
  3
*D43
  1

  0
LINE
  5
19983
  8
DIMENSION
 62
     0
 10
4152.3990109968699471
 20
1364.7445375001179855
 30
0.0
 11
4152.3990109968699471
 21
1256.0008840507719015
 31
0.0
  0
LINE
  5
19984
  8
DIMENSION
 62
     0
 10
3844.8490109968711295
 20
1396.6933961198760699
 30
0.0
 11
3844.8490109968711295
 21
1256.0008840507719015
 31
0.0
  0
LINE
  5
19985
  8
DIMENSION
 62
     0
 10
4137.3990109968699471
 20
1271.0008840507719015
 30
0.0
 11
4050.1425824254361032
 21
1271.0008840507719015
 31
0.0
  0
LINE
  5
19986
  8
DIMENSION
 62
     0
 10
3859.8490109968711295
 20
1271.0008840507719015
 30
0.0
 11
3947.1054395682958784
 21
1271.0008840507719015
 31
0.0
  0
INSERT
  5
19987
  8
VISIBLE
  2
*U44
 10
0.0
 20
0.0
 30
0.0
  0
SOLID
  5
19988
  8
DIMENSION
 62
     0
 10
4137.3990109968699471
 20
1273.5008840507719015
 30
0.0
 11
4137.3990109968699471
 21
1268.5008840507719015
 31
0.0
 12
4152.3990109968699471
 22
1271.0008840507719015
 32
0.0
 13
4152.3990109968699471
 23
1271.0008840507719015
 33
0.0
  0
SOLID
  5
19989
  8
DIMENSION
 62
     0
 10
3859.8490109968711295
 20
1273.5008840507719015
 30
0.0
 11
3859.8490109968711295
 21
1268.5008840507719015
 31
0.0
 12
3844.8490109968711295
 22
1271.0008840507719015
 32
0.0
 13
3844.8490109968711295
 23
1271.0008840507719015
 33
0.0
  0
POINT
  5
1998A
  8
DEFPOINTS
 62
     0
 10
4152.3990109968699471
 20
1379.7445375001179855
 30
0.0
  0
POINT
  5
1998B
  8
DEFPOINTS
 62
     0
 10
3844.8490109968711295
 20
1411.6933961198760699
 30
0.0
  0
POINT
  5
1998C
  8
DEFPOINTS
 62
     0
 10
3844.8490109968711295
 20
1271.0008840507719015
 30
0.0
  0
ENDBLK
  5
19982
  8
0
  0
BLOCK
  8
0
  2
*U44
 70
     1
 10
0.0
 20
0.0
 30
0.0
  3
*U44
  1

  0
TEXT
  5
19BF2
  8
DIMENSION
 62
     0
 10
3947.1954395682928407
 20
1251.0008840507719015
 30
0.0
 40
40.0
  1
308
  7
TITLE3
  0
ENDBLK
  5
19BF4
  8
0
  0
BLOCK
  8
0
  2
*D45
 70
     1
 10
0.0
 20
0.0
 30
0.0
  3
*D45
  1

  0
LINE
  5
19990
  8
DIMENSION
 62
     0
 10
4181.4990109968830438
 20
1379.9643752704200779
 30
0.0
 11
4181.4990109968830438
 21
1318.8714338368770314
 31
0.0
  0
LINE
  5
19991
  8
DIMENSION
 62
     0
 10
4152.3990109968699471
 20
1364.7445375001179855
 30
0.0
 11
4152.3990109968699471
 21
1318.8714338368770314
 31
0.0
  0
LINE
  5
19992
  8
DIMENSION
 62
     0
 10
4196.4990109968830438
 20
1333.8714338368770314
 30
0.0
 11
4211.4990109968830438
 21
1333.8714338368770314
 31
0.0
  0
LINE
  5
19993
  8
DIMENSION
 62
     0
 10
4137.3990109968699471
 20
1333.8714338368770314
 30
0.0
 11
4122.3990109968699471
 21
1333.8714338368770314
 31
0.0
  0
INSERT
  5
19994
  8
VISIBLE
  2
*U46
 10
0.0
 20
0.0
 30
0.0
  0
SOLID
  5
19995
  8
DIMENSION
 62
     0
 10
4196.4990109968830438
 20
1336.3714338368770314
 30
0.0
 11
4196.4990109968830438
 21
1331.3714338368770314
 31
0.0
 12
4181.4990109968830438
 22
1333.8714338368770314
 32
0.0
 13
4181.4990109968830438
 23
1333.8714338368770314
 33
0.0
  0
SOLID
  5
19996
  8
DIMENSION
 62
     0
 10
4137.3990109968699471
 20
1336.3714338368770314
 30
0.0
 11
4137.3990109968699471
 21
1331.3714338368770314
 31
0.0
 12
4152.3990109968699471
 22
1333.8714338368770314
 32
0.0
 13
4152.3990109968699471
 23
1333.8714338368770314
 33
0.0
  0
POINT
  5
19997
  8
DEFPOINTS
 62
     0
 10
4181.4990109968830438
 20
1394.9643752704200779
 30
0.0
  0
POINT
  5
19998
  8
DEFPOINTS
 62
     0
 10
4152.3990109968699471
 20
1379.7445375001179855
 30
0.0
  0
POINT
  5
19999
  8
DEFPOINTS
 62
     0
 10
4152.3990109968699471
 20
1333.8714338368770314
 30
0.0
  0
ENDBLK
  5
1998F
  8
0
  0
BLOCK
  8
0
  2
*U46
 70
     1
 10
0.0
 20
0.0
 30
0.0
  3
*U46
  1

  0
TEXT
  5
19BF6
  8
DIMENSION
 62
     0
 10
4038.0138692964660549
 20
1313.9625431174379173
 30
0.0
 40
40.0
  1
29
  7
TITLE3
  0
ENDBLK
  5
19BF8
  8
0
  0
BLOCK
  8
0
  2
*D47
 70
     1
 10
0.0
 20
0.0
 30
0.0
  3
*D47
  1

  0
LINE
  5
1999D
  8
DIMENSION
 62
     0
 10
4152.3990109968699471
 20
1364.7445375001179855
 30
0.0
 11
4152.3990109968699471
 21
1256.0008840507719015
 31
0.0
  0
LINE
  5
1999E
  8
DIMENSION
 62
     0
 10
4227.4490109968628531
 20
1421.2950375002060355
 30
0.0
 11
4227.4490109968628531
 21
1256.0008840507719015
 31
0.0
  0
LINE
  5
1999F
  8
DIMENSION
 62
     0
 10
4137.3990109968699471
 20
1271.0008840507719015
 30
0.0
 11
4122.3990109968699471
 21
1271.0008840507719015
 31
0.0
  0
LINE
  5
199A0
  8
DIMENSION
 62
     0
 10
4242.4490109968628531
 20
1271.0008840507719015
 30
0.0
 11
4257.4490109968646721
 21
1271.0008840507719015
 31
0.0
  0
INSERT
  5
199A1
  8
VISIBLE
  2
*U48
 10
0.0
 20
0.0
 30
0.0
  0
SOLID
  5
199A2
  8
DIMENSION
 62
     0
 10
4137.3990109968699471
 20
1273.5008840507719015
 30
0.0
 11
4137.3990109968699471
 21
1268.5008840507719015
 31
0.0
 12
4152.3990109968699471
 22
1271.0008840507719015
 32
0.0
 13
4152.3990109968699471
 23
1271.0008840507719015
 33
0.0
  0
SOLID
  5
199A3
  8
DIMENSION
 62
     0
 10
4242.4490109968628531
 20
1273.5008840507719015
 30
0.0
 11
4242.4490109968628531
 21
1268.5008840507719015
 31
0.0
 12
4227.4490109968628531
 22
1271.0008840507719015
 32
0.0
 13
4227.4490109968628531
 23
1271.0008840507719015
 33
0.0
  0
POINT
  5
199A4
  8
DEFPOINTS
 62
     0
 10
4152.3990109968699471
 20
1379.7445375001179855
 30
0.0
  0
POINT
  5
199A5
  8
DEFPOINTS
 62
     0
 10
4227.4490109968628531
 20
1436.2950375002060355
 30
0.0
  0
POINT
  5
199A6
  8
DEFPOINTS
 62
     0
 10
4227.4490109968628531
 20
1271.0008840507719015
 30
0.0
  0
ENDBLK
  5
1999C
  8
0
  0
BLOCK
  8
0
  2
*U48
 70
     1
 10
0.0
 20
0.0
 30
0.0
  3
*U48
  1

  0
TEXT
  5
19BFA
  8
DIMENSION
 62
     0
 10
4282.7612422262236578
 20
1251.0008840507719015
 30
0.0
 40
40.0
  1
75
  7
TITLE3
  0
ENDBLK
  5
19BFC
  8
0
  0
BLOCK
  8
0
  2
*D49
 70
     1
 10
0.0
 20
0.0
 30
0.0
  3
*D49
  1

  0
LINE
  5
199AA
  8
DIMENSION
 62
     0
 10
4242.4490109968628531
 20
1453.795037500206945
 30
0.0
 11
4324.3393362673350566
 21
1453.795037500206945
 31
0.0
  0
LINE
  5
199AB
  8
DIMENSION
 62
     0
 10
4165.44901099686831
 20
1377.7945375001190769
 30
0.0
 11
4324.3393362673350566
 21
1377.7945375001190769
 31
0.0
  0
LINE
  5
199AC
  8
DIMENSION
 62
     0
 10
4309.3393362673341471
 20
1468.795037500206945
 30
0.0
 11
4309.3393362673341471
 21
1483.795037500206945
 31
0.0
  0
LINE
  5
199AD
  8
DIMENSION
 62
     0
 10
4309.3393362673341471
 20
1362.7945375001190769
 30
0.0
 11
4309.3393362673341471
 21
1347.7945375001190769
 31
0.0
  0
INSERT
  5
199AE
  8
VISIBLE
  2
*U50
 10
0.0
 20
0.0
 30
0.0
  0
SOLID
  5
199AF
  8
DIMENSION
 62
     0
 10
4306.8393362673341471
 20
1468.795037500206945
 30
0.0
 11
4311.8393362673341471
 21
1468.795037500206945
 31
0.0
 12
4309.3393362673341471
 22
1453.795037500206945
 32
0.0
 13
4309.3393362673341471
 23
1453.795037500206945
 33
0.0
  0
SOLID
  5
199B0
  8
DIMENSION
 62
     0
 10
4306.8393362673341471
 20
1362.7945375001190769
 30
0.0
 11
4311.8393362673341471
 21
1362.7945375001190769
 31
0.0
 12
4309.3393362673341471
 22
1377.7945375001190769
 32
0.0
 13
4309.3393362673341471
 23
1377.7945375001190769
 33
0.0
  0
POINT
  5
199B1
  8
DEFPOINTS
 62
     0
 10
4227.4490109968628531
 20
1453.795037500206945
 30
0.0
  0
POINT
  5
199B2
  8
DEFPOINTS
 62
     0
 10
4150.44901099686831
 20
1377.7945375001190769
 30
0.0
  0
POINT
  5
199B3
  8
DEFPOINTS
 62
     0
 10
4309.3393362673341471
 20
1377.7945375001190769
 30
0.0
  0
ENDBLK
  5
199A9
  8
0
  0
BLOCK
  8
0
  2
*U50
 70
     1
 10
0.0
 20
0.0
 30
0.0
  3
*U50
  1

  0
TEXT
  5
19BFE
  8
DIMENSION
 62
     0
 10
4329.3393362673341471
 20
1510.0596496819489403
 30
0.0
 40
40.0
  1
76
 50
90.0
  7
TITLE3
  0
ENDBLK
  5
19C00
  8
0
  0
BLOCK
  8
0
  2
*D51
 70
     1
 10
0.0
 20
0.0
 30
0.0
  3
*D51
  1

  0
LINE
  5
199B7
  8
DIMENSION
 62
     0
 10
4809.5765269242610884
 20
1377.7945375000999775
 30
0.0
 11
4657.9087333412007865
 21
1377.7945375000999775
 31
0.0
  0
LINE
  5
199B8
  8
DIMENSION
 62
     0
 10
4733.9765269241570422
 20
1409.7433961198560155
 30
0.0
 11
4657.9087333412007865
 21
1409.7433961198560155
 31
0.0
  0
LINE
  5
199B9
  8
DIMENSION
 62
     0
 10
4672.9087333412007865
 20
1362.7945375000999775
 30
0.0
 11
4672.9087333412007865
 21
1347.7945375000999775
 31
0.0
  0
LINE
  5
199BA
  8
DIMENSION
 62
     0
 10
4672.9087333412007865
 20
1424.7433961198560155
 30
0.0
 11
4672.9087333412007865
 21
1439.7433961198560155
 31
0.0
  0
INSERT
  5
199BB
  8
VISIBLE
  2
*U52
 10
0.0
 20
0.0
 30
0.0
  0
SOLID
  5
199BC
  8
DIMENSION
 62
     0
 10
4670.4087333412007865
 20
1362.7945375000999775
 30
0.0
 11
4675.4087333412007865
 21
1362.7945375000999775
 31
0.0
 12
4672.9087333412007865
 22
1377.7945375000999775
 32
0.0
 13
4672.9087333412007865
 23
1377.7945375000999775
 33
0.0
  0
SOLID
  5
199BD
  8
DIMENSION
 62
     0
 10
4670.4087333412007865
 20
1424.7433961198560155
 30
0.0
 11
4675.4087333412007865
 21
1424.7433961198560155
 31
0.0
 12
4672.9087333412007865
 22
1409.7433961198560155
 32
0.0
 13
4672.9087333412007865
 23
1409.7433961198560155
 33
0.0
  0
POINT
  5
199BE
  8
DEFPOINTS
 62
     0
 10
4824.5765269242610884
 20
1377.7945375000999775
 30
0.0
  0
POINT
  5
199BF
  8
DEFPOINTS
 62
     0
 10
4748.9765269241597707
 20
1409.7433961198560155
 30
0.0
  0
POINT
  5
199C0
  8
DEFPOINTS
 62
     0
 10
4672.9087333412007865
 20
1409.7433961198560155
 30
0.0
  0
ENDBLK
  5
199B6
  8
0
  0
BLOCK
  8
0
  2
*U52
 70
     1
 10
0.0
 20
0.0
 30
0.0
  3
*U52
  1

  0
TEXT
  5
19C02
  8
DIMENSION
 62
     0
 10
4691.3851819548199273
 20
1274.0949501182269614
 30
0.0
 40
40.0
  1
32
 50
90.0
  7
TITLE3
  0
ENDBLK
  5
19C04
  8
0
  0
BLOCK
  8
0
  2
*D53
 70
     1
 10
0.0
 20
0.0
 30
0.0
  3
*D53
  1

  0
LINE
  5
199C4
  8
DIMENSION
 62
     0
 10
4694.4765269241270289
 20
1744.3945375000739659
 30
0.0
 11
4657.9087333412007865
 21
1744.3945375000739659
 31
0.0
  0
LINE
  5
199C5
  8
DIMENSION
 62
     0
 10
4777.2765269235596861
 20
1809.7445375000900185
 30
0.0
 11
4657.9087333412007865
 21
1809.7445375000900185
 31
0.0
  0
LINE
  5
199C6
  8
DIMENSION
 62
     0
 10
4672.9087333412007865
 20
1759.3945375000739659
 30
0.0
 11
4672.9087333412007865
 21
1794.7445375000900185
 31
0.0
  0
INSERT
  5
199C7
  8
VISIBLE
  2
*U54
 10
0.0
 20
0.0
 30
0.0
  0
SOLID
  5
199C8
  8
DIMENSION
 62
     0
 10
4670.4087333412007865
 20
1759.3945375000739659
 30
0.0
 11
4675.4087333412007865
 21
1759.3945375000739659
 31
0.0
 12
4672.9087333412007865
 22
1744.3945375000739659
 32
0.0
 13
4672.9087333412007865
 23
1744.3945375000739659
 33
0.0
  0
SOLID
  5
199C9
  8
DIMENSION
 62
     0
 10
4670.4087333412007865
 20
1794.7445375000900185
 30
0.0
 11
4675.4087333412007865
 21
1794.7445375000900185
 31
0.0
 12
4672.9087333412007865
 22
1809.7445375000900185
 32
0.0
 13
4672.9087333412007865
 23
1809.7445375000900185
 33
0.0
  0
POINT
  5
199CA
  8
DEFPOINTS
 62
     0
 10
4709.4765269241261194
 20
1744.3945375000739659
 30
0.0
  0
POINT
  5
199CB
  8
DEFPOINTS
 62
     0
 10
4792.2765269235596861
 20
1809.7445375000900185
 30
0.0
  0
POINT
  5
199CC
  8
DEFPOINTS
 62
     0
 10
4672.9087333412007865
 20
1809.7445375000900185
 30
0.0
  0
ENDBLK
  5
199C3
  8
0
  0
BLOCK
  8
0
  2
*U54
 70
     1
 10
0.0
 20
0.0
 30
0.0
  3
*U54
  1

  0
TEXT
  5
19C06
  8
DIMENSION
 62
     0
 10
4635.3285272338689538
 20
1750.47936330443099
 30
0.0
 40
40.0
  1
65
 50
90.0
  7
TITLE3
  0
ENDBLK
  5
19C08
  8
0
  0
BLOCK
  8
0
  2
*D55
 70
     1
 10
0.0
 20
0.0
 30
0.0
  3
*D55
  1

  0
LINE
  5
199D0
  8
DIMENSION
 62
     0
 10
5413.0765269242119757
 20
1421.6445375002720084
 30
0.0
 11
5496.5307091989279797
 21
1421.6445375002720084
 31
0.0
  0
LINE
  5
199D1
  8
DIMENSION
 62
     0
 10
5413.0765269241010174
 20
1786.794537500270053
 30
0.0
 11
5496.5307091989279797
 21
1786.794537500270053
 31
0.0
  0
LINE
  5
199D2
  8
DIMENSION
 62
     0
 10
5481.5307091989288892
 20
1436.6445375002720084
 30
0.0
 11
5481.5307091989288892
 21
1771.794537500270053
 31
0.0
  0
INSERT
  5
199D3
  8
VISIBLE
  2
*U56
 10
0.0
 20
0.0
 30
0.0
  0
SOLID
  5
199D4
  8
DIMENSION
 62
     0
 10
5479.0307091989288892
 20
1436.6445375002720084
 30
0.0
 11
5484.0307091989288892
 21
1436.6445375002720084
 31
0.0
 12
5481.5307091989288892
 22
1421.6445375002720084
 32
0.0
 13
5481.5307091989288892
 23
1421.6445375002720084
 33
0.0
  0
SOLID
  5
199D5
  8
DIMENSION
 62
     0
 10
5479.0307091989288892
 20
1771.794537500270053
 30
0.0
 11
5484.0307091989288892
 21
1771.794537500270053
 31
0.0
 12
5481.5307091989288892
 22
1786.794537500270053
 32
0.0
 13
5481.5307091989288892
 23
1786.794537500270053
 33
0.0
  0
POINT
  5
199D6
  8
DEFPOINTS
 62
     0
 10
5398.0765269242119757
 20
1421.6445375002720084
 30
0.0
  0
POINT
  5
199D7
  8
DEFPOINTS
 62
     0
 10
5398.0765269240991984
 20
1786.794537500270053
 30
0.0
  0
POINT
  5
199D8
  8
DEFPOINTS
 62
     0
 10
5481.5307091989288892
 20
1786.794537500270053
 30
0.0
  0
ENDBLK
  5
199CF
  8
0
  0
BLOCK
  8
0
  2
*U56
 70
     1
 10
0.0
 20
0.0
 30
0.0
  3
*U56
  1

  0
TEXT
  5
19C0A
  8
DIMENSION
 62
     0
 10
5542.0380953179328571
 20
1542.340966071685898
 30
0.0
 40
40.0
  1
365
 50
90.0
  7
TITLE3
  0
TEXT
  5
19C0B
  8
DIMENSION
 62
     0
 10
5608.7047619846007365
 20
1428.0552517859719046
 30
0.0
 40
40.0
  1
 RA Spigot
 50
90.0
  7
TITLE3
  0
ENDBLK
  5
19C0D
  8
0
  0
BLOCK
  8
0
  2
*D57
 70
     1
 10
0.0
 20
0.0
 30
0.0
  3
*D57
  1

  0
LINE
  5
199DC
  8
DIMENSION
 62
     0
 10
5361.1265269242621798
 20
1377.7945375002539095
 30
0.0
 11
5496.5307091989279797
 21
1377.7945375002539095
 31
0.0
  0
LINE
  5
199DD
  8
DIMENSION
 62
     0
 10
5413.0765269242119757
 20
1421.6445375002720084
 30
0.0
 11
5496.5307091989279797
 21
1421.6445375002720084
 31
0.0
  0
LINE
  5
199DE
  8
DIMENSION
 62
     0
 10
5481.5307091989288892
 20
1362.7945375002539095
 30
0.0
 11
5481.5307091989288892
 21
1347.7945375002539095
 31
0.0
  0
LINE
  5
199DF
  8
DIMENSION
 62
     0
 10
5481.5307091989288892
 20
1436.6445375002720084
 30
0.0
 11
5481.5307091989288892
 21
1451.6445375002720084
 31
0.0
  0
INSERT
  5
199E0
  8
VISIBLE
  2
*U58
 10
0.0
 20
0.0
 30
0.0
  0
SOLID
  5
199E1
  8
DIMENSION
 62
     0
 10
5479.0307091989288892
 20
1362.7945375002539095
 30
0.0
 11
5484.0307091989288892
 21
1362.7945375002539095
 31
0.0
 12
5481.5307091989288892
 22
1377.7945375002539095
 32
0.0
 13
5481.5307091989288892
 23
1377.7945375002539095
 33
0.0
  0
SOLID
  5
199E2
  8
DIMENSION
 62
     0
 10
5479.0307091989288892
 20
1436.6445375002720084
 30
0.0
 11
5484.0307091989288892
 21
1436.6445375002720084
 31
0.0
 12
5481.5307091989288892
 22
1421.6445375002720084
 32
0.0
 13
5481.5307091989288892
 23
1421.6445375002720084
 33
0.0
  0
POINT
  5
199E3
  8
DEFPOINTS
 62
     0
 10
5346.1265269242621798
 20
1377.7945375002539095
 30
0.0
  0
POINT
  5
199E4
  8
DEFPOINTS
 62
     0
 10
5398.0765269242119757
 20
1421.6445375002720084
 30
0.0
  0
POINT
  5
199E5
  8
DEFPOINTS
 62
     0
 10
5481.5307091989288892
 20
1421.6445375002720084
 30
0.0
  0
ENDBLK
  5
199DB
  8
0
  0
BLOCK
  8
0
  2
*U58
 70
     1
 10
0.0
 20
0.0
 30
0.0
  3
*U58
  1

  0
TEXT
  5
19C0F
  8
DIMENSION
 62
     0
 10
5503.0706439442656119
 20
1278.1544425338920519
 30
0.0
 40
40.0
  1
44
 50
90.0
  7
TITLE3
  0
ENDBLK
  5
19C11
  8
0
  0
BLOCK
  8
0
  2
*D59
 70
     1
 10
0.0
 20
0.0
 30
0.0
  3
*D59
  1

  0
LINE
  5
199E9
  8
DIMENSION
 62
     0
 10
5387.4265269241277565
 20
1809.7445375002610035
 30
0.0
 11
5745.6095359912196727
 21
1809.7445375002610035
 31
0.0
  0
LINE
  5
199EA
  8
DIMENSION
 62
     0
 10
5361.1265269242621798
 20
1377.7945375002539095
 30
0.0
 11
5745.6095359912196727
 21
1377.7945375002539095
 31
0.0
  0
LINE
  5
199EB
  8
DIMENSION
 62
     0
 10
5730.6095359912196727
 20
1794.7445375002610035
 30
0.0
 11
5730.6095359912196727
 21
1392.794537500253
 31
0.0
  0
INSERT
  5
199EC
  8
VISIBLE
  2
*U60
 10
0.0
 20
0.0
 30
0.0
  0
SOLID
  5
199ED
  8
DIMENSION
 62
     0
 10
5728.1095359912196727
 20
1794.7445375002610035
 30
0.0
 11
5733.1095359912196727
 21
1794.7445375002610035
 31
0.0
 12
5730.6095359912196727
 22
1809.7445375002610035
 32
0.0
 13
5730.6095359912196727
 23
1809.7445375002610035
 33
0.0
  0
SOLID
  5
199EE
  8
DIMENSION
 62
     0
 10
5728.1095359912196727
 20
1392.794537500253
 30
0.0
 11
5733.1095359912196727
 21
1392.794537500253
 31
0.0
 12
5730.6095359912196727
 22
1377.7945375002539095
 32
0.0
 13
5730.6095359912196727
 23
1377.7945375002539095
 33
0.0
  0
POINT
  5
199EF
  8
DEFPOINTS
 62
     0
 10
5372.4265269241277565
 20
1809.7445375002610035
 30
0.0
  0
POINT
  5
199F0
  8
DEFPOINTS
 62
     0
 10
5346.1265269242621798
 20
1377.7945375002539095
 30
0.0
  0
POINT
  5
199F1
  8
DEFPOINTS
 62
     0
 10
5730.6095359912196727
 20
1377.7945375002539095
 30
0.0
  0
ENDBLK
  5
199E8
  8
0
  0
BLOCK
  8
0
  2
*U60
 70
     1
 10
0.0
 20
0.0
 30
0.0
  3
*U60
  1

  0
TEXT
  5
19C13
  8
DIMENSION
 62
     0
 10
5813.6738929522798571
 20
1463.2933470240670886
 30
0.0
 40
40.0
  1
432 O/D
 50
90.0
  7
TITLE3
  0
ENDBLK
  5
19C15
  8
0
  0
BLOCK
  8
0
  2
*D61
 70
     1
 10
0.0
 20
0.0
 30
0.0
  3
*D61
  1

  0
LINE
  5
199F5
  8
DIMENSION
 62
     0
 10
2199.1946549398840034
 20
3062.2786887444049171
 30
0.0
 11
2048.7781923936199746
 21
3062.2786887444049171
 31
0.0
  0
LINE
  5
199F6
  8
DIMENSION
 62
     0
 10
2199.1946549398780917
 20
2503.1286887444070999
 30
0.0
 11
2048.7781923936199746
 21
2503.1286887444070999
 31
0.0
  0
LINE
  5
199F7
  8
DIMENSION
 62
     0
 10
2063.7781923936199746
 20
3047.2786887444040076
 30
0.0
 11
2063.7781923936199746
 21
2888.1008775592099482
 31
0.0
  0
LINE
  5
199F8
  8
DIMENSION
 62
     0
 10
2063.7781923936199746
 20
2518.1286887444070999
 30
0.0
 11
2063.7781923936199746
 21
2714.5875442258770818
 31
0.0
  0
INSERT
  5
199F9
  8
VISIBLE
  2
*U62
 10
0.0
 20
0.0
 30
0.0
  0
SOLID
  5
199FA
  8
DIMENSION
 62
     0
 10
2061.2781923936199746
 20
3047.2786887444040076
 30
0.0
 11
2066.2781923936199746
 21
3047.2786887444040076
 31
0.0
 12
2063.7781923936199746
 22
3062.2786887444049171
 32
0.0
 13
2063.7781923936199746
 23
3062.2786887444049171
 33
0.0
  0
SOLID
  5
199FB
  8
DIMENSION
 62
     0
 10
2061.2781923936199746
 20
2518.1286887444070999
 30
0.0
 11
2066.2781923936199746
 21
2518.1286887444070999
 31
0.0
 12
2063.7781923936199746
 22
2503.1286887444070999
 32
0.0
 13
2063.7781923936199746
 23
2503.1286887444070999
 33
0.0
  0
POINT
  5
199FC
  8
DEFPOINTS
 62
     0
 10
2214.1946549398840034
 20
3062.2786887444049171
 30
0.0
  0
POINT
  5
199FD
  8
DEFPOINTS
 62
     0
 10
2214.1946549398780917
 20
2503.1286887444070999
 30
0.0
  0
POINT
  5
199FE
  8
DEFPOINTS
 62
     0
 10
2063.7781923936199746
 20
2503.1286887444070999
 30
0.0
  0
ENDBLK
  5
199F4
  8
0
  0
BLOCK
  8
0
  2
*U62
 70
     1
 10
0.0
 20
0.0
 30
0.0
  3
*U62
  1

  0
TEXT
  5
19C17
  8
DIMENSION
 62
     0
 10
2013.3020019174300614
 20
2848.010877559211167
 30
0.0
 40
40.0
  1
559
  7
TITLE3
  0
TEXT
  5
19C18
  8
DIMENSION
 62
     0
 10
1936.1591447745720416
 20
2781.3442108925451066
 30
0.0
 40
40.0
  1
Mounting
  7
TITLE3
  0
TEXT
  5
19C19
  8
DIMENSION
 62
     0
 10
1939.9686685840958944
 20
2714.6775442258772273
 30
0.0
 40
40.0
  1
 centres
  7
TITLE3
  0
ENDBLK
  5
19C1B
  8
0
  0
BLOCK
  8
0
  2
*D63
 70
     1
 10
0.0
 20
0.0
 30
0.0
  3
*D63
  1

  0
LINE
  5
19A02
  8
DIMENSION
 62
     0
 10
2204.6490109972041864
 20
3097.7786887444040076
 30
0.0
 11
1735.9363316346780266
 21
3097.7786887444040076
 31
0.0
  0
LINE
  5
19A03
  8
DIMENSION
 62
     0
 10
2204.6490109972041864
 20
2467.1786887444059175
 30
0.0
 11
1735.9363316346780266
 21
2467.1786887444059175
 31
0.0
  0
LINE
  5
19A04
  8
DIMENSION
 62
     0
 10
1750.9363316346789361
 20
3082.7786887444049171
 30
0.0
 11
1750.9363316346789361
 21
2954.7675442258769181
 31
0.0
  0
LINE
  5
19A05
  8
DIMENSION
 62
     0
 10
1750.9363316346789361
 20
2482.178688744406827
 30
0.0
 11
1750.9363316346789361
 21
2647.9208775592101119
 31
0.0
  0
INSERT
  5
19A06
  8
VISIBLE
  2
*U64
 10
0.0
 20
0.0
 30
0.0
  0
SOLID
  5
19A07
  8
DIMENSION
 62
     0
 10
1748.4363316346780266
 20
3082.7786887444049171
 30
0.0
 11
1753.4363316346789361
 21
3082.7786887444049171
 31
0.0
 12
1750.9363316346789361
 22
3097.7786887444040076
 32
0.0
 13
1750.9363316346789361
 23
3097.7786887444040076
 33
0.0
  0
SOLID
  5
19A08
  8
DIMENSION
 62
     0
 10
1748.4363316346780266
 20
2482.178688744406827
 30
0.0
 11
1753.4363316346789361
 21
2482.178688744406827
 31
0.0
 12
1750.9363316346789361
 22
2467.1786887444059175
 32
0.0
 13
1750.9363316346789361
 23
2467.1786887444059175
 33
0.0
  0
POINT
  5
19A09
  8
DEFPOINTS
 62
     0
 10
2219.6490109972041864
 20
3097.7786887444040076
 30
0.0
  0
POINT
  5
19A0A
  8
DEFPOINTS
 62
     0
 10
2219.6490109972041864
 20
2467.1786887444059175
 30
0.0
  0
POINT
  5
19A0B
  8
DEFPOINTS
 62
     0
 10
1750.9363316346789361
 20
2467.1786887444059175
 30
0.0
  0
ENDBLK
  5
19A01
  8
0
  0
BLOCK
  8
0
  2
*U64
 70
     1
 10
0.0
 20
0.0
 30
0.0
  3
*U64
  1

  0
TEXT
  5
19C1D
  8
DIMENSION
 62
     0
 10
1701.7528538782300984
 20
2914.677544225875863
 30
0.0
 40
40.0
  1
631
  7
TITLE3
  0
TEXT
  5
19C1E
  8
DIMENSION
 62
     0
 10
1630.3242824496589947
 20
2848.010877559211167
 30
0.0
 40
40.0
  1
Optional
  7
TITLE3
  0
TEXT
  5
19C1F
  8
DIMENSION
 62
     0
 10
1657.9433300687060182
 20
2781.3442108925451066
 30
0.0
 40
40.0
  1
Spring
  7
TITLE3
  0
TEXT
  5
19C20
  8
DIMENSION
 62
     0
 10
1616.990949116325055
 20
2714.6775442258790463
 30
0.0
 40
40.0
  1
Mounting
  7
TITLE3
  0
TEXT
  5
19C21
  8
DIMENSION
 62
     0
 10
1620.8004729258479983
 20
2648.010877559211167
 30
0.0
 40
40.0
  1
 centres
  7
TITLE3
  0
ENDBLK
  5
19C23
  8
0
  0
BLOCK
  8
0
  2
*D65
 70
     1
 10
0.0
 20
0.0
 30
0.0
  3
*D65
  1

  0
LINE
  5
19A0F
  8
DIMENSION
 62
     0
 10
2205.6490109972041864
 20
3084.7786887444049171
 30
0.0
 11
2205.6490109972041864
 21
3395.7144216409019464
 31
0.0
  0
LINE
  5
19A10
  8
DIMENSION
 62
     0
 10
4227.4289453389556002
 20
2893.7286887444060994
 30
0.0
 11
4227.4289453389556002
 21
3395.7144216409019464
 31
0.0
  0
LINE
  5
19A11
  8
DIMENSION
 62
     0
 10
2220.6490109972041864
 20
3380.7144216409010369
 30
0.0
 11
3066.9251686442680693
 21
3380.7144216409010369
 31
0.0
  0
LINE
  5
19A12
  8
DIMENSION
 62
     0
 10
4212.4289453389556002
 20
3380.7144216409010369
 30
0.0
 11
3366.152787691884896
 21
3380.7144216409010369
 31
0.0
  0
INSERT
  5
19A13
  8
VISIBLE
  2
*U66
 10
0.0
 20
0.0
 30
0.0
  0
SOLID
  5
19A14
  8
DIMENSION
 62
     0
 10
2220.6490109972041864
 20
3383.2144216409010369
 30
0.0
 11
2220.6490109972041864
 21
3378.2144216409010369
 31
0.0
 12
2205.6490109972041864
 22
3380.7144216409010369
 32
0.0
 13
2205.6490109972041864
 23
3380.7144216409010369
 33
0.0
  0
SOLID
  5
19A15
  8
DIMENSION
 62
     0
 10
4212.4289453389556002
 20
3383.2144216409010369
 30
0.0
 11
4212.4289453389556002
 21
3378.2144216409010369
 31
0.0
 12
4227.4289453389556002
 22
3380.7144216409010369
 32
0.0
 13
4227.4289453389556002
 23
3380.7144216409010369
 33
0.0
  0
POINT
  5
19A16
  8
DEFPOINTS
 62
     0
 10
2205.6490109972041864
 20
3069.7786887444049171
 30
0.0
  0
POINT
  5
19A17
  8
DEFPOINTS
 62
     0
 10
4227.4289453389556002
 20
2878.7286887444060994
 30
0.0
  0
POINT
  5
19A18
  8
DEFPOINTS
 62
     0
 10
4227.4289453389556002
 20
3380.7144216409010369
 30
0.0
  0
ENDBLK
  5
19A0E
  8
0
  0
BLOCK
  8
0
  2
*U66
 70
     1
 10
0.0
 20
0.0
 30
0.0
  3
*U66
  1

  0
TEXT
  5
19C25
  8
DIMENSION
 62
     0
 10
3067.0151686442668506
 20
3367.3810883075680067
 30
0.0
 40
40.0
  1
2022 O/D
  7
TITLE3
  0
ENDBLK
  5
19C27
  8
0
  0
BLOCK
  8
0
  2
*D67
 70
     1
 10
0.0
 20
0.0
 30
0.0
  3
*D67
  1

  0
LINE
  5
19A1C
  8
DIMENSION
 62
     0
 10
2219.6490109972010032
 20
3085.7786887444049171
 30
0.0
 11
2219.6490109972010032
 21
3314.4605767489429127
 31
0.0
  0
LINE
  5
19A1D
  8
DIMENSION
 62
     0
 10
4142.2490109971931815
 20
3085.7786887444049171
 30
0.0
 11
4142.2490109971931815
 21
3314.4605767489429127
 31
0.0
  0
LINE
  5
19A1E
  8
DIMENSION
 62
     0
 10
2234.6490109972010032
 20
3299.4605767489429127
 30
0.0
 11
2884.0665720935780882
 21
3299.4605767489429127
 31
0.0
  0
LINE
  5
19A1F
  8
DIMENSION
 62
     0
 10
4127.2490109971913625
 20
3299.4605767489429127
 30
0.0
 11
3581.389429236433898
 21
3299.4605767489429127
 31
0.0
  0
INSERT
  5
19A20
  8
VISIBLE
  2
*U68
 10
0.0
 20
0.0
 30
0.0
  0
SOLID
  5
19A21
  8
DIMENSION
 62
     0
 10
2234.6490109972010032
 20
3301.9605767489429127
 30
0.0
 11
2234.6490109972010032
 21
3296.9605767489429127
 31
0.0
 12
2219.6490109972010032
 22
3299.4605767489429127
 32
0.0
 13
2219.6490109972010032
 23
3299.4605767489429127
 33
0.0
  0
SOLID
  5
19A22
  8
DIMENSION
 62
     0
 10
4127.2490109971913625
 20
3301.9605767489429127
 30
0.0
 11
4127.2490109971913625
 21
3296.9605767489429127
 31
0.0
 12
4142.2490109971931815
 22
3299.4605767489429127
 32
0.0
 13
4142.2490109971931815
 23
3299.4605767489429127
 33
0.0
  0
POINT
  5
19A23
  8
DEFPOINTS
 62
     0
 10
2219.6490109972010032
 20
3070.7786887444040076
 30
0.0
  0
POINT
  5
19A24
  8
DEFPOINTS
 62
     0
 10
4142.2490109971931815
 20
3070.7786887444040076
 30
0.0
  0
POINT
  5
19A25
  8
DEFPOINTS
 62
     0
 10
4142.2490109971931815
 20
3299.4605767489429127
 30
0.0
  0
ENDBLK
  5
19A1B
  8
0
  0
BLOCK
  8
0
  2
*U68
 70
     1
 10
0.0
 20
0.0
 30
0.0
  3
*U68
  1

  0
TEXT
  5
19C29
  8
DIMENSION
 62
     0
 10
2884.1565720935768695
 20
3286.127243415608973
 30
0.0
 40
40.0
  1
1923 Mounting centres
  7
TITLE3
  0
ENDBLK
  5
19C2B
  8
0
  0
BLOCK
  8
0
  2
*D69
 70
     1
 10
0.0
 20
0.0
 30
0.0
  3
*D69
  1

  0
LINE
  5
19A29
  8
DIMENSION
 62
     0
 10
2256.4490109971948186
 20
3110.428688744406827
 30
0.0
 11
2256.4490109971948186
 21
3232.4567318569829695
 31
0.0
  0
LINE
  5
19A2A
  8
DIMENSION
 62
     0
 10
4028.4490109971980019
 20
3110.4286887444109198
 30
0.0
 11
4028.4490109971980019
 21
3232.4567318569829695
 31
0.0
  0
LINE
  5
19A2B
  8
DIMENSION
 62
     0
 10
2271.4490109971961829
 20
3217.4567318569829695
 30
0.0
 11
2904.2637729019579638
 21
3217.4567318569829695
 31
0.0
  0
LINE
  5
19A2C
  8
DIMENSION
 62
     0
 10
4013.4490109971980019
 20
3217.4567318569829695
 30
0.0
 11
3380.6342490924339472
 21
3217.4567318569829695
 31
0.0
  0
INSERT
  5
19A2D
  8
VISIBLE
  2
*U70
 10
0.0
 20
0.0
 30
0.0
  0
SOLID
  5
19A2E
  8
DIMENSION
 62
     0
 10
2271.4490109971961829
 20
3219.956731856983879
 30
0.0
 11
2271.4490109971961829
 21
3214.9567318569829695
 31
0.0
 12
2256.4490109971948186
 22
3217.4567318569829695
 32
0.0
 13
2256.4490109971948186
 23
3217.4567318569829695
 33
0.0
  0
SOLID
  5
19A2F
  8
DIMENSION
 62
     0
 10
4013.4490109971980019
 20
3219.956731856983879
 30
0.0
 11
4013.4490109971980019
 21
3214.9567318569829695
 31
0.0
 12
4028.4490109971980019
 22
3217.4567318569829695
 32
0.0
 13
4028.4490109971980019
 23
3217.4567318569829695
 33
0.0
  0
POINT
  5
19A30
  8
DEFPOINTS
 62
     0
 10
2256.4490109971948186
 20
3095.428688744406827
 30
0.0
  0
POINT
  5
19A31
  8
DEFPOINTS
 62
     0
 10
4028.4490109971980019
 20
3095.4286887444109198
 30
0.0
  0
POINT
  5
19A32
  8
DEFPOINTS
 62
     0
 10
4028.4490109971980019
 20
3217.4567318569829695
 30
0.0
  0
ENDBLK
  5
19A28
  8
0
  0
BLOCK
  8
0
  2
*U70
 70
     1
 10
0.0
 20
0.0
 30
0.0
  3
*U70
  1

  0
TEXT
  5
19C2D
  8
DIMENSION
 62
     0
 10
2904.3537729019581093
 20
3204.1233985236490298
 30
0.0
 40
40.0
  1
1772 RA Spigot
  7
TITLE3
  0
ENDBLK
  5
19C2F
  8
0
  0
BLOCK
  8
0
  2
*D71
 70
     1
 10
0.0
 20
0.0
 30
0.0
  3
*D71
  1

  0
LINE
  5
19A36
  8
DIMENSION
 62
     0
 10
3829.8490109971990023
 20
2446.3286887444060085
 30
0.0
 11
3626.1426571612028056
 21
2446.3286887444060085
 31
0.0
  0
LINE
  5
19A37
  8
DIMENSION
 62
     0
 10
3829.8490109971990023
 20
2495.3786887444070999
 30
0.0
 11
3626.1426571612028056
 21
2495.3786887444070999
 31
0.0
  0
LINE
  5
19A38
  8
DIMENSION
 62
     0
 10
3641.1426571612028056
 20
2431.3286887444060085
 30
0.0
 11
3641.1426571612028056
 21
2416.3286887444060085
 31
0.0
  0
LINE
  5
19A39
  8
DIMENSION
 62
     0
 10
3641.1426571612028056
 20
2510.3786887444070999
 30
0.0
 11
3641.1426571612028056
 21
2525.3786887444070999
 31
0.0
  0
INSERT
  5
19A3A
  8
VISIBLE
  2
*U72
 10
0.0
 20
0.0
 30
0.0
  0
SOLID
  5
19A3B
  8
DIMENSION
 62
     0
 10
3638.6426571612028056
 20
2431.3286887444060085
 30
0.0
 11
3643.6426571612028056
 21
2431.3286887444060085
 31
0.0
 12
3641.1426571612028056
 22
2446.3286887444060085
 32
0.0
 13
3641.1426571612028056
 23
2446.3286887444060085
 33
0.0
  0
SOLID
  5
19A3C
  8
DIMENSION
 62
     0
 10
3638.6426571612028056
 20
2510.3786887444070999
 30
0.0
 11
3643.6426571612028056
 21
2510.3786887444070999
 31
0.0
 12
3641.1426571612028056
 22
2495.3786887444070999
 32
0.0
 13
3641.1426571612028056
 23
2495.3786887444070999
 33
0.0
  0
POINT
  5
19A3D
  8
DEFPOINTS
 62
     0
 10
3844.8490109971990023
 20
2446.3286887444060085
 30
0.0
  0
POINT
  5
19A3E
  8
DEFPOINTS
 62
     0
 10
3844.8490109971990023
 20
2495.3786887444070999
 30
0.0
  0
POINT
  5
19A3F
  8
DEFPOINTS
 62
     0
 10
3641.1426571612028056
 20
2495.3786887444070999
 30
0.0
  0
ENDBLK
  5
19A35
  8
0
  0
BLOCK
  8
0
  2
*U72
 70
     1
 10
0.0
 20
0.0
 30
0.0
  3
*U72
  1

  0
TEXT
  5
19C31
  8
DIMENSION
 62
     0
 10
3662.1906381823928314
 20
1996.9368926731049214
 30
0.0
 40
40.0
  1
50 SA Spigot
 50
90.0
  7
TITLE3
  0
ENDBLK
  5
19C33
  8
0
  0
BLOCK
  8
0
  2
*D73
 70
     1
 10
0.0
 20
0.0
 30
0.0
  3
*D73
  1

  0
LINE
  5
19A43
  8
DIMENSION
 62
     0
 10
4095.899010997196001
 20
2404.8786887444130116
 30
0.0
 11
4608.5693499511762639
 21
2404.8786887444130116
 31
0.0
  0
LINE
  5
19A44
  8
DIMENSION
 62
     0
 10
4043.4490109971980019
 20
3095.4286887444109198
 30
0.0
 11
4608.5693499511762639
 21
3095.4286887444109198
 31
0.0
  0
LINE
  5
19A45
  8
DIMENSION
 62
     0
 10
4593.5693499511762639
 20
2419.8786887444130116
 30
0.0
 11
4593.5693499511762639
 21
3080.4286887444109198
 31
0.0
  0
INSERT
  5
19A46
  8
VISIBLE
  2
*U74
 10
0.0
 20
0.0
 30
0.0
  0
SOLID
  5
19A47
  8
DIMENSION
 62
     0
 10
4591.0693499511762639
 20
2419.8786887444130116
 30
0.0
 11
4596.0693499511762639
 21
2419.8786887444130116
 31
0.0
 12
4593.5693499511762639
 22
2404.8786887444130116
 32
0.0
 13
4593.5693499511762639
 23
2404.8786887444130116
 33
0.0
  0
SOLID
  5
19A48
  8
DIMENSION
 62
     0
 10
4591.0693499511762639
 20
3080.4286887444109198
 30
0.0
 11
4596.0693499511762639
 21
3080.4286887444109198
 31
0.0
 12
4593.5693499511762639
 22
3095.4286887444109198
 32
0.0
 13
4593.5693499511762639
 23
3095.4286887444109198
 33
0.0
  0
POINT
  5
19A49
  8
DEFPOINTS
 62
     0
 10
4080.8990109971919082
 20
2404.8786887444130116
 30
0.0
  0
POINT
  5
19A4A
  8
DEFPOINTS
 62
     0
 10
4028.4490109971980019
 20
3095.4286887444109198
 30
0.0
  0
POINT
  5
19A4B
  8
DEFPOINTS
 62
     0
 10
4593.5693499511762639
 20
3095.4286887444109198
 30
0.0
  0
ENDBLK
  5
19A42
  8
0
  0
BLOCK
  8
0
  2
*U74
 70
     1
 10
0.0
 20
0.0
 30
0.0
  3
*U74
  1

  0
TEXT
  5
19C35
  8
DIMENSION
 62
     0
 10
4561.3046493364481648
 20
2527.5348337685200022
 30
0.0
 40
40.0
  1
691 O/D
 50
90.0
  7
TITLE3
  0
ENDBLK
  5
19C37
  8
0
  0
BLOCK
  8
0
  2
*D75
 70
     1
 10
0.0
 20
0.0
 30
0.0
  3
*D75
  1

  0
LINE
  5
19A4F
  8
DIMENSION
 62
     0
 10
4166.3990109971955462
 20
2522.1286887444080094
 30
0.0
 11
4166.3990109971955462
 21
2249.8656175267510662
 31
0.0
  0
LINE
  5
19A50
  8
DIMENSION
 62
     0
 10
4080.8990109971919082
 20
2391.8286887444060085
 30
0.0
 11
4080.8990109971919082
 21
2249.8656175267510662
 31
0.0
  0
LINE
  5
19A51
  8
DIMENSION
 62
     0
 10
4181.3990109971955462
 20
2264.8656175267510662
 30
0.0
 11
4196.3990109971955462
 21
2264.8656175267510662
 31
0.0
  0
LINE
  5
19A52
  8
DIMENSION
 62
     0
 10
4065.8990109971950915
 20
2264.8656175267510662
 30
0.0
 11
4050.899010997194182
 21
2264.8656175267510662
 31
0.0
  0
INSERT
  5
19A53
  8
VISIBLE
  2
*U76
 10
0.0
 20
0.0
 30
0.0
  0
SOLID
  5
19A54
  8
DIMENSION
 62
     0
 10
4181.3990109971955462
 20
2267.3656175267510662
 30
0.0
 11
4181.3990109971955462
 21
2262.3656175267510662
 31
0.0
 12
4166.3990109971955462
 22
2264.8656175267510662
 32
0.0
 13
4166.3990109971955462
 23
2264.8656175267510662
 33
0.0
  0
SOLID
  5
19A55
  8
DIMENSION
 62
     0
 10
4065.8990109971950915
 20
2267.3656175267510662
 30
0.0
 11
4065.8990109971950915
 21
2262.3656175267510662
 31
0.0
 12
4080.8990109971919082
 22
2264.8656175267510662
 32
0.0
 13
4080.8990109971919082
 23
2264.8656175267510662
 33
0.0
  0
POINT
  5
19A56
  8
DEFPOINTS
 62
     0
 10
4166.3990109971955462
 20
2537.1286887444070999
 30
0.0
  0
POINT
  5
19A57
  8
DEFPOINTS
 62
     0
 10
4080.8990109971919082
 20
2406.8286887444060085
 30
0.0
  0
POINT
  5
19A58
  8
DEFPOINTS
 62
     0
 10
4080.8990109971919082
 20
2264.8656175267510662
 30
0.0
  0
ENDBLK
  5
19A4E
  8
0
  0
BLOCK
  8
0
  2
*U76
 70
     1
 10
0.0
 20
0.0
 30
0.0
  3
*U76
  1

  0
TEXT
  5
19C39
  8
DIMENSION
 62
     0
 10
4210.5720948450925789
 20
2244.8656175267510662
 30
0.0
 40
40.0
  1
86
  7
TITLE3
  0
ENDBLK
  5
19C3B
  8
0
  0
BLOCK
  8
0
  2
*D77
 70
     1
 10
0.0
 20
0.0
 30
0.0
  3
*D77
  1

  0
LINE
  5
19A5C
  8
DIMENSION
 62
     0
 10
4043.4490109971980019
 20
3095.4286887444109198
 30
0.0
 11
4356.0830199914262266
 21
3095.4286887444109198
 31
0.0
  0
LINE
  5
19A5D
  8
DIMENSION
 62
     0
 10
4242.4289453389556002
 20
2877.7286887444070089
 30
0.0
 11
4356.0830199914262266
 21
2877.7286887444070089
 31
0.0
  0
LINE
  5
19A5E
  8
DIMENSION
 62
     0
 10
4341.0830199914244076
 20
3080.4286887444109198
 30
0.0
 11
4341.0830199914244076
 21
2892.7286887444070089
 31
0.0
  0
INSERT
  5
19A5F
  8
VISIBLE
  2
*U78
 10
0.0
 20
0.0
 30
0.0
  0
SOLID
  5
19A60
  8
DIMENSION
 62
     0
 10
4338.5830199914244076
 20
3080.4286887444109198
 30
0.0
 11
4343.5830199914262266
 21
3080.4286887444109198
 31
0.0
 12
4341.0830199914244076
 22
3095.4286887444109198
 32
0.0
 13
4341.0830199914244076
 23
3095.4286887444109198
 33
0.0
  0
SOLID
  5
19A61
  8
DIMENSION
 62
     0
 10
4338.5830199914244076
 20
2892.7286887444070089
 30
0.0
 11
4343.5830199914262266
 21
2892.7286887444070089
 31
0.0
 12
4341.0830199914244076
 22
2877.7286887444070089
 32
0.0
 13
4341.0830199914244076
 23
2877.7286887444070089
 33
0.0
  0
POINT
  5
19A62
  8
DEFPOINTS
 62
     0
 10
4028.4490109971980019
 20
3095.4286887444109198
 30
0.0
  0
POINT
  5
19A63
  8
DEFPOINTS
 62
     0
 10
4227.4289453389556002
 20
2877.7286887444070089
 30
0.0
  0
POINT
  5
19A64
  8
DEFPOINTS
 62
     0
 10
4341.0830199914244076
 20
2877.7286887444070089
 30
0.0
  0
ENDBLK
  5
19A5B
  8
0
  0
BLOCK
  8
0
  2
*U78
 70
     1
 10
0.0
 20
0.0
 30
0.0
  3
*U78
  1

  0
TEXT
  5
19C3D
  8
DIMENSION
 62
     0
 10
4313.463972372374883
 20
2938.9596411253619408
 30
0.0
 40
40.0
  1
218
 50
90.0
  7
TITLE3
  0
ENDBLK
  5
19C3F
  8
0
  0
BLOCK
  8
0
  2
*D79
 70
     1
 10
0.0
 20
0.0
 30
0.0
  3
*D79
  1

  0
LINE
  5
19A68
  8
DIMENSION
 62
     0
 10
4041.4990109971981838
 20
3095.4286887444059175
 30
0.0
 11
4498.2297281133278375
 21
3095.4286887444059175
 31
0.0
  0
LINE
  5
19A69
  8
DIMENSION
 62
     0
 10
4242.4490109971911806
 20
2818.2636887444000422
 30
0.0
 11
4498.2297281133278375
 21
2818.2636887444000422
 31
0.0
  0
LINE
  5
19A6A
  8
DIMENSION
 62
     0
 10
4483.2297281133278375
 20
3080.428688744405008
 30
0.0
 11
4483.2297281133278375
 21
2833.2636887444000422
 31
0.0
  0
INSERT
  5
19A6B
  8
VISIBLE
  2
*U80
 10
0.0
 20
0.0
 30
0.0
  0
SOLID
  5
19A6C
  8
DIMENSION
 62
     0
 10
4480.7297281133278375
 20
3080.428688744405008
 30
0.0
 11
4485.729728113326928
 21
3080.428688744405008
 31
0.0
 12
4483.2297281133278375
 22
3095.4286887444059175
 32
0.0
 13
4483.2297281133278375
 23
3095.4286887444059175
 33
0.0
  0
SOLID
  5
19A6D
  8
DIMENSION
 62
     0
 10
4480.7297281133278375
 20
2833.2636887444000422
 30
0.0
 11
4485.729728113326928
 21
2833.2636887444000422
 31
0.0
 12
4483.2297281133278375
 22
2818.2636887444000422
 32
0.0
 13
4483.2297281133278375
 23
2818.2636887444000422
 33
0.0
  0
POINT
  5
19A6E
  8
DEFPOINTS
 62
     0
 10
4026.4990109971981838
 20
3095.4286887444059175
 30
0.0
  0
POINT
  5
19A6F
  8
DEFPOINTS
 62
     0
 10
4227.4490109971957281
 20
2818.2636887444000422
 30
0.0
  0
POINT
  5
19A70
  8
DEFPOINTS
 62
     0
 10
4483.2297281133278375
 20
2818.2636887444000422
 30
0.0
  0
ENDBLK
  5
19A67
  8
0
  0
BLOCK
  8
0
  2
*U80
 70
     1
 10
0.0
 20
0.0
 30
0.0
  3
*U80
  1

  0
TEXT
  5
19C41
  8
DIMENSION
 62
     0
 10
4464.2207087282613429
 20
2907.4186765589711285
 30
0.0
 40
40.0
  1
277
 50
90.0
  7
TITLE3
  0
ENDBLK
  5
19C43
  8
0
  0
BLOCK
  8
0
  2
*D81
 70
     1
 10
0.0
 20
0.0
 30
0.0
  3
*D81
  1

  0
LINE
  5
19A74
  8
DIMENSION
 62
     0
 10
3909.2333879239640737
 20
3095.4286887444059175
 30
0.0
 11
3823.9009733999819218
 21
3095.4286887444059175
 31
0.0
  0
LINE
  5
19A75
  8
DIMENSION
 62
     0
 10
3900.6844169526448241
 20
3045.2286887444060994
 30
0.0
 11
3823.9009733999819218
 21
3045.2286887444060994
 31
0.0
  0
LINE
  5
19A76
  8
DIMENSION
 62
     0
 10
3838.9009733999819218
 20
3110.428688744406827
 30
0.0
 11
3838.9009733999819218
 21
3125.428688744406827
 31
0.0
  0
LINE
  5
19A77
  8
DIMENSION
 62
     0
 10
3838.9009733999819218
 20
3030.2286887444060994
 30
0.0
 11
3838.9009733999819218
 21
3015.2286887444060994
 31
0.0
  0
INSERT
  5
19A78
  8
VISIBLE
  2
*U82
 10
0.0
 20
0.0
 30
0.0
  0
SOLID
  5
19A79
  8
DIMENSION
 62
     0
 10
3836.4009733999819218
 20
3110.428688744406827
 30
0.0
 11
3841.4009733999810123
 21
3110.428688744406827
 31
0.0
 12
3838.9009733999819218
 22
3095.4286887444059175
 32
0.0
 13
3838.9009733999819218
 23
3095.4286887444059175
 33
0.0
  0
SOLID
  5
19A7A
  8
DIMENSION
 62
     0
 10
3836.4009733999819218
 20
3030.2286887444060994
 30
0.0
 11
3841.4009733999810123
 21
3030.2286887444060994
 31
0.0
 12
3838.9009733999819218
 22
3045.2286887444060994
 32
0.0
 13
3838.9009733999819218
 23
3045.2286887444060994
 33
0.0
  0
POINT
  5
19A7B
  8
DEFPOINTS
 62
     0
 10
3924.2333879239649832
 20
3095.4286887444059175
 30
0.0
  0
POINT
  5
19A7C
  8
DEFPOINTS
 62
     0
 10
3915.6844169526448241
 20
3045.2286887444060994
 30
0.0
  0
POINT
  5
19A7D
  8
DEFPOINTS
 62
     0
 10
3838.9009733999819218
 20
3045.2286887444060994
 30
0.0
  0
ENDBLK
  5
19A73
  8
0
  0
BLOCK
  8
0
  2
*U82
 70
     1
 10
0.0
 20
0.0
 30
0.0
  3
*U82
  1

  0
TEXT
  5
19C45
  8
DIMENSION
 62
     0
 10
3815.0157381413760049
 20
3119.0475414027509942
 30
0.0
 40
40.0
  1
50 RA Spigot
 50
90.0
  7
TITLE3
  0
ENDBLK
  5
19C47
  8
0
  0
BLOCK
  8
0
  2
*D83
 70
     1
 10
0.0
 20
0.0
 30
0.0
  3
*D83
  1

  0
LINE
  5
19A81
  8
DIMENSION
 62
     0
 10
2205.6490109971969105
 20
2480.6286887444070999
 30
0.0
 11
2205.6490109971969105
 21
2357.0912848599127756
 31
0.0
  0
LINE
  5
19A82
  8
DIMENSION
 62
     0
 10
2340.0490109972001846
 20
2431.3286887444060085
 30
0.0
 11
2340.0490109972001846
 21
2357.0912848599127756
 31
0.0
  0
LINE
  5
19A83
  8
DIMENSION
 62
     0
 10
2190.649010997196001
 20
2372.0912848599141398
 30
0.0
 11
2175.649010997196001
 21
2372.0912848599141398
 31
0.0
  0
LINE
  5
19A84
  8
DIMENSION
 62
     0
 10
2355.0490109972001846
 20
2372.0912848599141398
 30
0.0
 11
2370.0490109972001846
 21
2372.0912848599141398
 31
0.0
  0
INSERT
  5
19A85
  8
VISIBLE
  2
*U84
 10
0.0
 20
0.0
 30
0.0
  0
SOLID
  5
19A86
  8
DIMENSION
 62
     0
 10
2190.649010997196001
 20
2374.5912848599127756
 30
0.0
 11
2190.649010997196001
 21
2369.5912848599141398
 31
0.0
 12
2205.6490109971969105
 22
2372.0912848599141398
 32
0.0
 13
2205.6490109971969105
 23
2372.0912848599141398
 33
0.0
  0
SOLID
  5
19A87
  8
DIMENSION
 62
     0
 10
2355.0490109972001846
 20
2374.5912848599127756
 30
0.0
 11
2355.0490109972001846
 21
2369.5912848599141398
 31
0.0
 12
2340.0490109972001846
 22
2372.0912848599141398
 32
0.0
 13
2340.0490109972001846
 23
2372.0912848599141398
 33
0.0
  0
POINT
  5
19A88
  8
DEFPOINTS
 62
     0
 10
2205.6490109971969105
 20
2495.6286887444070999
 30
0.0
  0
POINT
  5
19A89
  8
DEFPOINTS
 62
     0
 10
2340.0490109972001846
 20
2446.3286887444060085
 30
0.0
  0
POINT
  5
19A8A
  8
DEFPOINTS
 62
     0
 10
2340.0490109972001846
 20
2372.0912848599141398
 30
0.0
  0
ENDBLK
  5
19A80
  8
0
  0
BLOCK
  8
0
  2
*U84
 70
     1
 10
0.0
 20
0.0
 30
0.0
  3
*U84
  1

  0
TEXT
  5
19C49
  8
DIMENSION
 62
     0
 10
2051.6975678057078767
 20
2352.0912848599141398
 30
0.0
 40
40.0
  1
134
  7
TITLE3
  0
ENDBLK
  5
19C4B
  8
0
  0
BLOCK
  8
0
  2
*D85
 70
     1
 10
0.0
 20
0.0
 30
0.0
  3
*D85
  1

  0
LINE
  5
19A8E
  8
DIMENSION
 62
     0
 10
2256.4490109971948186
 20
3110.428688744406827
 30
0.0
 11
2256.4490109971948186
 21
3163.8841974684119123
 31
0.0
  0
LINE
  5
19A8F
  8
DIMENSION
 62
     0
 10
2205.6490109972041864
 20
3084.7786887444049171
 30
0.0
 11
2205.6490109972041864
 21
3163.8841974684119123
 31
0.0
  0
LINE
  5
19A90
  8
DIMENSION
 62
     0
 10
2271.4490109971961829
 20
3148.8841974684119123
 30
0.0
 11
2286.4490109971948186
 21
3148.8841974684119123
 31
0.0
  0
LINE
  5
19A91
  8
DIMENSION
 62
     0
 10
2190.6490109972041864
 20
3148.8841974684119123
 30
0.0
 11
2175.6490109972041864
 21
3148.8841974684119123
 31
0.0
  0
INSERT
  5
19A92
  8
VISIBLE
  2
*U86
 10
0.0
 20
0.0
 30
0.0
  0
SOLID
  5
19A93
  8
DIMENSION
 62
     0
 10
2271.4490109971961829
 20
3151.3841974684119123
 30
0.0
 11
2271.4490109971961829
 21
3146.3841974684119123
 31
0.0
 12
2256.4490109971948186
 22
3148.8841974684119123
 32
0.0
 13
2256.4490109971948186
 23
3148.8841974684119123
 33
0.0
  0
SOLID
  5
19A94
  8
DIMENSION
 62
     0
 10
2190.6490109972041864
 20
3151.3841974684119123
 30
0.0
 11
2190.6490109972041864
 21
3146.3841974684119123
 31
0.0
 12
2205.6490109972041864
 22
3148.8841974684119123
 32
0.0
 13
2205.6490109972041864
 23
3148.8841974684119123
 33
0.0
  0
POINT
  5
19A95
  8
DEFPOINTS
 62
     0
 10
2256.4490109971948186
 20
3095.428688744406827
 30
0.0
  0
POINT
  5
19A96
  8
DEFPOINTS
 62
     0
 10
2205.6490109972041864
 20
3069.7786887444049171
 30
0.0
  0
POINT
  5
19A97
  8
DEFPOINTS
 62
     0
 10
2205.6490109972041864
 20
3148.8841974684119123
 30
0.0
  0
ENDBLK
  5
19A8D
  8
0
  0
BLOCK
  8
0
  2
*U86
 70
     1
 10
0.0
 20
0.0
 30
0.0
  3
*U86
  1

  0
TEXT
  5
19C4D
  8
DIMENSION
 62
     0
 10
2334.3737782800608329
 20
3128.8841974684119123
 30
0.0
 40
40.0
  1
51
  7
TITLE3
  0
ENDBLK
  5
19C4F
  8
0
  0
BLOCK
  8
0
  2
*U87
 70
     1
 10
0.0
 20
0.0
 30
0.0
  3
*U87
  1

  0
TEXT
  5
19BE3
  8
VISIBLE
 10
4693.3424265823496171
 20
2923.8872507798027982
 30
0.0
 40
40.0
  1
750
  7
TITLE3
  0
TEXT
  5
19BE4
  8
VISIBLE
 10
4604.7694265823502064
 20
2857.2205841131358284
 30
0.0
 40
40.0
  1
Clearance
  7
TITLE3
  0
ENDBLK
  5
19BE6
  8
0
  0
BLOCK
  8
0
  2
*D88
 70
     1
 10
0.0
 20
0.0
 30
0.0
  3
*D88
  1

  0
LINE
  5
19DB6
  8
DIMENSION
 62
     0
 10
4095.8990109971909988
 20
2404.8786887444130116
 30
0.0
 11
4608.5693499511762639
 21
2404.8786887444130116
 31
0.0
  0
LINE
  5
19DB7
  8
DIMENSION
 62
     0
 10
4043.4490109971980019
 20
3095.4286887444109198
 30
0.0
 11
4608.5693499511762639
 21
3095.4286887444109198
 31
0.0
  0
LINE
  5
19DB8
  8
DIMENSION
 62
     0
 10
4593.5693499511762639
 20
2419.8786887444130116
 30
0.0
 11
4593.5693499511762639
 21
3080.4286887444109198
 31
0.0
  0
INSERT
  5
19DB9
  8
VISIBLE
  2
*U89
 10
0.0
 20
0.0
 30
0.0
  0
SOLID
  5
19DBA
  8
DIMENSION
 62
     0
 10
4591.0693499511762639
 20
2419.8786887444130116
 30
0.0
 11
4596.0693499511762639
 21
2419.8786887444130116
 31
0.0
 12
4593.5693499511762639
 22
2404.8786887444130116
 32
0.0
 13
4593.5693499511762639
 23
2404.8786887444130116
 33
0.0
  0
SOLID
  5
19DBB
  8
DIMENSION
 62
     0
 10
4591.0693499511762639
 20
3080.4286887444109198
 30
0.0
 11
4596.0693499511762639
 21
3080.4286887444109198
 31
0.0
 12
4593.5693499511762639
 22
3095.4286887444109198
 32
0.0
 13
4593.5693499511762639
 23
3095.4286887444109198
 33
0.0
  0
POINT
  5
19DBC
  8
DEFPOINTS
 62
     0
 10
4080.8990109971919082
 20
2404.8786887444130116
 30
0.0
  0
POINT
  5
19DBD
  8
DEFPOINTS
 62
     0
 10
4028.4490109971980019
 20
3095.4286887444109198
 30
0.0
  0
POINT
  5
19DBE
  8
DEFPOINTS
 62
     0
 10
4593.5693499511762639
 20
3095.4286887444109198
 30
0.0
  0
ENDBLK
  5
19DA3
  8
0
  0
BLOCK
  8
0
  2
*U89
 70
     1
 10
0.0
 20
0.0
 30
0.0
  3
*U89
  1

  0
TEXT
  5
19E92
  8
DIMENSION
 62
     0
 10
4561.3046493364481648
 20
2523.7253099589961494
 30
0.0
 40
40.0
  1
698 O/D
 50
90.0
  7
TITLE3
  0
ENDBLK
  5
19E94
  8
0
  0
BLOCK
  8
0
  2
*D90
 70
     1
 10
0.0
 20
0.0
 30
0.0
  3
*D90
  1

  0
LINE
  5
1A0A0
  8
DIMENSION
 62
     0
 10
5338.991316354373339
 20
1461.4416732623290045
 30
0.0
 11
5697.1743254214643457
 21
1461.4416732623290045
 31
0.0
  0
LINE
  5
1A0A1
  8
DIMENSION
 62
     0
 10
5312.6913163545059433
 20
1029.4916732623219104
 30
0.0
 11
5697.1743254214643457
 21
1029.4916732623219104
 31
0.0
  0
LINE
  5
1A0A2
  8
DIMENSION
 62
     0
 10
5682.1743254214643457
 20
1446.4416732623290045
 30
0.0
 11
5682.1743254214643457
 21
1044.4916732623219104
 31
0.0
  0
INSERT
  5
1A0A3
  8
VISIBLE
  2
*U91
 10
0.0
 20
0.0
 30
0.0
  0
SOLID
  5
1A0A4
  8
DIMENSION
 62
     0
 10
5679.6743254214661647
 20
1446.4416732623290045
 30
0.0
 11
5684.6743254214652552
 21
1446.4416732623290045
 31
0.0
 12
5682.1743254214643457
 22
1461.4416732623290045
 32
0.0
 13
5682.1743254214643457
 23
1461.4416732623290045
 33
0.0
  0
SOLID
  5
1A0A5
  8
DIMENSION
 62
     0
 10
5679.6743254214661647
 20
1044.4916732623219104
 30
0.0
 11
5684.6743254214652552
 21
1044.4916732623219104
 31
0.0
 12
5682.1743254214643457
 22
1029.4916732623219104
 32
0.0
 13
5682.1743254214643457
 23
1029.4916732623219104
 33
0.0
  0
POINT
  5
1A0A6
  8
DEFPOINTS
 62
     0
 10
5323.991316354373339
 20
1461.4416732623290045
 30
0.0
  0
POINT
  5
1A0A7
  8
DEFPOINTS
 62
     0
 10
5297.6913163545059433
 20
1029.4916732623219104
 30
0.0
  0
POINT
  5
1A0A8
  8
DEFPOINTS
 62
     0
 10
5682.1743254214643457
 20
1029.4916732623219104
 30
0.0
  0
ENDBLK
  5
19FFD
  8
0
  0
BLOCK
  8
0
  2
*U91
 70
     1
 10
0.0
 20
0.0
 30
0.0
  3
*U91
  1

  0
TEXT
  5
1A3A4
  8
DIMENSION
 62
     0
 10
5765.2386823825227111
 20
1114.9904827861339527
 30
0.0
 40
40.0
  1
432 O/D
 50
90.0
  7
TITLE3
  0
ENDBLK
  5
1A3A6
  8
0
  0
BLOCK
  8
0
  2
*D92
 70
     1
 10
0.0
 20
0.0
 30
0.0
  3
*D92
  1

  0
LINE
  5
1A0C3
  8
DIMENSION
 62
     0
 10
4103.9638004271109821
 20
1016.4416732621849633
 30
0.0
 11
4103.9638004271109821
 21
907.6980198128392203
 31
0.0
  0
LINE
  5
1A0C4
  8
DIMENSION
 62
     0
 10
4179.0138004271084355
 20
1072.9921732622728996
 30
0.0
 11
4179.0138004271084355
 21
907.6980198128392203
 31
0.0
  0
LINE
  5
1A0C5
  8
DIMENSION
 62
     0
 10
4088.9638004271109821
 20
922.6980198128392203
 30
0.0
 11
4073.9638004271109821
 21
922.6980198128392203
 31
0.0
  0
LINE
  5
1A0C6
  8
DIMENSION
 62
     0
 10
4194.0138004271047976
 20
922.6980198128392203
 30
0.0
 11
4209.0138004271066166
 21
922.6980198128392203
 31
0.0
  0
INSERT
  5
1A0C7
  8
VISIBLE
  2
*U93
 10
0.0
 20
0.0
 30
0.0
  0
SOLID
  5
1A0C8
  8
DIMENSION
 62
     0
 10
4088.9638004271109821
 20
925.1980198128391066
 30
0.0
 11
4088.9638004271109821
 21
920.1980198128392203
 31
0.0
 12
4103.9638004271109821
 22
922.6980198128392203
 32
0.0
 13
4103.9638004271109821
 23
922.6980198128392203
 33
0.0
  0
SOLID
  5
1A0C9
  8
DIMENSION
 62
     0
 10
4194.0138004271047976
 20
925.1980198128391066
 30
0.0
 11
4194.0138004271047976
 21
920.1980198128392203
 31
0.0
 12
4179.0138004271084355
 22
922.6980198128392203
 32
0.0
 13
4179.0138004271084355
 23
922.6980198128392203
 33
0.0
  0
POINT
  5
1A0CA
  8
DEFPOINTS
 62
     0
 10
4103.9638004271109821
 20
1031.441673262185077
 30
0.0
  0
POINT
  5
1A0CB
  8
DEFPOINTS
 62
     0
 10
4179.0138004271084355
 20
1087.9921732622728996
 30
0.0
  0
POINT
  5
1A0CC
  8
DEFPOINTS
 62
     0
 10
4179.0138004271084355
 20
922.6980198128392203
 30
0.0
  0
ENDBLK
  5
1A009
  8
0
  0
BLOCK
  8
0
  2
*U93
 70
     1
 10
0.0
 20
0.0
 30
0.0
  3
*U93
  1

  0
TEXT
  5
1A3A8
  8
DIMENSION
 62
     0
 10
4234.3260316564674213
 20
902.6980198128391066
 30
0.0
 40
40.0
  1
75
  7
TITLE3
  0
ENDBLK
  5
1A3AA
  8
0
  0
BLOCK
  8
0
  2
*D94
 70
     1
 10
0.0
 20
0.0
 30
0.0
  3
*D94
  1

  0
LINE
  5
1A0CD
  8
DIMENSION
 62
     0
 10
4103.9638004271109821
 20
1016.4416732621849633
 30
0.0
 11
4103.9638004271109821
 21
907.6980198128392203
 31
0.0
  0
LINE
  5
1A0CE
  8
DIMENSION
 62
     0
 10
3796.4138004271108002
 20
1048.390531881942934
 30
0.0
 11
3796.4138004271108002
 21
907.6980198128392203
 31
0.0
  0
LINE
  5
1A0CF
  8
DIMENSION
 62
     0
 10
4088.9638004271109821
 20
922.6980198128392203
 30
0.0
 11
4001.7073718556789572
 21
922.6980198128392203
 31
0.0
  0
LINE
  5
1A0D0
  8
DIMENSION
 62
     0
 10
3811.4138004271108002
 20
922.6980198128392203
 30
0.0
 11
3898.6702289985360039
 21
922.6980198128392203
 31
0.0
  0
INSERT
  5
1A0D1
  8
VISIBLE
  2
*U95
 10
0.0
 20
0.0
 30
0.0
  0
SOLID
  5
1A0D2
  8
DIMENSION
 62
     0
 10
4088.9638004271109821
 20
925.1980198128391066
 30
0.0
 11
4088.9638004271109821
 21
920.1980198128392203
 31
0.0
 12
4103.9638004271109821
 22
922.6980198128392203
 32
0.0
 13
4103.9638004271109821
 23
922.6980198128392203
 33
0.0
  0
SOLID
  5
1A0D3
  8
DIMENSION
 62
     0
 10
3811.4138004271108002
 20
925.1980198128391066
 30
0.0
 11
3811.4138004271108002
 21
920.1980198128392203
 31
0.0
 12
3796.4138004271108002
 22
922.6980198128392203
 32
0.0
 13
3796.4138004271108002
 23
922.6980198128392203
 33
0.0
  0
POINT
  5
1A0D4
  8
DEFPOINTS
 62
     0
 10
4103.9638004271109821
 20
1031.441673262185077
 30
0.0
  0
POINT
  5
1A0D5
  8
DEFPOINTS
 62
     0
 10
3796.4138004271108002
 20
1063.3905318819420245
 30
0.0
  0
POINT
  5
1A0D6
  8
DEFPOINTS
 62
     0
 10
3796.4138004271108002
 20
922.6980198128392203
 30
0.0
  0
ENDBLK
  5
1A016
  8
0
  0
BLOCK
  8
0
  2
*U95
 70
     1
 10
0.0
 20
0.0
 30
0.0
  3
*U95
  1

  0
TEXT
  5
1A3AC
  8
DIMENSION
 62
     0
 10
3898.7602289985361494
 20
902.6980198128391066
 30
0.0
 40
40.0
  1
308
  7
TITLE3
  0
ENDBLK
  5
1A3AE
  8
0
  0
BLOCK
  8
0
  2
*D96
 70
     1
 10
0.0
 20
0.0
 30
0.0
  3
*D96
  1

  0
LINE
  5
1A0D7
  8
DIMENSION
 62
     0
 10
2291.6138004271560931
 20
1049.3405318817031002
 30
0.0
 11
2291.6138004271560931
 21
907.6980198128392203
 31
0.0
  0
LINE
  5
1A0D8
  8
DIMENSION
 62
     0
 10
3796.4138004271108002
 20
1048.390531881942934
 30
0.0
 11
3796.4138004271108002
 21
907.6980198128392203
 31
0.0
  0
LINE
  5
1A0D9
  8
DIMENSION
 62
     0
 10
2306.6138004271560931
 20
922.6980198128392203
 30
0.0
 11
2806.7809432843009745
 21
922.6980198128392203
 31
0.0
  0
LINE
  5
1A0DA
  8
DIMENSION
 62
     0
 10
3781.4138004271121645
 20
922.6980198128392203
 30
0.0
 11
3281.2466575700150315
 21
922.6980198128392203
 31
0.0
  0
INSERT
  5
1A0DB
  8
VISIBLE
  2
*U97
 10
0.0
 20
0.0
 30
0.0
  0
SOLID
  5
1A0DC
  8
DIMENSION
 62
     0
 10
2306.6138004271560931
 20
925.1980198128391066
 30
0.0
 11
2306.6138004271560931
 21
920.1980198128392203
 31
0.0
 12
2291.6138004271560931
 22
922.6980198128392203
 32
0.0
 13
2291.6138004271560931
 23
922.6980198128392203
 33
0.0
  0
SOLID
  5
1A0DD
  8
DIMENSION
 62
     0
 10
3781.4138004271121645
 20
925.1980198128391066
 30
0.0
 11
3781.4138004271121645
 21
920.1980198128392203
 31
0.0
 12
3796.4138004271108002
 22
922.6980198128392203
 32
0.0
 13
3796.4138004271108002
 23
922.6980198128392203
 33
0.0
  0
POINT
  5
1A0DE
  8
DEFPOINTS
 62
     0
 10
2291.6138004271560931
 20
1064.3405318817040097
 30
0.0
  0
POINT
  5
1A0DF
  8
DEFPOINTS
 62
     0
 10
3796.4138004271108002
 20
1063.3905318819420245
 30
0.0
  0
POINT
  5
1A0E0
  8
DEFPOINTS
 62
     0
 10
3796.4138004271108002
 20
922.6980198128392203
 30
0.0
  0
ENDBLK
  5
1A023
  8
0
  0
BLOCK
  8
0
  2
*U97
 70
     1
 10
0.0
 20
0.0
 30
0.0
  3
*U97
  1

  0
TEXT
  5
1A3B0
  8
DIMENSION
 62
     0
 10
2806.87094328430112
 20
909.3646864795058491
 30
0.0
 40
40.0
  1
1505 SA Spigot
  7
TITLE3
  0
ENDBLK
  5
1A3B2
  8
0
  0
BLOCK
  8
0
  2
*D98
 70
     1
 10
0.0
 20
0.0
 30
0.0
  3
*D98
  1

  0
LINE
  5
1A0E1
  8
DIMENSION
 62
     0
 10
2276.6138004271151658
 20
1061.4405318822070967
 30
0.0
 11
1994.2369959874349661
 21
1061.4405318822070967
 31
0.0
  0
LINE
  5
1A0E2
  8
DIMENSION
 62
     0
 10
2278.5638004271158934
 20
1314.3905318817180614
 30
0.0
 11
1994.2369959874349661
 21
1314.3905318817180614
 31
0.0
  0
LINE
  5
1A0E3
  8
DIMENSION
 62
     0
 10
2009.236995987436103
 20
1076.4405318822070967
 30
0.0
 11
2009.236995987436103
 21
1096.0566196083470913
 31
0.0
  0
LINE
  5
1A0E4
  8
DIMENSION
 62
     0
 10
2009.236995987436103
 20
1299.3905318817180614
 30
0.0
 11
2009.236995987436103
 21
1282.9032862750138975
 31
0.0
  0
INSERT
  5
1A0E5
  8
VISIBLE
  2
*U99
 10
0.0
 20
0.0
 30
0.0
  0
SOLID
  5
1A0E6
  8
DIMENSION
 62
     0
 10
2006.7369959874349661
 20
1076.4405318822070967
 30
0.0
 11
2011.7369959874349661
 21
1076.4405318822070967
 31
0.0
 12
2009.236995987436103
 22
1061.4405318822070967
 32
0.0
 13
2009.236995987436103
 23
1061.4405318822070967
 33
0.0
  0
SOLID
  5
1A0E7
  8
DIMENSION
 62
     0
 10
2006.7369959874349661
 20
1299.3905318817180614
 30
0.0
 11
2011.7369959874349661
 21
1299.3905318817180614
 31
0.0
 12
2009.236995987436103
 22
1314.3905318817180614
 32
0.0
 13
2009.236995987436103
 23
1314.3905318817180614
 33
0.0
  0
POINT
  5
1A0E8
  8
DEFPOINTS
 62
     0
 10
2291.6138004271160753
 20
1061.4405318822070967
 30
0.0
  0
POINT
  5
1A0E9
  8
DEFPOINTS
 62
     0
 10
2293.5638004271168029
 20
1314.3905318817180614
 30
0.0
  0
POINT
  5
1A0EA
  8
DEFPOINTS
 62
     0
 10
2009.236995987436103
 20
1314.3905318817180614
 30
0.0
  0
ENDBLK
  5
1A030
  8
0
  0
BLOCK
  8
0
  2
*U99
 70
     1
 10
0.0
 20
0.0
 30
0.0
  3
*U99
  1

  0
TEXT
  5
1A3B4
  8
DIMENSION
 62
     0
 10
1957.8084245588620433
 20
1242.813286275011933
 30
0.0
 40
40.0
  1
253
  7
TITLE3
  0
TEXT
  5
1A3B5
  8
DIMENSION
 62
     0
 10
1974.9512817017189263
 20
1176.1466196083461
 30
0.0
 40
40.0
  1
SA
  7
TITLE3
  0
TEXT
  5
1A3B6
  8
DIMENSION
 62
     0
 10
1902.5703293207650404
 20
1109.4799529416789028
 30
0.0
 40
40.0
  1
 Spigot
  7
TITLE3
  0
ENDBLK
  5
1A3B8
  8
0
  0
BLOCK
  8
0
  2
*D100
 70
     1
 10
0.0
 20
0.0
 30
0.0
  3
*D100
  1

  0
LINE
  5
1A0EB
  8
DIMENSION
 62
     0
 10
5364.6413163544566487
 20
1073.3416732623400094
 30
0.0
 11
5448.0954986291753812
 21
1073.3416732623400094
 31
0.0
  0
LINE
  5
1A0EC
  8
DIMENSION
 62
     0
 10
5364.6413163543438714
 20
1438.491673262338054
 30
0.0
 11
5448.0954986291753812
 21
1438.491673262338054
 31
0.0
  0
LINE
  5
1A0ED
  8
DIMENSION
 62
     0
 10
5433.0954986291753812
 20
1088.3416732623400094
 30
0.0
 11
5433.0954986291753812
 21
1423.491673262338054
 31
0.0
  0
INSERT
  5
1A0EE
  8
VISIBLE
  2
*U101
 10
0.0
 20
0.0
 30
0.0
  0
SOLID
  5
1A0EF
  8
DIMENSION
 62
     0
 10
5430.5954986291726527
 20
1088.3416732623400094
 30
0.0
 11
5435.5954986291762907
 21
1088.3416732623400094
 31
0.0
 12
5433.0954986291753812
 22
1073.3416732623400094
 32
0.0
 13
5433.0954986291753812
 23
1073.3416732623400094
 33
0.0
  0
SOLID
  5
1A0F0
  8
DIMENSION
 62
     0
 10
5430.5954986291726527
 20
1423.491673262338054
 30
0.0
 11
5435.5954986291762907
 21
1423.491673262338054
 31
0.0
 12
5433.0954986291753812
 22
1438.491673262338054
 32
0.0
 13
5433.0954986291753812
 23
1438.491673262338054
 33
0.0
  0
POINT
  5
1A0F1
  8
DEFPOINTS
 62
     0
 10
5349.6413163544566487
 20
1073.3416732623400094
 30
0.0
  0
POINT
  5
1A0F2
  8
DEFPOINTS
 62
     0
 10
5349.6413163543429619
 20
1438.491673262338054
 30
0.0
  0
POINT
  5
1A0F3
  8
DEFPOINTS
 62
     0
 10
5433.0954986291753812
 20
1438.491673262338054
 30
0.0
  0
ENDBLK
  5
1A03D
  8
0
  0
BLOCK
  8
0
  2
*U101
 70
     1
 10
0.0
 20
0.0
 30
0.0
  3
*U101
  1

  0
TEXT
  5
1A3BA
  8
DIMENSION
 62
     0
 10
5493.6028847481766206
 20
1194.038101833753899
 30
0.0
 40
40.0
  1
365
 50
90.0
  7
TITLE3
  0
TEXT
  5
1A3BB
  8
DIMENSION
 62
     0
 10
5560.2695514148435905
 20
1079.7523875480389961
 30
0.0
 40
40.0
  1
 RA Spigot
 50
90.0
  7
TITLE3
  0
ENDBLK
  5
1A3BD
  8
0
  0
BLOCK
  8
0
  2
*D102
 70
     1
 10
0.0
 20
0.0
 30
0.0
  3
*D102
  1

  0
LINE
  5
1A11B
  8
DIMENSION
 62
     0
 10
4761.1413163545048519
 20
1029.4916732621679785
 30
0.0
 11
4609.473522771446369
 21
1029.4916732621679785
 31
0.0
  0
LINE
  5
1A11C
  8
DIMENSION
 62
     0
 10
4685.5413163543998962
 20
1061.440531881923107
 30
0.0
 11
4609.473522771446369
 21
1061.440531881923107
 31
0.0
  0
LINE
  5
1A11D
  8
DIMENSION
 62
     0
 10
4624.4735227714472785
 20
1014.4916732621679785
 30
0.0
 11
4624.4735227714472785
 21
999.4916732621677511
 31
0.0
  0
LINE
  5
1A11E
  8
DIMENSION
 62
     0
 10
4624.4735227714472785
 20
1076.4405318819240165
 30
0.0
 11
4624.4735227714472785
 21
1091.4405318819240165
 31
0.0
  0
INSERT
  5
1A11F
  8
VISIBLE
  2
*U103
 10
0.0
 20
0.0
 30
0.0
  0
SOLID
  5
1A120
  8
DIMENSION
 62
     0
 10
4621.9735227714472785
 20
1014.4916732621679785
 30
0.0
 11
4626.9735227714472785
 21
1014.4916732621679785
 31
0.0
 12
4624.4735227714472785
 22
1029.4916732621679785
 32
0.0
 13
4624.4735227714472785
 23
1029.4916732621679785
 33
0.0
  0
SOLID
  5
1A121
  8
DIMENSION
 62
     0
 10
4621.9735227714472785
 20
1076.4405318819240165
 30
0.0
 11
4626.9735227714472785
 21
1076.4405318819240165
 31
0.0
 12
4624.4735227714472785
 22
1061.440531881923107
 32
0.0
 13
4624.4735227714472785
 23
1061.440531881923107
 33
0.0
  0
POINT
  5
1A122
  8
DEFPOINTS
 62
     0
 10
4776.1413163545048519
 20
1029.4916732621679785
 30
0.0
  0
POINT
  5
1A123
  8
DEFPOINTS
 62
     0
 10
4700.5413163543998962
 20
1061.440531881923107
 30
0.0
  0
POINT
  5
1A124
  8
DEFPOINTS
 62
     0
 10
4624.4735227714472785
 20
1061.440531881923107
 30
0.0
  0
ENDBLK
  5
1A049
  8
0
  0
BLOCK
  8
0
  2
*U103
 70
     1
 10
0.0
 20
0.0
 30
0.0
  3
*U103
  1

  0
TEXT
  5
1A3BF
  8
DIMENSION
 62
     0
 10
4642.9499713850609623
 20
925.7920858802941666
 30
0.0
 40
40.0
  1
32
 50
90.0
  7
TITLE3
  0
ENDBLK
  5
1A3C1
  8
0
  0
BLOCK
  8
0
  2
*D104
 70
     1
 10
0.0
 20
0.0
 30
0.0
  3
*D104
  1

  0
LINE
  5
1A125
  8
DIMENSION
 62
     0
 10
5312.6913163545059433
 20
1029.4916732623219104
 30
0.0
 11
5448.0954986291753812
 21
1029.4916732623219104
 31
0.0
  0
LINE
  5
1A126
  8
DIMENSION
 62
     0
 10
5364.6413163544566487
 20
1073.3416732623400094
 30
0.0
 11
5448.0954986291753812
 21
1073.3416732623400094
 31
0.0
  0
LINE
  5
1A127
  8
DIMENSION
 62
     0
 10
5433.0954986291753812
 20
1014.4916732623210009
 30
0.0
 11
5433.0954986291753812
 21
999.4916732623217968
 31
0.0
  0
LINE
  5
1A128
  8
DIMENSION
 62
     0
 10
5433.0954986291753812
 20
1088.3416732623400094
 30
0.0
 11
5433.0954986291753812
 21
1103.3416732623400094
 31
0.0
  0
INSERT
  5
1A129
  8
VISIBLE
  2
*U105
 10
0.0
 20
0.0
 30
0.0
  0
SOLID
  5
1A12A
  8
DIMENSION
 62
     0
 10
5430.5954986291726527
 20
1014.4916732623210009
 30
0.0
 11
5435.5954986291762907
 21
1014.4916732623210009
 31
0.0
 12
5433.0954986291753812
 22
1029.4916732623219104
 32
0.0
 13
5433.0954986291753812
 23
1029.4916732623219104
 33
0.0
  0
SOLID
  5
1A12B
  8
DIMENSION
 62
     0
 10
5430.5954986291726527
 20
1088.3416732623400094
 30
0.0
 11
5435.5954986291762907
 21
1088.3416732623400094
 31
0.0
 12
5433.0954986291753812
 22
1073.3416732623400094
 32
0.0
 13
5433.0954986291753812
 23
1073.3416732623400094
 33
0.0
  0
POINT
  5
1A12C
  8
DEFPOINTS
 62
     0
 10
5297.6913163545059433
 20
1029.4916732623219104
 30
0.0
  0
POINT
  5
1A12D
  8
DEFPOINTS
 62
     0
 10
5349.6413163544566487
 20
1073.3416732623400094
 30
0.0
  0
POINT
  5
1A12E
  8
DEFPOINTS
 62
     0
 10
5433.0954986291753812
 20
1073.3416732623400094
 30
0.0
  0
ENDBLK
  5
1A056
  8
0
  0
BLOCK
  8
0
  2
*U105
 70
     1
 10
0.0
 20
0.0
 30
0.0
  3
*U105
  1

  0
TEXT
  5
1A3C3
  8
DIMENSION
 62
     0
 10
5454.6354333745075564
 20
929.8515782959591434
 30
0.0
 40
40.0
  1
44
 50
90.0
  7
TITLE3
  0
ENDBLK
  5
1A3C5
  8
0
  0
BLOCK
  8
0
  2
*D106
 70
     1
 10
0.0
 20
0.0
 30
0.0
  3
*D106
  1

  0
LINE
  5
1A12F
  8
DIMENSION
 62
     0
 10
4133.0638004271249883
 20
1031.661511032486942
 30
0.0
 11
4133.0638004271249883
 21
970.5685695989441228
 31
0.0
  0
LINE
  5
1A130
  8
DIMENSION
 62
     0
 10
4103.9638004271109821
 20
1016.4416732621849633
 30
0.0
 11
4103.9638004271109821
 21
970.5685695989441228
 31
0.0
  0
LINE
  5
1A131
  8
DIMENSION
 62
     0
 10
4148.0638004271249883
 20
985.5685695989443502
 30
0.0
 11
4163.0638004271231694
 21
985.5685695989443502
 31
0.0
  0
LINE
  5
1A132
  8
DIMENSION
 62
     0
 10
4088.9638004271109821
 20
985.5685695989443502
 30
0.0
 11
4073.9638004271109821
 21
985.5685695989443502
 31
0.0
  0
INSERT
  5
1A133
  8
VISIBLE
  2
*U107
 10
0.0
 20
0.0
 30
0.0
  0
SOLID
  5
1A134
  8
DIMENSION
 62
     0
 10
4148.0638004271249883
 20
988.0685695989440092
 30
0.0
 11
4148.0638004271249883
 21
983.0685695989441228
 31
0.0
 12
4133.0638004271249883
 22
985.5685695989443502
 32
0.0
 13
4133.0638004271249883
 23
985.5685695989443502
 33
0.0
  0
SOLID
  5
1A135
  8
DIMENSION
 62
     0
 10
4088.9638004271109821
 20
988.0685695989440092
 30
0.0
 11
4088.9638004271109821
 21
983.0685695989441228
 31
0.0
 12
4103.9638004271109821
 22
985.5685695989443502
 32
0.0
 13
4103.9638004271109821
 23
985.5685695989443502
 33
0.0
  0
POINT
  5
1A136
  8
DEFPOINTS
 62
     0
 10
4133.0638004271249883
 20
1046.6615110324860325
 30
0.0
  0
POINT
  5
1A137
  8
DEFPOINTS
 62
     0
 10
4103.9638004271109821
 20
1031.441673262185077
 30
0.0
  0
POINT
  5
1A138
  8
DEFPOINTS
 62
     0
 10
4103.9638004271109821
 20
985.5685695989443502
 30
0.0
  0
ENDBLK
  5
1A063
  8
0
  0
BLOCK
  8
0
  2
*U107
 70
     1
 10
0.0
 20
0.0
 30
0.0
  3
*U107
  1

  0
TEXT
  5
1A3C7
  8
DIMENSION
 62
     0
 10
3989.5786587267079994
 20
965.6596788795052362
 30
0.0
 40
40.0
  1
29
  7
TITLE3
  0
ENDBLK
  5
1A3C9
  8
0
  0
BLOCK
  8
0
  2
*D108
 70
     1
 10
0.0
 20
0.0
 30
0.0
  3
*D108
  1

  0
LINE
  5
1A139
  8
DIMENSION
 62
     0
 10
4646.0413163543671544
 20
1396.0916732621419669
 30
0.0
 11
4609.473522771446369
 21
1396.0916732621419669
 31
0.0
  0
LINE
  5
1A13A
  8
DIMENSION
 62
     0
 10
4728.8413163538034496
 20
1461.44167326215711
 30
0.0
 11
4609.473522771446369
 21
1461.44167326215711
 31
0.0
  0
LINE
  5
1A13B
  8
DIMENSION
 62
     0
 10
4624.4735227714472785
 20
1411.0916732621419669
 30
0.0
 11
4624.4735227714472785
 21
1446.44167326215711
 31
0.0
  0
INSERT
  5
1A13C
  8
VISIBLE
  2
*U109
 10
0.0
 20
0.0
 30
0.0
  0
SOLID
  5
1A13D
  8
DIMENSION
 62
     0
 10
4621.9735227714472785
 20
1411.0916732621419669
 30
0.0
 11
4626.9735227714472785
 21
1411.0916732621419669
 31
0.0
 12
4624.4735227714472785
 22
1396.0916732621419669
 32
0.0
 13
4624.4735227714472785
 23
1396.0916732621419669
 33
0.0
  0
SOLID
  5
1A13E
  8
DIMENSION
 62
     0
 10
4621.9735227714472785
 20
1446.44167326215711
 30
0.0
 11
4626.9735227714472785
 21
1446.44167326215711
 31
0.0
 12
4624.4735227714472785
 22
1461.44167326215711
 32
0.0
 13
4624.4735227714472785
 23
1461.44167326215711
 33
0.0
  0
POINT
  5
1A13F
  8
DEFPOINTS
 62
     0
 10
4661.0413163543680639
 20
1396.0916732621419669
 30
0.0
  0
POINT
  5
1A140
  8
DEFPOINTS
 62
     0
 10
4743.8413163538043591
 20
1461.44167326215711
 30
0.0
  0
POINT
  5
1A141
  8
DEFPOINTS
 62
     0
 10
4624.4735227714472785
 20
1461.44167326215711
 30
0.0
  0
ENDBLK
  5
1A070
  8
0
  0
BLOCK
  8
0
  2
*U109
 70
     1
 10
0.0
 20
0.0
 30
0.0
  3
*U109
  1

  0
TEXT
  5
1A3CB
  8
DIMENSION
 62
     0
 10
4586.8933166641090793
 20
1402.1764990664980814
 30
0.0
 40
40.0
  1
65
 50
90.0
  7
TITLE3
  0
ENDBLK
  5
1A3CD
  8
0
  0
BLOCK
  8
0
  2
*D110
 70
     1
 10
0.0
 20
0.0
 30
0.0
  3
*D110
  1

  0
LINE
  5
1A181
  8
DIMENSION
 62
     0
 10
4194.013800427109345
 20
1105.4921732622740365
 30
0.0
 11
4275.9041256975797296
 21
1105.4921732622740365
 31
0.0
  0
LINE
  5
1A182
  8
DIMENSION
 62
     0
 10
4117.013800427111164
 20
1029.4916732621870779
 30
0.0
 11
4275.9041256975797296
 21
1029.4916732621870779
 31
0.0
  0
LINE
  5
1A183
  8
DIMENSION
 62
     0
 10
4260.9041256975806391
 20
1120.4921732622740365
 30
0.0
 11
4260.9041256975806391
 21
1135.4921732622740365
 31
0.0
  0
LINE
  5
1A184
  8
DIMENSION
 62
     0
 10
4260.9041256975806391
 20
1014.4916732621869642
 30
0.0
 11
4260.9041256975806391
 21
999.4916732621868505
 31
0.0
  0
INSERT
  5
1A185
  8
VISIBLE
  2
*U111
 10
0.0
 20
0.0
 30
0.0
  0
SOLID
  5
1A186
  8
DIMENSION
 62
     0
 10
4258.4041256975779106
 20
1120.4921732622740365
 30
0.0
 11
4263.4041256975779106
 21
1120.4921732622740365
 31
0.0
 12
4260.9041256975806391
 22
1105.4921732622740365
 32
0.0
 13
4260.9041256975806391
 23
1105.4921732622740365
 33
0.0
  0
SOLID
  5
1A187
  8
DIMENSION
 62
     0
 10
4258.4041256975779106
 20
1014.4916732621869642
 30
0.0
 11
4263.4041256975779106
 21
1014.4916732621869642
 31
0.0
 12
4260.9041256975806391
 22
1029.4916732621870779
 32
0.0
 13
4260.9041256975806391
 23
1029.4916732621870779
 33
0.0
  0
POINT
  5
1A188
  8
DEFPOINTS
 62
     0
 10
4179.013800427109345
 20
1105.4921732622740365
 30
0.0
  0
POINT
  5
1A189
  8
DEFPOINTS
 62
     0
 10
4102.013800427111164
 20
1029.4916732621870779
 30
0.0
  0
POINT
  5
1A18A
  8
DEFPOINTS
 62
     0
 10
4260.9041256975806391
 20
1029.4916732621870779
 30
0.0
  0
ENDBLK
  5
1A07C
  8
0
  0
BLOCK
  8
0
  2
*U111
 70
     1
 10
0.0
 20
0.0
 30
0.0
  3
*U111
  1

  0
TEXT
  5
1A3CF
  8
DIMENSION
 62
     0
 10
4280.9041256975760916
 20
1161.7567854440160318
 30
0.0
 40
40.0
  1
76
 50
90.0
  7
TITLE3
  0
ENDBLK
  5
1A3D1
  8
0
  0
BLOCK
  8
0
  2
*D112
 70
     1
 10
0.0
 20
0.0
 30
0.0
  3
*D112
  1

  0
LINE
  5
1A198
  8
0
 62
     0
 10
2157.2138004274461309
 20
3084.7786887444049171
 30
0.0
 11
2157.2138004274461309
 21
3395.7144216409019464
 31
0.0
  0
LINE
  5
1A199
  8
0
 62
     0
 10
4178.9937347691957257
 20
2893.7286887444060994
 30
0.0
 11
4178.9937347691957257
 21
3395.7144216409019464
 31
0.0
  0
LINE
  5
1A19A
  8
0
 62
     0
 10
2172.2138004274461309
 20
3380.7144216409010369
 30
0.0
 11
3018.4899580745109233
 21
3380.7144216409010369
 31
0.0
  0
LINE
  5
1A19B
  8
0
 62
     0
 10
4163.9937347691966352
 20
3380.7144216409010369
 30
0.0
 11
3317.7175771221291143
 21
3380.7144216409010369
 31
0.0
  0
INSERT
  5
1A19C
  8
VISIBLE
  2
*U113
 10
0.0
 20
0.0
 30
0.0
  0
SOLID
  5
1A19D
  8
0
 62
     0
 10
2172.2138004274461309
 20
3383.2144216409010369
 30
0.0
 11
2172.2138004274461309
 21
3378.2144216409010369
 31
0.0
 12
2157.2138004274461309
 22
3380.7144216409010369
 32
0.0
 13
2157.2138004274461309
 23
3380.7144216409010369
 33
0.0
  0
SOLID
  5
1A19E
  8
0
 62
     0
 10
4163.9937347691966352
 20
3383.2144216409010369
 30
0.0
 11
4163.9937347691966352
 21
3378.2144216409010369
 31
0.0
 12
4178.9937347691957257
 22
3380.7144216409010369
 32
0.0
 13
4178.9937347691957257
 23
3380.7144216409010369
 33
0.0
  0
POINT
  5
1A19F
  8
DEFPOINTS
 62
     0
 10
2157.2138004274461309
 20
3069.7786887444049171
 30
0.0
  0
POINT
  5
1A1A0
  8
DEFPOINTS
 62
     0
 10
4178.9937347691957257
 20
2878.7286887444060994
 30
0.0
  0
POINT
  5
1A1A1
  8
DEFPOINTS
 62
     0
 10
4178.9937347691957257
 20
3380.7144216409010369
 30
0.0
  0
ENDBLK
  5
1A089
  8
0
  0
BLOCK
  8
0
  2
*U113
 70
     1
 10
0.0
 20
0.0
 30
0.0
  3
*U113
  1

  0
TEXT
  5
1A3D3
  8
0
 62
     0
 10
3018.5799580745087951
 20
3367.3810883075680067
 30
0.0
 40
40.0
  1
2022 O/D
  7
TITLE3
  0
ENDBLK
  5
1A3D5
  8
0
  0
BLOCK
  8
0
  2
*D114
 70
     1
 10
0.0
 20
0.0
 30
0.0
  3
*D114
  1

  0
LINE
  5
1A1FC
  8
0
 62
     0
 10
4047.4638004274361265
 20
2404.8786887444130116
 30
0.0
 11
4560.1341393814200273
 21
2404.8786887444130116
 31
0.0
  0
LINE
  5
1A1FD
  8
0
 62
     0
 10
3995.0138004274422201
 20
3095.4286887444131935
 30
0.0
 11
4560.1341393814200273
 21
3095.4286887444131935
 31
0.0
  0
LINE
  5
1A1FE
  8
0
 62
     0
 10
4545.1341393814209368
 20
2419.8786887444148306
 30
0.0
 11
4545.1341393814209368
 21
3080.4286887444131935
 31
0.0
  0
INSERT
  5
1A1FF
  8
VISIBLE
  2
*U115
 10
0.0
 20
0.0
 30
0.0
  0
SOLID
  5
1A200
  8
0
 62
     0
 10
4542.6341393814218463
 20
2419.8786887444148306
 30
0.0
 11
4547.6341393814209368
 21
2419.8786887444148306
 31
0.0
 12
4545.1341393814209368
 22
2404.8786887444130116
 32
0.0
 13
4545.1341393814209368
 23
2404.8786887444130116
 33
0.0
  0
SOLID
  5
1A201
  8
0
 62
     0
 10
4542.6341393814218463
 20
3080.4286887444131935
 30
0.0
 11
4547.6341393814209368
 21
3080.4286887444131935
 31
0.0
 12
4545.1341393814209368
 22
3095.4286887444131935
 32
0.0
 13
4545.1341393814209368
 23
3095.4286887444131935
 33
0.0
  0
POINT
  5
1A202
  8
DEFPOINTS
 62
     0
 10
4032.463800427437036
 20
2404.8786887444130116
 30
0.0
  0
POINT
  5
1A203
  8
DEFPOINTS
 62
     0
 10
3980.0138004274431296
 20
3095.4286887444131935
 30
0.0
  0
POINT
  5
1A204
  8
DEFPOINTS
 62
     0
 10
4545.1341393814209368
 20
3095.4286887444131935
 30
0.0
  0
ENDBLK
  5
1A096
  8
0
  0
BLOCK
  8
0
  2
*U115
 70
     1
 10
0.0
 20
0.0
 30
0.0
  3
*U115
  1

  0
TEXT
  5
1A3EB
  8
0
 62
     0
 10
4512.8694387666910188
 20
2523.7253099589961494
 30
0.0
 40
40.0
  1
698 O/D
 50
90.0
  7
TITLE3
  0
ENDBLK
  5
1A3ED
  8
0
  0
BLOCK
  8
0
  2
*D116
 70
     1
 10
0.0
 20
0.0
 30
0.0
  3
*D116
  1

  0
LINE
  5
1A222
  8
0
 62
     0
 10
3860.7981773542078372
 20
3095.428688744406827
 30
0.0
 11
3775.4657628302279591
 21
3095.428688744406827
 31
0.0
  0
LINE
  5
1A223
  8
0
 62
     0
 10
3852.2492063828890423
 20
3045.2286887444070089
 30
0.0
 11
3775.4657628302288686
 21
3045.2286887444070089
 31
0.0
  0
LINE
  5
1A224
  8
0
 62
     0
 10
3790.4657628302279591
 20
3110.428688744406827
 30
0.0
 11
3790.4657628302279591
 21
3125.4286887444081913
 31
0.0
  0
LINE
  5
1A225
  8
0
 62
     0
 10
3790.4657628302288686
 20
3030.2286887444070089
 30
0.0
 11
3790.4657628302288686
 21
3015.2286887444070089
 31
0.0
  0
INSERT
  5
1A226
  8
VISIBLE
  2
*U117
 10
0.0
 20
0.0
 30
0.0
  0
SOLID
  5
1A227
  8
0
 62
     0
 10
3787.9657628302288686
 20
3110.428688744406827
 30
0.0
 11
3792.9657628302288686
 21
3110.428688744406827
 31
0.0
 12
3790.4657628302279591
 22
3095.428688744406827
 32
0.0
 13
3790.4657628302279591
 23
3095.428688744406827
 33
0.0
  0
SOLID
  5
1A228
  8
0
 62
     0
 10
3787.9657628302288686
 20
3030.2286887444070089
 30
0.0
 11
3792.9657628302288686
 21
3030.2286887444070089
 31
0.0
 12
3790.4657628302288686
 22
3045.2286887444070089
 32
0.0
 13
3790.4657628302288686
 23
3045.2286887444070089
 33
0.0
  0
POINT
  5
1A229
  8
DEFPOINTS
 62
     0
 10
3875.7981773542092014
 20
3095.428688744406827
 30
0.0
  0
POINT
  5
1A22A
  8
DEFPOINTS
 62
     0
 10
3867.2492063828890423
 20
3045.2286887444070089
 30
0.0
  0
POINT
  5
1A22B
  8
DEFPOINTS
 62
     0
 10
3790.4657628302288686
 20
3045.2286887444070089
 30
0.0
  0
ENDBLK
  5
1A0AB
  8
0
  0
BLOCK
  8
0
  2
*U117
 70
     1
 10
0.0
 20
0.0
 30
0.0
  3
*U117
  1

  0
TEXT
  5
1A402
  8
0
 62
     0
 10
3766.5805275716188589
 20
3119.0475414027509942
 30
0.0
 40
40.0
  1
50 RA Spigot
 50
90.0
  7
TITLE3
  0
ENDBLK
  5
1A404
  8
0
  0
BLOCK
  8
0
  2
*D118
 70
     1
 10
0.0
 20
0.0
 30
0.0
  3
*D118
  1

  0
LINE
  5
1A1E8
  8
0
 62
     0
 10
3781.41380042744413
 20
2446.328688744406918
 30
0.0
 11
3577.7074465914479333
 21
2446.328688744406918
 31
0.0
  0
LINE
  5
1A1E9
  8
0
 62
     0
 10
3781.41380042744413
 20
2495.3786887444080094
 30
0.0
 11
3577.7074465914479333
 21
2495.3786887444080094
 31
0.0
  0
LINE
  5
1A1EA
  8
0
 62
     0
 10
3592.7074465914479333
 20
2431.3286887444060085
 30
0.0
 11
3592.7074465914479333
 21
2416.328688744406918
 31
0.0
  0
LINE
  5
1A1EB
  8
0
 62
     0
 10
3592.7074465914479333
 20
2510.3786887444080094
 30
0.0
 11
3592.7074465914479333
 21
2525.3786887444080094
 31
0.0
  0
INSERT
  5
1A1EC
  8
VISIBLE
  2
*U119
 10
0.0
 20
0.0
 30
0.0
  0
SOLID
  5
1A1ED
  8
0
 62
     0
 10
3590.2074465914479333
 20
2431.3286887444060085
 30
0.0
 11
3595.2074465914479333
 21
2431.3286887444060085
 31
0.0
 12
3592.7074465914479333
 22
2446.328688744406918
 32
0.0
 13
3592.7074465914479333
 23
2446.328688744406918
 33
0.0
  0
SOLID
  5
1A1EE
  8
0
 62
     0
 10
3590.2074465914479333
 20
2510.3786887444080094
 30
0.0
 11
3595.2074465914479333
 21
2510.3786887444080094
 31
0.0
 12
3592.7074465914479333
 22
2495.3786887444080094
 32
0.0
 13
3592.7074465914479333
 23
2495.3786887444080094
 33
0.0
  0
POINT
  5
1A1EF
  8
DEFPOINTS
 62
     0
 10
3796.4138004274432205
 20
2446.328688744406918
 30
0.0
  0
POINT
  5
1A1F0
  8
DEFPOINTS
 62
     0
 10
3796.4138004274432205
 20
2495.3786887444080094
 30
0.0
  0
POINT
  5
1A1F1
  8
DEFPOINTS
 62
     0
 10
3592.7074465914479333
 20
2495.3786887444080094
 30
0.0
  0
ENDBLK
  5
1A0B8
  8
0
  0
BLOCK
  8
0
  2
*U119
 70
     1
 10
0.0
 20
0.0
 30
0.0
  3
*U119
  1

  0
TEXT
  5
1A3E3
  8
0
 62
     0
 10
3613.7554276126338664
 20
1996.9368926731049214
 30
0.0
 40
40.0
  1
50 SA Spigot
 50
90.0
  7
TITLE3
  0
ENDBLK
  5
1A3E5
  8
0
  0
BLOCK
  8
0
  2
*D120
 70
     1
 10
0.0
 20
0.0
 30
0.0
  3
*D120
  1

  0
LINE
  5
1A2C0
  8
0
 62
     0
 10
1109.2067243955721096
 20
2954.6627821144711561
 30
0.0
 11
958.7902618493098998
 21
2954.6627821144697918
 31
0.0
  0
LINE
  5
1A2C1
  8
0
 62
     0
 10
1109.2067243955671074
 20
2395.5127821144728841
 30
0.0
 11
958.7902618493104683
 21
2395.5127821144719746
 31
0.0
  0
LINE
  5
1A2C2
  8
0
 62
     0
 10
973.7902618493102409
 20
2939.6627821144711561
 30
0.0
 11
973.7902618493104683
 21
2780.4849709292761872
 31
0.0
  0
LINE
  5
1A2C3
  8
0
 62
     0
 10
973.7902618493104683
 20
2410.5127821144719746
 30
0.0
 11
973.7902618493104683
 21
2606.9716375959419565
 31
0.0
  0
INSERT
  5
1A2C4
  8
VISIBLE
  2
*U121
 10
0.0
 20
0.0
 30
0.0
  0
SOLID
  5
1A2C5
  8
0
 62
     0
 10
971.2902618493098998
 20
2939.6627821144711561
 30
0.0
 11
976.2902618493102409
 21
2939.6627821144711561
 31
0.0
 12
973.7902618493102409
 22
2954.6627821144697918
 32
0.0
 13
973.7902618493102409
 23
2954.6627821144697918
 33
0.0
  0
SOLID
  5
1A2C6
  8
0
 62
     0
 10
971.2902618493104683
 20
2410.5127821144719746
 30
0.0
 11
976.2902618493103546
 21
2410.5127821144719746
 31
0.0
 12
973.7902618493104683
 22
2395.5127821144719746
 32
0.0
 13
973.7902618493104683
 23
2395.5127821144719746
 33
0.0
  0
POINT
  5
1A2C7
  8
DEFPOINTS
 62
     0
 10
1124.2067243955721096
 20
2954.6627821144711561
 30
0.0
  0
POINT
  5
1A2C8
  8
DEFPOINTS
 62
     0
 10
1124.2067243955659706
 20
2395.5127821144728841
 30
0.0
  0
POINT
  5
1A2C9
  8
DEFPOINTS
 62
     0
 10
973.7902618493104683
 20
2395.5127821144719746
 30
0.0
  0
ENDBLK
  5
1A0F6
  8
0
  0
BLOCK
  8
0
  2
*U121
 70
     1
 10
0.0
 20
0.0
 30
0.0
  3
*U121
  1

  0
TEXT
  5
1A40A
  8
0
 62
     0
 10
923.3140713731175993
 20
2740.3949709292751322
 30
0.0
 40
40.0
  1
559
  7
TITLE3
  0
TEXT
  5
1A40B
  8
0
 62
     0
 10
846.1712142302604889
 20
2673.7283042626081624
 30
0.0
 40
40.0
  1
Mounting
  7
TITLE3
  0
TEXT
  5
1A40C
  8
0
 62
     0
 10
849.9807380397843417
 20
2607.0616375959421021
 30
0.0
 40
40.0
  1
 centres
  7
TITLE3
  0
ENDBLK
  5
1A40E
  8
0
  0
BLOCK
  8
0
  2
*D122
 70
     1
 10
0.0
 20
0.0
 30
0.0
  3
*D122
  1

  0
LINE
  5
1A292
  8
0
 62
     0
 10
2171.2138004274429477
 20
3085.7786887444049171
 30
0.0
 11
2171.2138004274429477
 21
3314.4605767489429127
 31
0.0
  0
LINE
  5
1A293
  8
0
 62
     0
 10
4093.813800427435126
 20
3085.7786887444049171
 30
0.0
 11
4093.813800427435126
 21
3314.4605767489429127
 31
0.0
  0
LINE
  5
1A294
  8
0
 62
     0
 10
2186.2138004274429477
 20
3299.4605767489429127
 30
0.0
 11
2835.6313615238200327
 21
3299.4605767489429127
 31
0.0
  0
LINE
  5
1A295
  8
0
 62
     0
 10
4078.813800427435126
 20
3299.4605767489429127
 30
0.0
 11
3532.9542186666758425
 21
3299.4605767489429127
 31
0.0
  0
INSERT
  5
1A296
  8
VISIBLE
  2
*U123
 10
0.0
 20
0.0
 30
0.0
  0
SOLID
  5
1A297
  8
0
 62
     0
 10
2186.2138004274429477
 20
3301.9605767489429127
 30
0.0
 11
2186.2138004274429477
 21
3296.9605767489429127
 31
0.0
 12
2171.2138004274429477
 22
3299.4605767489429127
 32
0.0
 13
2171.2138004274429477
 23
3299.4605767489429127
 33
0.0
  0
SOLID
  5
1A298
  8
0
 62
     0
 10
4078.813800427435126
 20
3301.9605767489429127
 30
0.0
 11
4078.813800427435126
 21
3296.9605767489429127
 31
0.0
 12
4093.813800427435126
 22
3299.4605767489429127
 32
0.0
 13
4093.813800427435126
 23
3299.4605767489429127
 33
0.0
  0
POINT
  5
1A299
  8
DEFPOINTS
 62
     0
 10
2171.2138004274429477
 20
3070.7786887444040076
 30
0.0
  0
POINT
  5
1A29A
  8
DEFPOINTS
 62
     0
 10
4093.813800427435126
 20
3070.7786887444040076
 30
0.0
  0
POINT
  5
1A29B
  8
DEFPOINTS
 62
     0
 10
4093.813800427435126
 20
3299.4605767489429127
 30
0.0
  0
ENDBLK
  5
1A103
  8
0
  0
BLOCK
  8
0
  2
*U123
 70
     1
 10
0.0
 20
0.0
 30
0.0
  3
*U123
  1

  0
TEXT
  5
1A406
  8
0
 62
     0
 10
2835.7213615238201783
 20
3286.127243415608973
 30
0.0
 40
40.0
  1
1923 Mounting centres
  7
TITLE3
  0
ENDBLK
  5
1A408
  8
0
  0
BLOCK
  8
0
  2
*D124
 70
     1
 10
0.0
 20
0.0
 30
0.0
  3
*D124
  1

  0
LINE
  5
1A1AC
  8
0
 62
     0
 10
2208.0138004274372179
 20
3110.428688744406827
 30
0.0
 11
2208.0138004274372179
 21
3232.4567318569829695
 31
0.0
  0
LINE
  5
1A1AD
  8
0
 62
     0
 10
3980.0138004274390369
 20
3110.4286887444109198
 30
0.0
 11
3980.0138004274390369
 21
3232.4567318569829695
 31
0.0
  0
LINE
  5
1A1AE
  8
0
 62
     0
 10
2223.0138004274381274
 20
3217.4567318569829695
 30
0.0
 11
2855.8285623322008178
 21
3217.4567318569829695
 31
0.0
  0
LINE
  5
1A1AF
  8
0
 62
     0
 10
3965.0138004274408559
 20
3217.4567318569829695
 30
0.0
 11
3332.1990385226758917
 21
3217.4567318569829695
 31
0.0
  0
INSERT
  5
1A1B0
  8
VISIBLE
  2
*U125
 10
0.0
 20
0.0
 30
0.0
  0
SOLID
  5
1A1B1
  8
0
 62
     0
 10
2223.0138004274381274
 20
3219.956731856983879
 30
0.0
 11
2223.0138004274381274
 21
3214.9567318569829695
 31
0.0
 12
2208.0138004274372179
 22
3217.4567318569829695
 32
0.0
 13
2208.0138004274372179
 23
3217.4567318569829695
 33
0.0
  0
SOLID
  5
1A1B2
  8
0
 62
     0
 10
3965.0138004274408559
 20
3219.956731856983879
 30
0.0
 11
3965.0138004274408559
 21
3214.9567318569829695
 31
0.0
 12
3980.0138004274390369
 22
3217.4567318569829695
 32
0.0
 13
3980.0138004274390369
 23
3217.4567318569829695
 33
0.0
  0
POINT
  5
1A1B3
  8
DEFPOINTS
 62
     0
 10
2208.0138004274372179
 20
3095.428688744406827
 30
0.0
  0
POINT
  5
1A1B4
  8
DEFPOINTS
 62
     0
 10
3980.0138004274390369
 20
3095.4286887444109198
 30
0.0
  0
POINT
  5
1A1B5
  8
DEFPOINTS
 62
     0
 10
3980.0138004274390369
 20
3217.4567318569829695
 30
0.0
  0
ENDBLK
  5
1A110
  8
0
  0
BLOCK
  8
0
  2
*U125
 70
     1
 10
0.0
 20
0.0
 30
0.0
  3
*U125
  1

  0
TEXT
  5
1A3D7
  8
0
 62
     0
 10
2855.9185623322000538
 20
3204.1233985236490298
 30
0.0
 40
40.0
  1
1772 RA Spigot
  7
TITLE3
  0
ENDBLK
  5
1A3D9
  8
0
  0
BLOCK
  8
0
  2
*D126
 70
     1
 10
0.0
 20
0.0
 30
0.0
  3
*D126
  1

  0
LINE
  5
1A1F2
  8
0
 62
     0
 10
4117.9638004274384002
 20
2522.1286887444080094
 30
0.0
 11
4117.9638004274384002
 21
2249.8656175267510662
 31
0.0
  0
LINE
  5
1A1F3
  8
0
 62
     0
 10
4032.463800427435217
 20
2391.8286887444060085
 30
0.0
 11
4032.463800427435217
 21
2249.8656175267510662
 31
0.0
  0
LINE
  5
1A1F4
  8
0
 62
     0
 10
4132.9638004274393097
 20
2264.8656175267510662
 30
0.0
 11
4147.9638004274384002
 21
2264.8656175267510662
 31
0.0
  0
LINE
  5
1A1F5
  8
0
 62
     0
 10
4017.4638004274329433
 20
2264.8656175267510662
 30
0.0
 11
4002.463800427435217
 21
2264.8656175267510662
 31
0.0
  0
INSERT
  5
1A1F6
  8
VISIBLE
  2
*U127
 10
0.0
 20
0.0
 30
0.0
  0
SOLID
  5
1A1F7
  8
0
 62
     0
 10
4132.9638004274393097
 20
2267.3656175267510662
 30
0.0
 11
4132.9638004274393097
 21
2262.3656175267510662
 31
0.0
 12
4117.9638004274384002
 22
2264.8656175267510662
 32
0.0
 13
4117.9638004274384002
 23
2264.8656175267510662
 33
0.0
  0
SOLID
  5
1A1F8
  8
0
 62
     0
 10
4017.4638004274329433
 20
2267.3656175267510662
 30
0.0
 11
4017.4638004274329433
 21
2262.3656175267510662
 31
0.0
 12
4032.463800427435217
 22
2264.8656175267510662
 32
0.0
 13
4032.463800427435217
 23
2264.8656175267510662
 33
0.0
  0
POINT
  5
1A1F9
  8
DEFPOINTS
 62
     0
 10
4117.9638004274384002
 20
2537.1286887444070999
 30
0.0
  0
POINT
  5
1A1FA
  8
DEFPOINTS
 62
     0
 10
4032.463800427435217
 20
2406.8286887444060085
 30
0.0
  0
POINT
  5
1A1FB
  8
DEFPOINTS
 62
     0
 10
4032.463800427435217
 20
2264.8656175267510662
 30
0.0
  0
ENDBLK
  5
1A144
  8
0
  0
BLOCK
  8
0
  2
*U127
 70
     1
 10
0.0
 20
0.0
 30
0.0
  3
*U127
  1

  0
TEXT
  5
1A3E7
  8
0
 62
     0
 10
4162.1368842753363424
 20
2244.8656175267510662
 30
0.0
 40
40.0
  1
86
  7
TITLE3
  0
ENDBLK
  5
1A3E9
  8
0
  0
BLOCK
  8
0
  2
*D128
 70
     1
 10
0.0
 20
0.0
 30
0.0
  3
*D128
  1

  0
LINE
  5
1A1B6
  8
0
 62
     0
 10
2208.0138004274372179
 20
3110.428688744406827
 30
0.0
 11
2208.0138004274372179
 21
3163.8841974684119123
 31
0.0
  0
LINE
  5
1A1B7
  8
0
 62
     0
 10
2157.2138004274461309
 20
3084.7786887444049171
 30
0.0
 11
2157.2138004274461309
 21
3163.8841974684119123
 31
0.0
  0
LINE
  5
1A1B8
  8
0
 62
     0
 10
2223.0138004274381274
 20
3148.8841974684119123
 30
0.0
 11
2238.0138004274372179
 21
3148.8841974684119123
 31
0.0
  0
LINE
  5
1A1B9
  8
0
 62
     0
 10
2142.2138004274461309
 20
3148.8841974684119123
 30
0.0
 11
2127.2138004274461309
 21
3148.8841974684119123
 31
0.0
  0
INSERT
  5
1A1BA
  8
VISIBLE
  2
*U129
 10
0.0
 20
0.0
 30
0.0
  0
SOLID
  5
1A1BB
  8
0
 62
     0
 10
2223.0138004274381274
 20
3151.3841974684119123
 30
0.0
 11
2223.0138004274381274
 21
3146.3841974684119123
 31
0.0
 12
2208.0138004274372179
 22
3148.8841974684119123
 32
0.0
 13
2208.0138004274372179
 23
3148.8841974684119123
 33
0.0
  0
SOLID
  5
1A1BC
  8
0
 62
     0
 10
2142.2138004274461309
 20
3151.3841974684119123
 30
0.0
 11
2142.2138004274461309
 21
3146.3841974684119123
 31
0.0
 12
2157.2138004274461309
 22
3148.8841974684119123
 32
0.0
 13
2157.2138004274461309
 23
3148.8841974684119123
 33
0.0
  0
POINT
  5
1A1BD
  8
DEFPOINTS
 62
     0
 10
2208.0138004274372179
 20
3095.428688744406827
 30
0.0
  0
POINT
  5
1A1BE
  8
DEFPOINTS
 62
     0
 10
2157.2138004274461309
 20
3069.7786887444049171
 30
0.0
  0
POINT
  5
1A1BF
  8
DEFPOINTS
 62
     0
 10
2157.2138004274461309
 20
3148.8841974684119123
 30
0.0
  0
ENDBLK
  5
1A151
  8
0
  0
BLOCK
  8
0
  2
*U129
 70
     1
 10
0.0
 20
0.0
 30
0.0
  3
*U129
  1

  0
TEXT
  5
1A3DB
  8
0
 62
     0
 10
2285.9385677103027774
 20
3128.8841974684119123
 30
0.0
 40
40.0
  1
51
  7
TITLE3
  0
ENDBLK
  5
1A3DD
  8
0
  0
BLOCK
  8
0
  2
*D130
 70
     1
 10
0.0
 20
0.0
 30
0.0
  3
*D130
  1

  0
LINE
  5
1A1DE
  8
0
 62
     0
 10
2157.213800427438855
 20
2480.6286887444070999
 30
0.0
 11
2157.213800427438855
 21
2357.0912848599127756
 31
0.0
  0
LINE
  5
1A1DF
  8
0
 62
     0
 10
2291.6138004274421291
 20
2431.3286887444060085
 30
0.0
 11
2291.6138004274421291
 21
2357.0912848599127756
 31
0.0
  0
LINE
  5
1A1E0
  8
0
 62
     0
 10
2142.2138004274379455
 20
2372.0912848599141398
 30
0.0
 11
2127.213800427438855
 21
2372.0912848599141398
 31
0.0
  0
LINE
  5
1A1E1
  8
0
 62
     0
 10
2306.6138004274421291
 20
2372.0912848599141398
 30
0.0
 11
2321.6138004274421291
 21
2372.0912848599141398
 31
0.0
  0
INSERT
  5
1A1E2
  8
VISIBLE
  2
*U131
 10
0.0
 20
0.0
 30
0.0
  0
SOLID
  5
1A1E3
  8
0
 62
     0
 10
2142.2138004274379455
 20
2374.5912848599127756
 30
0.0
 11
2142.2138004274379455
 21
2369.5912848599141398
 31
0.0
 12
2157.213800427438855
 22
2372.0912848599141398
 32
0.0
 13
2157.213800427438855
 23
2372.0912848599141398
 33
0.0
  0
SOLID
  5
1A1E4
  8
0
 62
     0
 10
2306.6138004274421291
 20
2374.5912848599127756
 30
0.0
 11
2306.6138004274421291
 21
2369.5912848599141398
 31
0.0
 12
2291.6138004274421291
 22
2372.0912848599141398
 32
0.0
 13
2291.6138004274421291
 23
2372.0912848599141398
 33
0.0
  0
POINT
  5
1A1E5
  8
DEFPOINTS
 62
     0
 10
2157.213800427438855
 20
2495.6286887444070999
 30
0.0
  0
POINT
  5
1A1E6
  8
DEFPOINTS
 62
     0
 10
2291.6138004274421291
 20
2446.3286887444060085
 30
0.0
  0
POINT
  5
1A1E7
  8
DEFPOINTS
 62
     0
 10
2291.6138004274421291
 20
2372.0912848599141398
 30
0.0
  0
ENDBLK
  5
1A15E
  8
0
  0
BLOCK
  8
0
  2
*U131
 70
     1
 10
0.0
 20
0.0
 30
0.0
  3
*U131
  1

  0
TEXT
  5
1A3DF
  8
0
 62
     0
 10
2003.2623572359500486
 20
2352.0912848599141398
 30
0.0
 40
40.0
  1
134
  7
TITLE3
  0
ENDBLK
  5
1A3E1
  8
0
  0
BLOCK
  8
0
  2
*D132
 70
     1
 10
0.0
 20
0.0
 30
0.0
  3
*D132
  1

  0
LINE
  5
1A20E
  8
0
 62
     0
 10
3995.0138004274422201
 20
3095.4286887444131935
 30
0.0
 11
4307.6478094216718091
 21
3095.4286887444131935
 31
0.0
  0
LINE
  5
1A20F
  8
0
 62
     0
 10
4193.9937347692002731
 20
2877.7286887444079184
 30
0.0
 11
4307.6478094216718091
 21
2877.7286887444079184
 31
0.0
  0
LINE
  5
1A210
  8
0
 62
     0
 10
4292.6478094216718091
 20
3080.4286887444131935
 30
0.0
 11
4292.6478094216718091
 21
2892.7286887444079184
 31
0.0
  0
INSERT
  5
1A211
  8
VISIBLE
  2
*U133
 10
0.0
 20
0.0
 30
0.0
  0
SOLID
  5
1A212
  8
0
 62
     0
 10
4290.1478094216718091
 20
3080.4286887444131935
 30
0.0
 11
4295.1478094216708996
 21
3080.4286887444131935
 31
0.0
 12
4292.6478094216718091
 22
3095.4286887444131935
 32
0.0
 13
4292.6478094216718091
 23
3095.4286887444131935
 33
0.0
  0
SOLID
  5
1A213
  8
0
 62
     0
 10
4290.1478094216718091
 20
2892.7286887444079184
 30
0.0
 11
4295.1478094216708996
 21
2892.7286887444079184
 31
0.0
 12
4292.6478094216718091
 22
2877.7286887444079184
 32
0.0
 13
4292.6478094216718091
 23
2877.7286887444079184
 33
0.0
  0
POINT
  5
1A214
  8
DEFPOINTS
 62
     0
 10
3980.0138004274431296
 20
3095.4286887444131935
 30
0.0
  0
POINT
  5
1A215
  8
DEFPOINTS
 62
     0
 10
4178.9937347692002731
 20
2877.7286887444079184
 30
0.0
  0
POINT
  5
1A216
  8
DEFPOINTS
 62
     0
 10
4292.6478094216718091
 20
2877.7286887444079184
 30
0.0
  0
ENDBLK
  5
1A16B
  8
0
  0
BLOCK
  8
0
  2
*U133
 70
     1
 10
0.0
 20
0.0
 30
0.0
  3
*U133
  1

  0
TEXT
  5
1A3F3
  8
0
 62
     0
 10
4265.028761802621375
 20
2938.9596411253619408
 30
0.0
 40
40.0
  1
218
 50
90.0
  7
TITLE3
  0
ENDBLK
  5
1A3F5
  8
0
  0
BLOCK
  8
0
  2
*D134
 70
     1
 10
0.0
 20
0.0
 30
0.0
  3
*D134
  1

  0
LINE
  5
1A205
  8
0
 62
     0
 10
3993.0638004274428567
 20
3095.428688744406827
 30
0.0
 11
4449.7945175435743295
 21
3095.428688744406827
 31
0.0
  0
LINE
  5
1A206
  8
0
 62
     0
 10
4194.0138004274376726
 20
2818.2636887444009517
 30
0.0
 11
4449.7945175435743295
 21
2818.2636887444009517
 31
0.0
  0
LINE
  5
1A207
  8
0
 62
     0
 10
4434.7945175435706915
 20
3080.4286887444081913
 30
0.0
 11
4434.7945175435706915
 21
2833.2636887444009517
 31
0.0
  0
INSERT
  5
1A208
  8
VISIBLE
  2
*U135
 10
0.0
 20
0.0
 30
0.0
  0
SOLID
  5
1A209
  8
0
 62
     0
 10
4432.29451754357342
 20
3080.4286887444081913
 30
0.0
 11
4437.294517543571601
 21
3080.4286887444081913
 31
0.0
 12
4434.7945175435706915
 22
3095.428688744406827
 32
0.0
 13
4434.7945175435706915
 23
3095.428688744406827
 33
0.0
  0
SOLID
  5
1A20A
  8
0
 62
     0
 10
4432.29451754357342
 20
2833.2636887444009517
 30
0.0
 11
4437.294517543571601
 21
2833.2636887444009517
 31
0.0
 12
4434.7945175435706915
 22
2818.2636887444009517
 32
0.0
 13
4434.7945175435706915
 23
2818.2636887444009517
 33
0.0
  0
POINT
  5
1A20B
  8
DEFPOINTS
 62
     0
 10
3978.0638004274419472
 20
3095.428688744406827
 30
0.0
  0
POINT
  5
1A20C
  8
DEFPOINTS
 62
     0
 10
4179.0138004274404011
 20
2818.2636887444009517
 30
0.0
  0
POINT
  5
1A20D
  8
DEFPOINTS
 62
     0
 10
4434.7945175435706915
 20
2818.2636887444009517
 30
0.0
  0
ENDBLK
  5
1A177
  8
0
  0
BLOCK
  8
0
  2
*U135
 70
     1
 10
0.0
 20
0.0
 30
0.0
  3
*U135
  1

  0
TEXT
  5
1A3EF
  8
0
 62
     0
 10
4415.7854981585041969
 20
2907.4186765589711285
 30
0.0
 40
40.0
  1
277
 50
90.0
  7
TITLE3
  0
ENDBLK
  5
1A3F1
  8
0
  0
BLOCK
  8
0
  2
*D136
 70
     1
 10
0.0
 20
0.0
 30
0.0
  3
*D136
  1

  0
LINE
  5
1A2CA
  8
0
 62
     0
 10
1114.6610804528929748
 20
2990.1627821144711561
 30
0.0
 11
645.9484010903687476
 21
2990.1627821144711561
 31
0.0
  0
LINE
  5
1A2CB
  8
0
 62
     0
 10
1114.6610804528929748
 20
2359.5627821144707923
 30
0.0
 11
645.9484010903687476
 21
2359.5627821144707923
 31
0.0
  0
LINE
  5
1A2CC
  8
0
 62
     0
 10
660.9484010903687476
 20
2975.1627821144697918
 30
0.0
 11
660.9484010903687476
 21
2847.1516375959417928
 31
0.0
  0
LINE
  5
1A2CD
  8
0
 62
     0
 10
660.9484010903687476
 20
2374.5627821144707923
 30
0.0
 11
660.9484010903687476
 21
2540.3049709292758962
 31
0.0
  0
INSERT
  5
1A2CE
  8
VISIBLE
  2
*U137
 10
0.0
 20
0.0
 30
0.0
  0
SOLID
  5
1A2CF
  8
0
 62
     0
 10
658.4484010903687476
 20
2975.1627821144697918
 30
0.0
 11
663.4484010903687476
 21
2975.1627821144697918
 31
0.0
 12
660.9484010903687476
 22
2990.1627821144711561
 32
0.0
 13
660.9484010903687476
 23
2990.1627821144711561
 33
0.0
  0
SOLID
  5
1A2D0
  8
0
 62
     0
 10
658.4484010903687476
 20
2374.5627821144707923
 30
0.0
 11
663.4484010903688613
 21
2374.5627821144707923
 31
0.0
 12
660.9484010903687476
 22
2359.5627821144707923
 32
0.0
 13
660.9484010903687476
 23
2359.5627821144707923
 33
0.0
  0
POINT
  5
1A2D1
  8
DEFPOINTS
 62
     0
 10
1129.6610804528929748
 20
2990.1627821144711561
 30
0.0
  0
POINT
  5
1A2D2
  8
DEFPOINTS
 62
     0
 10
1129.6610804528929748
 20
2359.5627821144707923
 30
0.0
  0
POINT
  5
1A2D3
  8
DEFPOINTS
 62
     0
 10
660.9484010903687476
 20
2359.5627821144707923
 30
0.0
  0
ENDBLK
  5
1A18D
  8
0
  0
BLOCK
  8
0
  2
*U137
 70
     1
 10
0.0
 20
0.0
 30
0.0
  3
*U137
  1

  0
TEXT
  5
1A410
  8
0
 62
     0
 10
611.764923333918091
 20
2807.0616375959421021
 30
0.0
 40
40.0
  1
631
  7
TITLE3
  0
TEXT
  5
1A411
  8
0
 62
     0
 10
540.3363519053468735
 20
2740.3949709292760417
 30
0.0
 40
40.0
  1
Optional
  7
TITLE3
  0
TEXT
  5
1A412
  8
0
 62
     0
 10
567.9553995243943518
 20
2673.7283042626090719
 30
0.0
 40
40.0
  1
Spring
  7
TITLE3
  0
TEXT
  5
1A413
  8
0
 62
     0
 10
527.0030185720135023
 20
2607.0616375959430115
 30
0.0
 40
40.0
  1
Mounting
  7
TITLE3
  0
TEXT
  5
1A414
  8
0
 62
     0
 10
530.8125423815373551
 20
2540.3949709292760417
 30
0.0
 40
40.0
  1
 centres
  7
TITLE3
  0
ENDBLK
  5
1A416
  8
0
  0
BLOCK
  8
0
  2
A$C101D0A4E
 70
     0
 10
0.0
 20
0.0
 30
0.0
  3
A$C101D0A4E
  1

  0
LINE
  5
1A261
  8
0
 62
     7
 10
-0.0000075692441897
 20
93.9664483430151449
 30
0.0
 11
-0.0000075692441897
 21
-0.0000003372088031
 31
0.0
  0
LINE
  5
1A262
  8
0
 62
     7
 10
41.0882438037547217
 20
27.3921672447922901
 30
0.0
 11
669.1283720698087336
 21
27.3921672447922901
 31
0.0
  0
SOLID
  5
1A263
  8
0
 62
     7
 10
41.0882438037547217
 20
34.2402091402923503
 30
0.0
 11
41.0882438037547217
 21
20.5441253492922513
 31
0.0
 12
-0.0000075692441897
 22
27.3921672447922901
 32
0.0
 13
-0.0000075692441897
 23
27.3921672447922901
 33
0.0
  0
LINE
  5
1A264
  8
0
 62
     7
 10
1503.8299926825559396
 20
93.9664483430151449
 30
0.0
 11
1503.8299926825559396
 21
-0.0000003372088031
 31
0.0
  0
LINE
  5
1A265
  8
0
 62
     7
 10
1462.7417413095508891
 20
27.3921672447922901
 30
0.0
 11
794.6758068206419239
 21
27.3921672447922901
 31
0.0
  0
SOLID
  5
1A266
  8
0
 62
     7
 10
1462.7417413095508891
 20
34.2402091402923503
 30
0.0
 11
1462.7417413095508891
 21
20.5441253492922513
 31
0.0
 12
1503.8299926825559396
 22
27.3921672447922901
 32
0.0
 13
1503.8299926825559396
 23
27.3921672447922901
 33
0.0
  0
TEXT
  5
1A267
  8
0
 62
     7
 10
677.6895529221028482
 20
9.9981408302223826
 30
0.0
 40
34.2402094775000023
  1
1098
  0
ENDBLK
  5
1A269
  8
0
  0
BLOCK
  8
0
  2
*U139
 70
     1
 10
0.0
 20
0.0
 30
0.0
  3
*U139
  1

  0
TEXT
  5
1A3FA
  8
0
 62
     7
 10
4038.0204286232951745
 20
1823.6500255950709288
 30
0.0
 40
37.5
  1
500 mm CLEARANCE
  7
TITLE3
  0
ENDBLK
  5
1A3FC
  8
0
  0
BLOCK
  8
0
  2
*U140
 70
     1
 10
0.0
 20
0.0
 30
0.0
  3
*U140
  1

  0
TEXT
  5
1A3FE
  8
VISIBLE
 10
4961.1287583660850942
 20
2154.3133852447999743
 30
0.0
 40
40.0
  1
750 mm CLEARANCE
 50
90.0
  7
TITLE3
  0
ENDBLK
  5
1A400
  8
0
  0
BLOCK
  8
0
  2
A$C1B9B5263
 70
     0
 10
0.0
 20
0.0
 30
0.0
  3
A$C1B9B5263
  1

  0
LINE
  5
1A95F
  8
0
 62
     7
 10
0.0000021654213924
 20
93.9664471902001708
 30
0.0
 11
0.0000021654213924
 21
-0.000001490023692
 31
0.0
  0
LINE
  5
1A960
  8
0
 62
     7
 10
41.0882535384207586
 20
27.3921660919774013
 30
0.0
 11
853.1181192324329459
 21
27.3921660919774013
 31
0.0
  0
SOLID
  5
1A961
  8
0
 62
     7
 10
41.0882535384207586
 20
34.2402079874774472
 30
0.0
 11
41.0882535384207586
 21
20.5441241964773589
 31
0.0
 12
0.0000021654213924
 22
27.3921660919774013
 32
0.0
 13
0.0000021654213924
 23
27.3921660919774013
 33
0.0
  0
LINE
  5
1A962
  8
0
 62
     7
 10
2017.0000024172220492
 20
93.9664471902001708
 30
0.0
 11
2017.0000024172220492
 21
-0.000001490023692
 31
0.0
  0
LINE
  5
1A963
  8
0
 62
     7
 10
1975.9117510442179082
 20
27.3921660919774013
 30
0.0
 11
1116.9392990800729422
 21
27.3921660919774013
 31
0.0
  0
SOLID
  5
1A964
  8
0
 62
     7
 10
1975.9117510442179082
 20
34.2402079874774472
 30
0.0
 11
1975.9117510442179082
 21
20.5441241964773589
 31
0.0
 12
2017.0000024172220492
 22
27.3921660919774013
 32
0.0
 13
2017.0000024172220492
 23
27.3921660919774013
 33
0.0
  0
TEXT
  5
1A965
  8
0
 62
     7
 10
860.8342673841192436
 20
9.9981396774065843
 30
0.0
 40
34.2402094775000023
  1
1505 O/A
  0
ENDBLK
  5
1A967
  8
0
  0
BLOCK
  8
0
  2
A$C7FF85D9C
 70
     0
 10
0.0
 20
0.0
 30
0.0
  3
A$C7FF85D9C
  1

  0
LINE
  5
1AA55
  8
0
 62
     7
 10
32.1732368745479107
 20
-0.0000029966244028
 30
0.0
 11
0.0000042473589019
 21
28.5325989887605687
 31
0.0
  0
LINE
  5
1AA56
  8
0
 62
     7
 10
54.5270377135593591
 20
18.4826250112315584
 30
0.0
 11
32.1732368745479107
 21
18.4826250112315584
 31
0.0
  0
LINE
  5
1AA57
  8
0
 62
     7
 10
32.1732368745479107
 20
18.4826250112315584
 30
0.0
 11
32.1732368745479107
 21
-0.0000029966244028
 31
0.0
  0
LINE
  5
1AA58
  8
0
 62
     7
 10
32.1732368745479107
 20
57.0652009741435222
 30
0.0
 11
0.0000042473589019
 21
28.5325989887605687
 31
0.0
  0
LINE
  5
1AA59
  8
0
 62
     7
 10
54.5270377135593591
 20
38.5825729662869819
 30
0.0
 11
32.1732368745479107
 21
38.5825729662869819
 31
0.0
  0
LINE
  5
1AA5A
  8
0
 62
     7
 10
32.1732368745479107
 20
38.5825729662869819
 30
0.0
 11
32.1732368745479107
 21
57.0652009741435222
 31
0.0
  0
ENDBLK
  5
1AA5C
  8
0
  0
ENDSEC
  0
SECTION
  2
ENTITIES
  0
TEXT
  5
F78
  8
0
 62
     7
 10
4385.5393095396066201
 20
407.0628889743566106
 30
0.0
 40
62.5
  1
temperzone ISD 351LYX
 41
1.1072231767529901
  7
TITLE5
 72
     1
 11
5010.0
 21
407.0628889743566106
 31
0.0
  0
TEXT
  5
F79
  8
0
 62
     7
 10
5167.2070400510119725
 20
106.9986799601034022
 30
0.0
 40
37.5
  1
ISD 351LYX
 41
1.2527999999999999
  7
TITLE3
 72
     5
 11
5558.7070400510119725
 21
106.9986799601034022
 31
0.0
  0
INSERT
  5
FCE
  8
MTG-FEET
  2
LINES
 10
637.4231943994607263
 20
2246.7294005091212057
 30
0.0
  0
TEXT
  5
FDF
  8
0
 62
     7
 10
4445.5737691718495626
 20
165.0
 30
0.0
 40
37.5
  1
23-01-20
 41
0.8296296296296135
  7
TITLE3
 72
     5
 11
4685.5737691718450151
 21
165.0
 31
0.0
  0
TEXT
  5
FE0
  8
OVERLAY-A3
 10
4272.3453344418740016
 20
166.2468207901513892
 30
0.0
 40
36.0
  1
Date
  7
SIMPLEX
  0
TEXT
  5
FE1
  8
OVERLAY-A3
 10
5619.1667885604028925
 20
194.254953035116813
 30
0.0
 40
36.0
  1
Revision
 41
0.7812095035934843
  7
SIMPLEX
 72
     5
 11
5777.1943110015990896
 21
194.254953035116813
 31
0.0
  0
LINE
  5
FE2
  8
OVERLAY-A3
 10
5601.7370249852401685
 20
31.2637392724756999
 30
0.0
 11
5601.7370249852401685
 21
252.4029835628199976
 31
0.0
  0
LINE
  5
FE3
  8
OVERLAY-A3
 10
4229.0272941857228943
 20
505.826628246832172
 30
0.0
 11
4229.0272941857228943
 21
31.2637392724756999
 31
0.0
  0
LINE
  5
FE4
  8
OVERLAY-A3
 10
5125.3705170196408289
 20
31.2637392724756999
 30
0.0
 11
5125.3705170196408289
 21
252.4029835628199976
 31
0.0
  0
LINE
  5
FE5
  8
OVERLAY-A3
 10
5125.37051701963901
 20
139.9688989041954983
 30
0.0
 11
4229.0272941857228943
 21
139.9688989041954983
 31
0.0
  0
LINE
  5
FE6
  8
OVERLAY-A3
 10
5792.3631978567636907
 20
252.4029835628199976
 30
0.0
 11
4229.0272941857228943
 21
252.4029835628199976
 31
0.0
  0
LINE
  5
FE7
  8
OVERLAY-A3
 10
4229.0272941857228943
 20
31.2637392724756999
 30
0.0
 11
5791.9169370892359439
 21
31.2637392724756999
 31
0.0
  0
LINE
  5
FE8
  8
OVERLAY-A3
 10
5791.9169370892359439
 20
31.2637392724756999
 30
0.0
 11
5791.9169370892359439
 21
505.826628246832172
 31
0.0
  0
LINE
  5
FE9
  8
OVERLAY-A3
 10
5791.9169370892359439
 20
505.826628246832172
 30
0.0
 11
4229.0272941857228943
 21
505.826628246832172
 31
0.0
  0
TEXT
  5
FEA
  8
OVERLAY-A3
 10
4266.7248286546628151
 20
71.8837320980365604
 30
0.0
 40
30.0
  1
Scale
 41
1.3701747965659949
  7
SIMPLEX
 72
     5
 11
4417.4440562769232201
 21
71.8837320980365604
 31
0.0
  0
TEXT
  5
FEB
  8
OVERLAY-A3
 10
5212.2886854011940159
 20
193.3401472600642137
 30
0.0
 40
30.0
  1
Drawing No.
  7
SIMPLEX
 72
     2
 11
5473.7172568297655744
 21
193.3401472600642137
 31
0.0
  0
LINE
  5
FEC
  8
OVERLAY-A3
 10
1517.0779427622780986
 20
0.0
 30
0.0
 11
5835.0
 21
0.0
 31
0.0
  0
LINE
  5
FED
  8
OVERLAY-A3
 10
5835.0
 20
0.0
 30
0.0
 11
5835.0
 21
3694.09767174117178
 31
0.0
  0
LINE
  5
FEE
  8
OVERLAY-A3
 10
5835.0
 20
3694.09767174117178
 30
0.0
 11
1517.0779427622780986
 21
3694.0976717411731443
 31
0.0
  0
LINE
  5
FEF
  8
OVERLAY-A3
 10
1517.0779427622780986
 20
3694.0976717411731443
 30
0.0
 11
1517.0779427622780986
 21
0.0
 31
0.0
  0
TEXT
  5
FF0
  8
0
 62
     7
 10
4499.1433054549597728
 20
74.2100570233569243
 30
0.0
 40
37.5
  1
1:20
  7
TITLE3
  0
INSERT
  5
11CA8
  8
DIMENSION
  2
*U13
 10
-5574.9427014699604115
 20
-223.2693235376333121
 30
0.0
  0
LINE
  5
18DEA
  8
0
  6
PHANTOM
 62
     7
 10
4153.9638004274393097
 20
3045.2286887444060994
 30
0.0
 11
4853.9638004274402192
 21
3045.2286887444060994
 31
0.0
  0
LINE
  5
18DEB
  8
0
  6
PHANTOM
 62
     7
 10
4853.9638004274402192
 20
3045.2286887444060994
 30
0.0
 11
4853.9638004274402192
 21
1904.8786887444121021
 31
0.0
  0
INSERT
  5
19029
  8
DIMENSION
  2
*U8
 10
-5674.8266934903440415
 20
-435.3946259511728272
 30
0.0
  0
LINE
  5
190DB
  8
0
  6
PHANTOM
 62
     7
 10
3796.4138004274432205
 20
2273.0930577163430826
 30
0.0
 11
3796.4138004274409468
 21
1904.8786887444121021
 31
0.0
  0
LINE
  5
190DC
  8
0
  6
PHANTOM
 62
     7
 10
3796.4138004274409468
 20
1904.8786887444121021
 30
0.0
 11
4853.9638004274402192
 21
1904.8786887444121021
 31
0.0
  0
TEXT
  5
190DE
  8
VISIBLE
 10
4840.7462954370430452
 20
1273.9371839405209812
 30
0.0
 40
40.0
  1
ISD 351LYX
  7
TITLE3
  0
TEXT
  5
190DF
  8
VISIBLE
 10
2869.3410559262720199
 20
1370.7322451930649549
 30
0.0
 40
40.0
  1
ISD 351LYX
  7
TITLE3
  0
TEXT
  5
190E0
  8
VISIBLE
 10
2979.9323959821072094
 20
2782.5685814810181
 30
0.0
 40
40.0
  1
ISD 351LYX
  7
TITLE3
  0
TEXT
  5
19FF4
  8
0
 62
     7
 10
1734.0387508064040958
 20
148.4037649995042045
 30
0.0
 40
48.3839999999952894
  1
available on request
  7
TITLE3
  0
TEXT
  5
19FF5
  8
0
 62
     7
 10
1734.0387508064040958
 20
231.3477649994960927
 30
0.0
 40
48.3839999999952894
  1
Certified dimensions
  7
TITLE3
  0
TEXT
  5
19FF6
  8
0
 62
     7
 10
1734.0387508064040958
 20
314.291764999487782
 30
0.0
 40
48.3839999999952894
  1
without notice or obligation.
  7
TITLE3
  0
TEXT
  5
19FF7
  8
0
 62
     7
 10
1734.0387508064040958
 20
397.2357649994797271
 30
0.0
 40
48.3839999999952894
  1
specifications at any time
  7
TITLE3
  0
TEXT
  5
19FF8
  8
0
 62
     7
 10
1734.0387508064040958
 20
480.1797649994716721
 30
0.0
 40
48.3839999999952894
  1
the right to change 
  7
TITLE3
  0
TEXT
  5
19FF9
  8
0
 62
     7
 10
1734.0387508064040958
 20
646.0677649994546528
 30
0.0
 40
48.3839999999952894
  1
NOTE
  7
TITLE3
  0
TEXT
  5
19FFA
  8
0
 62
     7
 10
1734.0387508064040958
 20
563.123764999463333
 30
0.0
 40
48.3839999999952894
  1
The manufacturer reserves
  7
TITLE3
  0
INSERT
  5
1A21F
  8
VISIBLE
  2
*U139
 10
0.0
 20
0.0
 30
0.0
  0
INSERT
  5
1A220
  8
VISIBLE
  2
*U140
 10
0.0
 20
0.0
 30
0.0
  0
LINE
  5
1A24F
  8
0
 62
     7
 10
2292.5838001756451376
 20
2419.6286887444098284
 30
0.0
 11
2292.5838001756451376
 21
2325.6622400641858803
 31
0.0
  0
LINE
  5
1A250
  8
0
 62
     7
 10
2333.672051548644049
 20
2353.0544076461869736
 30
0.0
 11
2961.7121798146999936
 21
2353.0544076461869736
 31
0.0
  0
SOLID
  5
1A251
  8
0
 62
     7
 10
2333.672051548644049
 20
2359.9024495416870195
 30
0.0
 11
2333.672051548644049
 21
2346.2063657506869276
 31
0.0
 12
2292.5838001756451376
 22
2353.0544076461869736
 32
0.0
 13
2292.5838001756451376
 23
2353.0544076461869736
 33
0.0
  0
LINE
  5
1A252
  8
0
 62
     7
 10
3796.4138004274450395
 20
2419.6286887444098284
 30
0.0
 11
3796.4138004274450395
 21
2325.6622400641858803
 31
0.0
  0
LINE
  5
1A253
  8
0
 62
     7
 10
3755.3255490544429449
 20
2353.0544076461869736
 30
0.0
 11
3087.259614565532047
 21
2353.0544076461869736
 31
0.0
  0
SOLID
  5
1A254
  8
0
 62
     7
 10
3755.3255490544429449
 20
2359.9024495416870195
 30
0.0
 11
3755.3255490544429449
 21
2346.2063657506869276
 31
0.0
 12
3796.4138004274450395
 22
2353.0544076461869736
 32
0.0
 13
3796.4138004274450395
 23
2353.0544076461869736
 33
0.0
  0
TEXT
  5
1A255
  8
0
 62
     7
 10
2970.273360666993085
 20
2335.6603812316147923
 30
0.0
 40
34.2402094775000023
  1
1505
  0
LINE
  5
1A275
  8
0
 62
     7
 10
2171.2138004274461309
 20
3297.1868473073050154
 30
0.0
 11
2171.2138004274461309
 21
3145.4286887444081913
 31
0.0
  0
LINE
  5
1A276
  8
0
 62
     7
 10
2207.2138004274470404
 20
3273.1868473073059249
 30
0.0
 11
2999.3421800664991679
 21
3273.1868473073050154
 31
0.0
  0
LINE
  5
1A278
  8
0
 62
     7
 10
4093.8138006792519263
 20
3297.1868473073050154
 30
0.0
 11
4093.8138006792519263
 21
3145.4286887444059175
 31
0.0
  0
LINE
  5
1A279
  8
0
 62
     7
 10
4057.8138006792528358
 20
3273.1868473073059249
 30
0.0
 11
3306.4075923771711132
 21
3273.1868473073050154
 31
0.0
  0
TEXT
  5
1A27B
  8
0
 62
     7
 10
3012.9132119503210561
 20
3255.7928208927360174
 30
0.0
 40
34.2402094775000023
  1
1923 CTRS
  0
LINE
  5
1A2B9
  8
0
 62
     7
 10
2208.0138004274372179
 20
3145.428688744406827
 30
0.0
 11
2208.0138004274372179
 21
3224.1844774134378895
 31
0.0
  0
LINE
  5
1A2BA
  8
0
 62
     7
 10
2244.0138004274381274
 20
3200.18447741343698
 30
0.0
 11
3028.6898428063509527
 21
3200.18447741343698
 31
0.0
  0
SOLID
  5
1A2BB
  8
0
 62
     7
 10
2244.0138004274381274
 20
3206.18447741343698
 30
0.0
 11
2244.0138004274381274
 21
3194.1844774134378895
 31
0.0
 12
2208.0138004274372179
 22
3200.18447741343698
 32
0.0
 13
2208.0138004274372179
 23
3200.18447741343698
 33
0.0
  0
LINE
  5
1A2BC
  8
0
 62
     7
 10
3979.1138004274389459
 20
3145.428688744406827
 30
0.0
 11
3979.1138004274389459
 21
3224.1844774134378895
 31
0.0
  0
LINE
  5
1A2BD
  8
0
 62
     7
 10
3943.1138004274398554
 20
3200.18447741343698
 30
0.0
 11
3167.4404509501500797
 21
3200.18447741343698
 31
0.0
  0
SOLID
  5
1A2BE
  8
0
 62
     7
 10
3943.1138004274398554
 20
3206.18447741343698
 30
0.0
 11
3943.1138004274398554
 21
3194.1844774134378895
 31
0.0
 12
3979.1138004274389459
 22
3200.18447741343698
 32
0.0
 13
3979.1138004274389459
 23
3200.18447741343698
 33
0.0
  0
TEXT
  5
1A2BF
  8
0
 62
     7
 10
3041.273962717932136
 20
3183.1126618271309781
 30
0.0
 40
34.2402094775000023
  1
1772
  0
LINE
  5
1A301
  8
0
 62
     7
 10
2127.7138004274461309
 20
3062.2786887444090098
 30
0.0
 11
2008.2119535799390633
 21
3062.2786887444090098
 31
0.0
  0
LINE
  5
1A302
  8
0
 62
     7
 10
2127.7138004274461309
 20
3062.2786887444090098
 30
0.0
 11
2008.2119535799390633
 21
3062.2786887444090098
 31
0.0
  0
LINE
  5
1A303
  8
0
 62
     7
 10
2032.2119535799349705
 20
3026.2786887444090098
 30
0.0
 11
2032.2119535799370169
 21
2835.5223383598390683
 31
0.0
  0
SOLID
  5
1A304
  8
0
 62
     7
 10
2038.2119535799390633
 20
3026.2786887444090098
 30
0.0
 11
2026.2119535799340611
 21
3026.2786887444090098
 31
0.0
 12
2032.2119535799349705
 22
3062.2786887444090098
 32
0.0
 13
2032.2119535799349705
 23
3062.2786887444090098
 33
0.0
  0
TEXT
  5
1A305
  8
0
 62
     7
 10
2047.2119535799379264
 20
2748.0233270946619086
 30
0.0
 40
30.0
  1
558
 50
90.0
  0
LINE
  5
1A306
  8
0
 62
     7
 10
2127.7138004274461309
 20
2504.5286887444099193
 30
0.0
 11
2008.2119535799390633
 21
2504.5286887444099193
 31
0.0
  0
LINE
  5
1A307
  8
0
 62
     7
 10
2032.2119535799349705
 20
2540.5286887444090098
 30
0.0
 11
2032.2119535799349705
 21
2740.5223383598381588
 31
0.0
  0
SOLID
  5
1A308
  8
0
 62
     7
 10
2038.2119535799390633
 20
2540.5286887444090098
 30
0.0
 11
2026.2119535799340611
 21
2540.5286887444090098
 31
0.0
 12
2032.2119535799349705
 22
2504.5286887444099193
 32
0.0
 13
2032.2119535799349705
 23
2504.5286887444099193
 33
0.0
  0
TEXT
  5
1A309
  8
0
 62
     7
 10
2091.6813553663109815
 20
2730.4029082893080158
 30
0.0
 40
30.0
  1
CTRS
 50
90.0
  0
SOLID
  5
1A30F
  8
0
 62
     7
 10
4057.8138006792528358
 20
3279.1868473073068344
 30
0.0
 11
4057.8138006792528358
 21
3267.1868473073059249
 31
0.0
 12
4093.8138006792519263
 22
3273.1868473073050154
 32
0.0
 13
4093.8138006792519263
 23
3273.1868473073050154
 33
0.0
  0
SOLID
  5
1A315
  8
0
 62
     7
 10
2207.2138004274470404
 20
3279.1868473073068344
 30
0.0
 11
2207.2138004274470404
 21
3267.1868473073059249
 31
0.0
 12
2171.2138004274461309
 22
3273.1868473073050154
 32
0.0
 13
2171.2138004274461309
 23
3273.1868473073050154
 33
0.0
  0
LINE
  5
1A5E1
  8
0
 62
     7
 10
2115.7594443701191267
 20
3093.7786887444081003
 30
0.0
 11
1864.6441245136220459
 21
3093.7786887444058266
 31
0.0
  0
LINE
  5
1A5E3
  8
0
 62
     7
 10
1888.6441245136190901
 20
3057.7786887444058266
 30
0.0
 11
1888.6441245136209091
 21
2831.0223383598358851
 31
0.0
  0
SOLID
  5
1A5E4
  8
0
 62
     7
 10
1894.6441245136229554
 20
3057.7786887444058266
 30
0.0
 11
1882.6441245136190901
 21
3057.7786887444058266
 31
0.0
 12
1888.6441245136190901
 22
3093.7786887444058266
 32
0.0
 13
1888.6441245136190901
 23
3093.7786887444058266
 33
0.0
  0
TEXT
  5
1A5E5
  8
0
 62
     7
 10
1903.6441245136220459
 20
2749.1661426839568776
 30
0.0
 40
30.0
  1
621
 50
90.0
  0
LINE
  5
1A5E6
  8
0
 62
     7
 10
2115.1018484208980226
 20
2471.1242644397348158
 30
0.0
 11
1863.9865285644009418
 21
2471.1242644397348158
 31
0.0
  0
LINE
  5
1A5E7
  8
0
 62
     7
 10
1888.6441245136190901
 20
2507.1242644397348158
 30
0.0
 11
1888.6441245136190901
 21
2736.0223383598340661
 31
0.0
  0
SOLID
  5
1A5E8
  8
0
 62
     7
 10
1893.9865285644009418
 20
2507.1242644397348158
 30
0.0
 11
1881.986528564397986
 21
2507.1242644397348158
 31
0.0
 12
1887.986528564397986
 22
2471.1242644397348158
 32
0.0
 13
1887.986528564397986
 23
2471.1242644397348158
 33
0.0
  0
TEXT
  5
1A5E9
  8
0
 62
     7
 10
1948.1135262999960105
 20
2564.1948600279079074
 30
0.0
 40
30.0
  1
SPRING MTG CTRS
 50
90.0
  0
LINE
  5
1A605
  8
0
 62
     7
 10
3161.0464024128250458
 20
2976.9770150055569502
 30
0.0
 11
3132.5138004274390369
 21
2944.8037823783711247
 31
0.0
  0
LINE
  5
1A606
  8
0
 62
     7
 10
3122.4638264499108118
 20
2994.4428158445689405
 30
0.0
 11
3142.5637744049658977
 21
2994.4428158445689405
 31
0.0
  0
LINE
  5
1A607
  8
0
 62
     7
 10
3142.5637744049658977
 20
2994.4428158445689405
 30
0.0
 11
3142.5637744049658977
 21
2976.9770150055560407
 31
0.0
  0
LINE
  5
1A608
  8
0
 62
     7
 10
3142.5637744049658977
 20
2976.9770150055560407
 30
0.0
 11
3161.0464024128250458
 21
2976.9770150055569502
 31
0.0
  0
LINE
  5
1A609
  8
0
 62
     7
 10
3103.9811984420562112
 20
2976.9770150055569502
 30
0.0
 11
3132.5138004274390369
 21
2944.8037823783711247
 31
0.0
  0
LINE
  5
1A60A
  8
0
 62
     7
 10
3122.4638264499108118
 20
2994.4428158445689405
 30
0.0
 11
3122.4638264499108118
 21
2976.9770150055560407
 31
0.0
  0
LINE
  5
1A60B
  8
0
 62
     7
 10
3122.4638264499108118
 20
2976.9770150055560407
 30
0.0
 11
3103.9811984420562112
 21
2976.9770150055569502
 31
0.0
  0
LINE
  5
1A617
  8
0
 62
     7
 10
3161.0464024128250458
 20
2606.1480785940411806
 30
0.0
 11
3132.5138004274390369
 21
2573.9748459668521718
 31
0.0
  0
LINE
  5
1A618
  8
0
 62
     7
 10
3122.4638264499108118
 20
2623.6138794330518067
 30
0.0
 11
3142.5637744049658977
 21
2623.6138794330518067
 31
0.0
  0
LINE
  5
1A619
  8
0
 62
     7
 10
3142.5637744049658977
 20
2623.6138794330518067
 30
0.0
 11
3142.5637744049658977
 21
2606.1480785940379974
 31
0.0
  0
LINE
  5
1A61A
  8
0
 62
     7
 10
3142.5637744049658977
 20
2606.1480785940379974
 30
0.0
 11
3161.0464024128250458
 21
2606.1480785940411806
 31
0.0
  0
LINE
  5
1A61B
  8
0
 62
     7
 10
3103.9811984420562112
 20
2606.1480785940411806
 30
0.0
 11
3132.5138004274390369
 21
2573.9748459668521718
 31
0.0
  0
LINE
  5
1A61C
  8
0
 62
     7
 10
3122.4638264499108118
 20
2623.6138794330518067
 30
0.0
 11
3122.4638264499108118
 21
2606.1480785940379974
 31
0.0
  0
LINE
  5
1A61D
  8
0
 62
     7
 10
3122.4638264499108118
 20
2606.1480785940379974
 30
0.0
 11
3103.9811984420562112
 21
2606.1480785940411806
 31
0.0
  0
LINE
  5
1A813
  8
0
 62
     7
 10
2157.2138004271100726
 20
976.2961323416828918
 30
0.0
 11
2157.2138004271100726
 21
882.3296836614589438
 31
0.0
  0
LINE
  5
1A814
  8
0
 62
     7
 10
2198.302051800108984
 20
909.7218512434599234
 30
0.0
 11
3015.131917494119989
 21
909.7218512434601507
 31
0.0
  0
SOLID
  5
1A815
  8
0
 62
     7
 10
2198.302051800108984
 20
916.5698931389601967
 30
0.0
 11
2198.302051800108984
 21
902.8738093479598774
 31
0.0
 12
2157.2138004271100726
 22
909.7218512434601507
 32
0.0
 13
2157.2138004271100726
 23
909.7218512434601507
 33
0.0
  0
LINE
  5
1A816
  8
0
 62
     7
 10
4179.0138006789084102
 20
976.2961323416828918
 30
0.0
 11
4179.0138006789084102
 21
882.3296836614589438
 31
0.0
  0
LINE
  5
1A817
  8
0
 62
     7
 10
4137.9255493059063156
 20
909.7218512434601507
 30
0.0
 11
3278.9530973417608948
 21
909.7218512434601507
 31
0.0
  0
SOLID
  5
1A818
  8
0
 62
     7
 10
4137.9255493059063156
 20
916.5698931389601967
 30
0.0
 11
4137.9255493059063156
 21
902.8738093479598774
 31
0.0
 12
4179.0138006789084102
 22
909.7218512434601507
 32
0.0
 13
4179.0138006789084102
 23
909.7218512434601507
 33
0.0
  0
TEXT
  5
1A819
  8
0
 62
     7
 10
3022.8480656458068552
 20
892.3278248288894474
 30
0.0
 40
34.2402094775000023
  1
2022 O/A
  0
LINE
  5
1A82B
  8
0
 62
     7
 10
5376.6913163544559211
 20
1073.3416732623390999
 30
0.0
 11
5471.1931632019632161
 21
1073.3416732623390999
 31
0.0
  0
LINE
  5
1A82D
  8
0
 62
     7
 10
5447.1931632019641256
 20
1109.3416732623390999
 30
0.0
 11
5447.1931632019641256
 21
1198.8378277251540567
 31
0.0
  0
SOLID
  5
1A82E
  8
0
 62
     7
 10
5441.1931632019623066
 20
1109.3416732623390999
 30
0.0
 11
5453.1931632019641256
 21
1109.3416732623390999
 31
0.0
 12
5447.1931632019641256
 22
1073.3416732623390999
 32
0.0
 13
5447.1931632019641256
 23
1073.3416732623390999
 33
0.0
  0
TEXT
  5
1A82F
  8
0
 62
     7
 10
5463.5793307502672178
 20
1214.6359521949179907
 30
0.0
 40
30.0
  1
365
 50
90.0
  0
LINE
  5
1A830
  8
0
 62
     7
 10
5376.6913163544559211
 20
1438.4916732623389635
 30
0.0
 11
5471.1931632019632161
 21
1438.4916732623389635
 31
0.0
  0
LINE
  5
1A831
  8
0
 62
     7
 10
5447.1931632019641256
 20
1402.4916732623389635
 30
0.0
 11
5447.1931632019641256
 21
1307.8994631316400046
 31
0.0
  0
SOLID
  5
1A832
  8
0
 62
     7
 10
5441.1931632019623066
 20
1402.4916732623389635
 30
0.0
 11
5453.1931632019641256
 21
1402.4916732623389635
 31
0.0
 12
5447.1931632019641256
 22
1438.4916732623389635
 32
0.0
 13
5447.1931632019641256
 23
1438.4916732623389635
 33
0.0
  0
LINE
  5
1A8A0
  8
0
 62
     7
 10
5376.6913163544559211
 20
1029.4916732623219104
 30
0.0
 11
5555.1759620972743505
 21
1029.4916732623219104
 31
0.0
  0
LINE
  5
1A8A2
  8
0
 62
     7
 10
5531.1759620972761695
 20
1065.4916732623219104
 30
0.0
 11
5531.1759620972761695
 21
1136.2638150028360542
 31
0.0
  0
SOLID
  5
1A8A3
  8
0
 62
     7
 10
5525.1759620972743505
 20
1065.4916732623219104
 30
0.0
 11
5537.1759620972761695
 21
1065.4916732623219104
 31
0.0
 12
5531.1759620972761695
 22
1029.4916732623219104
 32
0.0
 13
5531.1759620972761695
 23
1029.4916732623219104
 33
0.0
  0
TEXT
  5
1A8A4
  8
0
 62
     7
 10
5546.3618355276976217
 20
1145.5278600464030205
 30
0.0
 40
30.0
  1
432 O/A
 50
90.0
  0
LINE
  5
1A8A5
  8
0
 62
     7
 10
5376.6913163544559211
 20
1461.4416732623210464
 30
0.0
 11
5555.1759620972743505
 21
1461.4416732623210464
 31
0.0
  0
LINE
  5
1A8A6
  8
0
 62
     7
 10
5531.1759620972761695
 20
1425.4416732623210464
 30
0.0
 11
5531.1759620972761695
 21
1361.4455681969720899
 31
0.0
  0
SOLID
  5
1A8A7
  8
0
 62
     7
 10
5525.1759620972743505
 20
1425.4416732623210464
 30
0.0
 11
5537.1759620972761695
 21
1425.4416732623210464
 31
0.0
 12
5531.1759620972761695
 22
1461.4416732623210464
 32
0.0
 13
5531.1759620972761695
 23
1461.4416732623210464
 33
0.0
  0
LINE
  5
1A969
  8
0
 62
     7
 10
4659.0913163544901181
 20
987.0916732621401479
 30
0.0
 11
4659.0913163544901181
 21
893.1252245819158588
 31
0.0
  0
LINE
  5
1A96A
  8
0
 62
     7
 10
4700.1795677274913032
 20
920.5173921639168384
 30
0.0
 11
4879.392082926779949
 21
920.5173921639168384
 31
0.0
  0
SOLID
  5
1A96B
  8
0
 62
     7
 10
4700.1795677274913032
 20
927.3654340594173391
 30
0.0
 11
4700.1795677274913032
 21
913.6693502684170198
 31
0.0
 12
4659.0913163544901181
 22
920.5173921639168384
 32
0.0
 13
4659.0913163544901181
 23
920.5173921639168384
 33
0.0
  0
LINE
  5
1A96C
  8
0
 62
     7
 10
5356.3413166062919117
 20
987.0916732621401479
 30
0.0
 11
5356.3413166062919117
 21
893.1252245819158588
 31
0.0
  0
LINE
  5
1A96D
  8
0
 62
     7
 10
5315.2530652332889076
 20
920.5173921639168384
 30
0.0
 11
5142.3103597774634181
 21
920.5173921639168384
 31
0.0
  0
SOLID
  5
1A96E
  8
0
 62
     7
 10
5315.2530652332889076
 20
927.3654340594173391
 30
0.0
 11
5315.2530652332889076
 21
913.6693502684170198
 31
0.0
 12
5356.3413166062919117
 22
920.5173921639168384
 32
0.0
 13
5356.3413166062919117
 23
920.5173921639168384
 33
0.0
  0
TEXT
  5
1A96F
  8
0
 62
     7
 10
4890.1139668573823656
 20
903.1233657493462488
 30
0.0
 40
34.2402094775000023
  1
698 O/A
  0
LINE
  5
1A9DC
  8
0
 62
     7
 10
2271.6138004271151658
 20
1314.391200253623083
 30
0.0
 11
1997.1119535796090076
 21
1314.391200253623083
 31
0.0
  0
LINE
  5
1A9DD
  8
0
 62
     7
 10
2021.1119535796049149
 20
1278.391200253623083
 30
0.0
 11
2021.1119535796069613
 21
1239.4350457908080898
 31
0.0
  0
SOLID
  5
1A9DE
  8
0
 62
     7
 10
2027.1119535796090076
 20
1278.391200253623083
 30
0.0
 11
2015.1119535796049149
 21
1278.391200253623083
 31
0.0
 12
2021.1119535796049149
 22
1314.391200253623083
 32
0.0
 13
2021.1119535796049149
 23
1314.391200253623083
 33
0.0
  0
TEXT
  5
1A9DF
  8
0
 62
     7
 10
2036.1119535796069613
 20
1147.1086862023310005
 30
0.0
 40
30.0
  1
253
 50
90.0
  0
LINE
  5
1A9E0
  8
0
 62
     7
 10
2271.6138004271151658
 20
1061.4405318821900437
 30
0.0
 11
1997.1119535796090076
 21
1061.4405318821920901
 31
0.0
  0
LINE
  5
1A9E1
  8
0
 62
     7
 10
2021.1119535796049149
 20
1097.4405318821920901
 30
0.0
 11
2021.1119535796049149
 21
1135.0327420128899121
 31
0.0
  0
SOLID
  5
1A9E2
  8
0
 62
     7
 10
2027.1119535796090076
 20
1097.4405318821920901
 30
0.0
 11
2015.1119535796049149
 21
1097.4405318821920901
 31
0.0
 12
2021.1119535796049149
 22
1061.4405318821920901
 32
0.0
 13
2021.1119535796049149
 23
1061.4405318821920901
 33
0.0
  0
TEXT
  5
1A9F0
  8
0
 62
     7
 10
4173.7909832488239772
 20
2380.6639572740768926
 30
0.0
 40
25.0
  1
ELECTRIC
  7
TITLE3
  0
TEXT
  5
1A9F1
  8
0
 62
     7
 10
4173.7909832488239772
 20
2338.9972906074099228
 30
0.0
 40
25.0
  1
BOX
  7
TITLE3
  0
SOLID
  5
1A9F2
  8
0
 62
     7
 10
4061.7308023650480209
 20
2396.6056845993712159
 30
0.0
 11
4032.463800427435217
 21
2404.8786887444098284
 31
0.0
 12
4057.4656657808409363
 22
2387.5608733842050242
 32
0.0
 13
4057.4656657808409363
 23
2387.5608733842050242
 33
0.0
  0
LINE
  5
1A9F3
  8
0
 62
     7
 10
4059.5982340729451607
 20
2392.08327899178812
 30
0.0
 11
4101.4864672884032188
 21
2372.3306239407438625
 31
0.0
  0
LINE
  5
1A9F4
  8
0
 62
     7
 10
4101.4864672884032188
 20
2372.3306239407438625
 30
0.0
 11
4153.7909832488239772
 21
2372.3306239407438625
 31
0.0
  0
LINE
  5
1AA68
  8
0
 62
     7
 10
4705.2699841765634119
 20
1213.7169617280098919
 30
0.0
 11
4673.0967515493748579
 21
1242.2495637133949913
 31
0.0
  0
LINE
  5
1AA69
  8
0
 62
     7
 10
4727.6237850155757769
 20
1252.2995376909209426
 30
0.0
 11
4727.6237850155757769
 21
1232.1995897358649472
 31
0.0
  0
LINE
  5
1AA6A
  8
0
 62
     7
 10
4727.6237850155757769
 20
1232.1995897358649472
 30
0.0
 11
4705.2699841765634119
 21
1232.1995897358649472
 31
0.0
  0
LINE
  5
1AA6B
  8
0
 62
     7
 10
4705.2699841765634119
 20
1232.1995897358649472
 30
0.0
 11
4705.2699841765634119
 21
1213.7169617280098919
 31
0.0
  0
LINE
  5
1AA6C
  8
0
 62
     7
 10
4705.2699841765634119
 20
1270.7821656987769074
 30
0.0
 11
4673.0967515493748579
 21
1242.2495637133949913
 31
0.0
  0
LINE
  5
1AA6D
  8
0
 62
     7
 10
4727.6237850155757769
 20
1252.2995376909209426
 30
0.0
 11
4705.2699841765634119
 21
1252.2995376909209426
 31
0.0
  0
LINE
  5
1AA6E
  8
0
 62
     7
 10
4705.2699841765634119
 20
1252.2995376909209426
 30
0.0
 11
4705.2699841765634119
 21
1270.7821656987769074
 31
0.0
  0
LINE
  5
1AA7A
  8
0
 62
     7
 10
5265.631635748665758
 20
1213.7169617280098919
 30
0.0
 11
5233.458403121473566
 21
1242.2495637133949913
 31
0.0
  0
LINE
  5
1AA7B
  8
0
 62
     7
 10
5287.9854365876753945
 20
1252.2995376909209426
 30
0.0
 11
5287.9854365876753945
 21
1232.1995897358649472
 31
0.0
  0
LINE
  5
1AA7C
  8
0
 62
     7
 10
5287.9854365876753945
 20
1232.1995897358649472
 30
0.0
 11
5265.631635748665758
 21
1232.1995897358649472
 31
0.0
  0
LINE
  5
1AA7D
  8
0
 62
     7
 10
5265.631635748665758
 20
1232.1995897358649472
 30
0.0
 11
5265.631635748665758
 21
1213.7169617280098919
 31
0.0
  0
LINE
  5
1AA7E
  8
0
 62
     7
 10
5265.631635748665758
 20
1270.7821656987769074
 30
0.0
 11
5233.458403121473566
 21
1242.2495637133949913
 31
0.0
  0
LINE
  5
1AA7F
  8
0
 62
     7
 10
5287.9854365876753945
 20
1252.2995376909209426
 30
0.0
 11
5265.631635748665758
 21
1252.2995376909209426
 31
0.0
  0
LINE
  5
1AA80
  8
0
 62
     7
 10
5265.631635748665758
 20
1252.2995376909209426
 30
0.0
 11
5265.631635748665758
 21
1270.7821656987769074
 31
0.0
  0
LINE
  5
1AD4E
  8
VISIBLE
 10
2291.6138004274480409
 20
2439.6286887444098284
 30
0.0
 11
2291.6138004274480409
 21
2489.6286887444111926
 31
0.0
  0
LINE
  5
1AD4F
  8
VISIBLE
 10
3796.4138004274450395
 20
2439.6286887444098284
 30
0.0
 11
2291.6138004274480409
 21
2439.6286887444098284
 31
0.0
  0
LINE
  5
1AD50
  8
VISIBLE
 10
3796.4138004274450395
 20
2489.6286887444098284
 30
0.0
 11
3796.4138004274450395
 21
2439.6286887444098284
 31
0.0
  0
LINE
  5
1AD51
  8
VISIBLE
 10
4063.3138004274451305
 20
2489.6286887444098284
 30
0.0
 11
4063.3138004274451305
 21
2519.8786887444080094
 31
0.0
  0
LINE
  5
1AD52
  8
VISIBLE
 10
2201.7138004274488594
 20
2519.8786887444089189
 30
0.0
 11
2201.7138004274488594
 21
2489.6286887444111926
 31
0.0
  0
LINE
  5
1AD53
  8
VISIBLE
 10
4063.3138004274451305
 20
2489.6286887444098284
 30
0.0
 11
2201.7138004274488594
 21
2489.6286887444111926
 31
0.0
  0
LINE
  5
1AD54
  8
VISIBLE
 10
4032.4638004274479499
 20
2489.6286887444098284
 30
0.0
 11
4032.4638004274461309
 21
2398.1786887444118292
 31
0.0
  0
LINE
  5
1AD55
  8
VISIBLE
 10
4032.4638004274461309
 20
2398.1786887444118292
 30
0.0
 11
3877.4638004274452214
 21
2398.1786887444168315
 31
0.0
  0
LINE
  5
1AD56
  8
VISIBLE
 10
3877.4638004274452214
 20
2398.1786887444168315
 30
0.0
 11
3877.4638004274452214
 21
2489.6286887444098284
 31
0.0
  0
LINE
  5
1AD57
  8
VISIBLE
 10
4101.813800427442402
 20
3075.7786887444058266
 30
0.0
 11
4107.813800427442402
 21
3069.7786887444071908
 31
0.0
  0
LINE
  5
1AD58
  8
VISIBLE
 10
4079.8138004274428567
 20
3069.7786887444071908
 30
0.0
 11
4085.8138004274419472
 21
3075.7786887444058266
 31
0.0
  0
LINE
  5
1AD59
  8
VISIBLE
 10
4107.813800427442402
 20
3049.5286887444058266
 30
0.0
 11
4107.813800427442402
 21
3069.7786887444071908
 31
0.0
  0
LINE
  5
1AD5A
  8
VISIBLE
 10
4101.813800427442402
 20
3075.7786887444058266
 30
0.0
 11
4085.8138004274419472
 21
3075.7786887444058266
 31
0.0
  0
LINE
  5
1AD5B
  8
VISIBLE
 10
4079.8138004274428567
 20
3045.9286887444091008
 30
0.0
 11
4079.8138004274428567
 21
3069.7786887444071908
 31
0.0
  0
ARC
  5
1AD5C
  8
VISIBLE
 10
4093.8138004274428567
 20
3059.7786887444058266
 30
0.0
 40
5.9999999999999973
 50
155.3756816478166911
 51
24.6243183521832805
  0
ARC
  5
1AD5D
  8
VISIBLE
 10
4093.8138004274428567
 20
3064.7786887444058266
 30
0.0
 40
5.9999999999999973
 50
335.3756816478166911
 51
204.6243183521833089
  0
LINE
  5
1AD5E
  8
VISIBLE
 10
4103.9638004274456762
 20
3045.7786887444058266
 30
0.0
 11
4107.813800427442402
 21
3045.7786887444058266
 31
0.0
  0
LINE
  5
1AD5F
  8
VISIBLE
 10
4107.813800427442402
 20
3049.5286887444058266
 30
0.0
 11
4107.813800427442402
 21
3045.7786887444058266
 31
0.0
  0
LINE
  5
1AD60
  8
VISIBLE
 10
4079.813800427444221
 20
2517.2786887444071908
 30
0.0
 11
4079.813800427444221
 21
2491.0286887444071908
 31
0.0
  0
LINE
  5
1AD61
  8
VISIBLE
 10
4079.813800427444221
 20
2491.0286887444071908
 30
0.0
 11
4107.8138004274451305
 21
2491.0286887444071908
 31
0.0
  0
LINE
  5
1AD62
  8
VISIBLE
 10
4107.8138004274451305
 20
2517.2786887444081003
 30
0.0
 11
4107.8138004274451305
 21
2491.0286887444071908
 31
0.0
  0
ARC
  5
1AD63
  8
VISIBLE
 10
4093.8138004274451305
 20
2507.0286887444081003
 30
0.0
 40
6.0000000000000018
 50
335.3756816478166911
 51
204.6243183521833089
  0
ARC
  5
1AD64
  8
VISIBLE
 10
4093.8138004274451305
 20
2502.0286887444081003
 30
0.0
 40
6.0000000000000018
 50
155.3756816478166911
 51
24.6243183521832805
  0
LINE
  5
1AD65
  8
VISIBLE
 10
4107.8138004274451305
 20
2517.2786887444071908
 30
0.0
 11
4107.8138004274451305
 21
2521.0286887444081003
 31
0.0
  0
LINE
  5
1AD66
  8
VISIBLE
 10
4117.313800427444221
 20
2521.0286887444058266
 30
0.0
 11
4103.9638004274456762
 21
2521.0286887444058266
 31
0.0
  0
LINE
  5
1AD67
  8
VISIBLE
 10
4079.813800427444221
 20
2517.2786887444071908
 30
0.0
 11
4079.813800427444221
 21
2519.8786887444080094
 31
0.0
  0
LINE
  5
1AD68
  8
VISIBLE
 10
2157.2138004274452214
 20
2517.2786887444090098
 30
0.0
 11
2157.2138004274438572
 21
2491.0286887444090098
 31
0.0
  0
LINE
  5
1AD69
  8
VISIBLE
 10
2157.2138004274438572
 20
2491.0286887444090098
 30
0.0
 11
2185.2138004274452214
 21
2491.0286887444081003
 31
0.0
  0
LINE
  5
1AD6A
  8
VISIBLE
 10
2185.2138004274452214
 20
2517.2786887444081003
 30
0.0
 11
2185.2138004274452214
 21
2491.0286887444081003
 31
0.0
  0
ARC
  5
1AD6B
  8
VISIBLE
 10
2171.2138004274452214
 20
2507.0286887444090098
 30
0.0
 40
6.0000000000000018
 50
335.3756816478166911
 51
204.6243183521833089
  0
ARC
  5
1AD6C
  8
VISIBLE
 10
2171.2138004274452214
 20
2502.0286887444090098
 30
0.0
 40
6.0000000000000018
 50
155.3756816478166911
 51
24.6243183521832805
  0
LINE
  5
1AD6D
  8
VISIBLE
 10
2185.2138004274452214
 20
2517.2786887444081003
 30
0.0
 11
2185.2138004274452214
 21
2519.8786887444089189
 31
0.0
  0
LINE
  5
1AD6E
  8
VISIBLE
 10
2161.0638004274451305
 20
2521.0286887444090098
 30
0.0
 11
2157.2138004274452214
 21
2521.0286887444090098
 31
0.0
  0
LINE
  5
1AD6F
  8
VISIBLE
 10
2157.2138004274452214
 20
2517.2786887444090098
 30
0.0
 11
2157.2138004274452214
 21
2521.0286887444090098
 31
0.0
  0
LINE
  5
1AD70
  8
VISIBLE
 10
2185.2138004274452214
 20
3045.9286887444091008
 30
0.0
 11
2185.2138004274452214
 21
3075.7786887444081003
 31
0.0
  0
LINE
  5
1AD71
  8
VISIBLE
 10
2185.2138004274452214
 20
3075.7786887444081003
 30
0.0
 11
2157.2138004274452214
 21
3075.7786887444081003
 31
0.0
  0
LINE
  5
1AD72
  8
VISIBLE
 10
2157.2138004274461309
 20
3045.7786887444081003
 30
0.0
 11
2157.2138004274452214
 21
3075.7786887444081003
 31
0.0
  0
ARC
  5
1AD73
  8
VISIBLE
 10
2171.2138004274461309
 20
3059.7786887444081003
 30
0.0
 40
6.0
 50
155.3756816478166911
 51
24.6243183521832805
  0
ARC
  5
1AD74
  8
VISIBLE
 10
2171.2138004274461309
 20
3064.7786887444081003
 30
0.0
 40
6.0
 50
335.3756816478166911
 51
204.6243183521833089
  0
CIRCLE
  5
1AD75
  8
VISIBLE
 10
2171.2138004274461309
 20
3093.7786887444081003
 30
0.0
 40
8.4999999999999964
  0
LINE
  5
1AD76
  8
VISIBLE
 10
2151.2138004274461309
 20
3111.7786887444058266
 30
0.0
 11
2191.2138004274452214
 21
3111.7786887444071908
 31
0.0
  0
LINE
  5
1AD77
  8
VISIBLE
 10
2192.2138004274452214
 20
3111.7786887444071908
 30
0.0
 11
2191.2138004274452214
 21
3111.7786887444071908
 31
0.0
  0
LINE
  5
1AD78
  8
VISIBLE
 10
2151.2138004274452214
 20
3111.7786887444058266
 30
0.0
 11
2150.2138004274461309
 21
3111.7786887444058266
 31
0.0
  0
LINE
  5
1AD79
  8
VISIBLE
 10
2161.06380042744604
 20
3045.7786887444081003
 30
0.0
 11
2147.7138004274452214
 21
3045.7786887444081003
 31
0.0
  0
LINE
  5
1AD7A
  8
VISIBLE
 10
2147.7138004274461309
 20
3070.7786887444071908
 30
0.0
 11
2147.7138004274452214
 21
3045.7786887444081003
 31
0.0
  0
LINE
  5
1AD7B
  8
VISIBLE
 10
2147.7138004274452214
 20
3111.7786887444058266
 30
0.0
 11
2147.7138004274452214
 21
3070.7786887444071908
 31
0.0
  0
LINE
  5
1AD7C
  8
VISIBLE
 10
2194.7138004274452214
 20
3111.7786887444071908
 30
0.0
 11
2194.7138004274461309
 21
3045.928688744406827
 31
0.0
  0
LINE
  5
1AD7D
  8
VISIBLE
 10
2194.7138004274452214
 20
3111.7786887444071908
 30
0.0
 11
2192.2138004274452214
 21
3111.7786887444071908
 31
0.0
  0
LINE
  5
1AD7E
  8
VISIBLE
 10
2150.2138004274461309
 20
3111.7786887444058266
 30
0.0
 11
2147.7138004274452214
 21
3111.7786887444058266
 31
0.0
  0
CIRCLE
  5
1AD7F
  8
VISIBLE
 10
2171.2138004274452214
 20
2473.0286887444099193
 30
0.0
 40
8.4999999999999982
  0
LINE
  5
1AD80
  8
VISIBLE
 10
2194.7138004274438572
 20
2455.0286887444099193
 30
0.0
 11
2147.7138004274438572
 21
2455.0286887444099193
 31
0.0
  0
LINE
  5
1AD81
  8
VISIBLE
 10
2147.7138004274438572
 20
2521.0286887444099193
 30
0.0
 11
2157.2138004274452214
 21
2521.0286887444099193
 31
0.0
  0
LINE
  5
1AD82
  8
VISIBLE
 10
2194.7138004274438572
 20
2455.0286887444099193
 30
0.0
 11
2194.7138004274438572
 21
2519.8786887444089189
 31
0.0
  0
LINE
  5
1AD83
  8
VISIBLE
 10
2147.7138004274438572
 20
2455.0286887444099193
 30
0.0
 11
2147.7138004274438572
 21
2521.0286887444099193
 31
0.0
  0
CIRCLE
  5
1AD84
  8
VISIBLE
 10
4093.8138004274451305
 20
2473.0286887444058266
 30
0.0
 40
8.5000000000000018
  0
LINE
  5
1AD85
  8
VISIBLE
 10
4117.313800427444221
 20
2455.0286887444058266
 30
0.0
 11
4070.31380042744604
 21
2455.0286887444058266
 31
0.0
  0
LINE
  5
1AD86
  8
VISIBLE
 10
4117.313800427444221
 20
2496.0286887444058266
 30
0.0
 11
4117.313800427444221
 21
2521.0286887444058266
 31
0.0
  0
LINE
  5
1AD87
  8
VISIBLE
 10
4117.313800427444221
 20
2455.0286887444058266
 30
0.0
 11
4117.313800427444221
 21
2496.0286887444058266
 31
0.0
  0
LINE
  5
1AD88
  8
VISIBLE
 10
4070.31380042744604
 20
2455.0286887444058266
 30
0.0
 11
4070.313800427444221
 21
2519.8786887444048261
 31
0.0
  0
CIRCLE
  5
1AD89
  8
VISIBLE
 10
4093.8138004274428567
 20
3093.7786887444081003
 30
0.0
 40
8.5000000000000018
  0
LINE
  5
1AD8A
  8
VISIBLE
 10
4070.3138004274419472
 20
3111.7786887444071908
 30
0.0
 11
4117.313800427442402
 21
3111.7786887444071908
 31
0.0
  0
LINE
  5
1AD8B
  8
VISIBLE
 10
4117.313800427442402
 20
3045.7786887444081003
 30
0.0
 11
4107.813800427442402
 21
3045.7786887444081003
 31
0.0
  0
LINE
  5
1AD8C
  8
VISIBLE
 10
4117.313800427442402
 20
3057.7786887444081003
 30
0.0
 11
4117.313800427442402
 21
3045.7786887444081003
 31
0.0
  0
LINE
  5
1AD8D
  8
VISIBLE
 10
4070.3138004274419472
 20
3111.7786887444071908
 30
0.0
 11
4070.3138004274419472
 21
3045.9286887444091008
 31
0.0
  0
LINE
  5
1AD8E
  8
VISIBLE
 10
4117.313800427442402
 20
3070.7786887444071908
 30
0.0
 11
4117.313800427442402
 21
3057.7786887444081003
 31
0.0
  0
LINE
  5
1AD8F
  8
VISIBLE
 10
4117.313800427442402
 20
3111.7786887444071908
 30
0.0
 11
4117.313800427442402
 21
3070.7786887444071908
 31
0.0
  0
LINE
  5
1AD90
  8
VISIBLE
 10
4117.9638004274447667
 20
2957.7786887444081003
 30
0.0
 11
4103.9638004274456762
 21
2957.7786887444081003
 31
0.0
  0
LINE
  5
1AD91
  8
VISIBLE
 10
4103.9638004274456762
 20
2535.8786887444089189
 30
0.0
 11
4117.9638004274447667
 21
2535.8786887444089189
 31
0.0
  0
LINE
  5
1AD92
  8
VISIBLE
 10
4117.9638004274447667
 20
2957.7786887444081003
 30
0.0
 11
4117.9638004274447667
 21
2535.8786887444089189
 31
0.0
  0
LINE
  5
1AD93
  8
VISIBLE
 10
2161.0638004274451305
 20
2519.8786887444089189
 30
0.0
 11
2161.06380042744604
 21
3045.9286887444091008
 31
0.0
  0
LINE
  5
1AD94
  8
VISIBLE
 10
4103.9638004274456762
 20
3045.9286887444091008
 30
0.0
 11
4103.9638004274456762
 21
2519.8786887444080094
 31
0.0
  0
LINE
  5
1AD95
  8
VISIBLE
 10
2161.06380042744604
 20
3045.9286887444091008
 30
0.0
 11
4103.9638004274456762
 21
3045.9286887444091008
 31
0.0
  0
LINE
  5
1AD96
  8
VISIBLE
 10
4103.9638004274456762
 20
2519.8786887444080094
 30
0.0
 11
2161.0638004274451305
 21
2519.8786887444089189
 31
0.0
  0
LINE
  5
1AD97
  8
VISIBLE
 10
2209.9638004274461309
 20
3096.1286887444089189
 30
0.0
 11
2208.0138004274458581
 21
3096.1286887444089189
 31
0.0
  0
LINE
  5
1AD98
  8
VISIBLE
 10
2208.0138004274458581
 20
3045.9286887444091008
 30
0.0
 11
2208.0138004274458581
 21
3096.1286887444089189
 31
0.0
  0
LINE
  5
1AD99
  8
VISIBLE
 10
2209.9638004274461309
 20
3096.1286887444089189
 30
0.0
 11
3978.06380042744604
 21
3096.1286887444070999
 31
0.0
  0
LINE
  5
1AD9A
  8
VISIBLE
 10
3980.0138004274458581
 20
3045.9286887444091008
 30
0.0
 11
3980.0138004274458581
 21
3096.1286887444130116
 31
0.0
  0
LINE
  5
1AD9B
  8
VISIBLE
 10
3980.0138004274458581
 20
3096.1286887444130116
 30
0.0
 11
3978.0638004274469495
 21
3096.1286887444130116
 31
0.0
  0
LINE
  5
1AD9C
  8
VISIBLE
 10
4155.622868870244929
 20
2804.6636887444069544
 30
0.0
 11
4155.622868870244929
 21
2833.2636887444068634
 31
0.0
  0
LINE
  5
1AD9D
  8
VISIBLE
 10
4117.9638004274447667
 20
2833.2636887444068634
 30
0.0
 11
4155.622868870244929
 21
2833.2636887444068634
 31
0.0
  0
LINE
  5
1AD9E
  8
VISIBLE
 10
4117.9638004274447667
 20
2804.6636887444069544
 30
0.0
 11
4155.622868870244929
 21
2804.6636887444069544
 31
0.0
  0
LINE
  5
1AD9F
  8
VISIBLE
 10
4155.623143816578704
 20
2834.5236887444070817
 30
0.0
 11
4155.623143816578704
 21
2803.4036887444081003
 31
0.0
  0
LINE
  5
1ADA0
  8
VISIBLE
 10
4177.623143816578704
 20
2803.4036887444081003
 30
0.0
 11
4155.623143816578704
 21
2803.4036887444081003
 31
0.0
  0
LINE
  5
1ADA1
  8
VISIBLE
 10
4177.623143816578704
 20
2834.5236887444070817
 30
0.0
 11
4155.623143816578704
 21
2834.5236887444070817
 31
0.0
  0
LINE
  5
1ADA2
  8
VISIBLE
 10
4177.623143816578704
 20
2834.5236887444070817
 30
0.0
 11
4177.623143816578704
 21
2803.4036887444081003
 31
0.0
  0
LINE
  5
1ADA3
  8
VISIBLE
 10
4147.5161438165796426
 20
2872.0786887444128297
 30
0.0
 11
4147.5161438165796426
 21
2884.7786887444131025
 31
0.0
  0
LINE
  5
1ADA4
  8
VISIBLE
 10
4117.9638004274447667
 20
2884.7786887444131025
 30
0.0
 11
4147.5161438165796426
 21
2884.7786887444131025
 31
0.0
  0
LINE
  5
1ADA5
  8
VISIBLE
 10
4117.9638004274447667
 20
2872.0786887444128297
 30
0.0
 11
4147.5161438165796426
 21
2872.0786887444128297
 31
0.0
  0
LINE
  5
1ADA6
  8
VISIBLE
 10
4160.2161438165785512
 20
2885.6886887444138665
 30
0.0
 11
4160.2161438165785512
 21
2871.1686887444138847
 31
0.0
  0
LINE
  5
1ADA7
  8
VISIBLE
 10
4147.5161438165796426
 20
2885.6886887444138665
 30
0.0
 11
4147.5161438165796426
 21
2871.1686887444138847
 31
0.0
  0
LINE
  5
1ADA8
  8
VISIBLE
 10
4160.2161438165785512
 20
2871.1686887444138847
 30
0.0
 11
4147.5161438165796426
 21
2871.1686887444138847
 31
0.0
  0
LINE
  5
1ADA9
  8
VISIBLE
 10
4160.2161438165785512
 20
2885.6886887444138665
 30
0.0
 11
4147.5161438165796426
 21
2885.6886887444138665
 31
0.0
  0
LINE
  5
1AE4B
  8
VISIBLE
 10
4133.0638004271122554
 20
1066.6778999284249494
 30
0.0
 11
4133.0638004271122554
 21
1046.6778999284260863
 31
0.0
  0
LINE
  5
1AE4C
  8
VISIBLE
 10
4103.9604734125250616
 20
1066.6778414747670922
 30
0.0
 11
4133.0638004271122554
 21
1066.6778999284249494
 31
0.0
  0
LINE
  5
1AE4D
  8
VISIBLE
 10
4103.9622630552676128
 20
1046.675296192029009
 30
0.0
 11
4133.0638004271122554
 21
1046.6778999284260863
 31
0.0
  0
LINE
  5
1AE4E
  8
VISIBLE
 10
3796.4138004271139835
 20
1061.4412002537380886
 30
0.0
 11
3796.413800427113074
 21
1314.3912002536219461
 31
0.0
  0
LINE
  5
1AE4F
  8
VISIBLE
 10
2291.6138004271001591
 20
1061.4412002536450927
 30
0.0
 11
3796.4138004271139835
 21
1061.4412002537380886
 31
0.0
  0
LINE
  5
1AE50
  8
VISIBLE
 10
2291.6138004271151658
 20
1314.391200253623083
 30
0.0
 11
2291.6138004271001591
 21
1061.4412002536450927
 31
0.0
  0
LINE
  5
1AE51
  8
VISIBLE
 10
3796.413800427113074
 20
1314.3912002536219461
 30
0.0
 11
2291.6138004271151658
 21
1314.391200253623083
 31
0.0
  0
LINE
  5
1AE52
  8
VISIBLE
 10
4063.3138004271118007
 20
1461.4923416341071061
 30
0.0
 11
4063.3138004271118007
 21
1029.4923416341080156
 31
0.0
  0
LINE
  5
1AE53
  8
VISIBLE
 10
2201.7138004271159843
 20
1029.4923416341080156
 30
0.0
 11
2201.7138004271159843
 21
1461.4923416341071061
 31
0.0
  0
LINE
  5
1AE54
  8
VISIBLE
 10
3438.6138004271128921
 20
1061.4412002537160333
 30
0.0
 11
3438.6138004271128921
 21
1248.3912002536369528
 31
0.0
  0
LINE
  5
1AE55
  8
VISIBLE
 10
3438.6138004271128921
 20
1248.3912002536369528
 30
0.0
 11
3769.413800427113074
 21
1248.3912002536369528
 31
0.0
  0
LINE
  5
1AE56
  8
VISIBLE
 10
3769.413800427113074
 20
1248.3912002536369528
 30
0.0
 11
3769.413800427113074
 21
1061.4412002537360422
 31
0.0
  0
LINE
  5
1AE57
  8
VISIBLE
 10
2868.6138004271151658
 20
1061.4412002536810178
 30
0.0
 11
2868.6138004271151658
 21
1248.3912002536369528
 31
0.0
  0
LINE
  5
1AE58
  8
VISIBLE
 10
2868.6138004271151658
 20
1248.3912002536369528
 30
0.0
 11
3199.4138004271139835
 21
1248.3912002536369528
 31
0.0
  0
LINE
  5
1AE59
  8
VISIBLE
 10
3199.4138004271139835
 20
1248.3912002536369528
 30
0.0
 11
3199.4138004271248974
 21
1061.4412002537010267
 31
0.0
  0
LINE
  5
1AE5A
  8
VISIBLE
 10
2318.6138004271151658
 20
1248.3912002536380896
 30
0.0
 11
2649.413800427114893
 21
1248.3912002536380896
 31
0.0
  0
LINE
  5
1AE5B
  8
VISIBLE
 10
2649.413800427114893
 20
1248.3912002536380896
 30
0.0
 11
2649.4138004271258069
 21
1061.4412002536680575
 31
0.0
  0
LINE
  5
1AE5C
  8
VISIBLE
 10
2318.6138004271151658
 20
1061.4412002536469117
 30
0.0
 11
2318.6138004271151658
 21
1248.3912002536380896
 31
0.0
  0
LINE
  5
1AE5D
  8
VISIBLE
 10
3877.4638004271128011
 20
1087.0923416340790482
 30
0.0
 11
4032.4638004271118916
 21
1087.0923416340779113
 31
0.0
  0
LINE
  5
1AE5E
  8
VISIBLE
 10
3877.4638004271128011
 20
1396.0923416340810945
 30
0.0
 11
4032.4638004271128011
 21
1396.0923416340799577
 31
0.0
  0
LINE
  5
1AE5F
  8
VISIBLE
 10
3877.4638004271128011
 20
1396.0923416340810945
 30
0.0
 11
3877.4638004271128011
 21
1087.0923416340790482
 31
0.0
  0
LINE
  5
1AE60
  8
VISIBLE
 10
4032.4638004271128011
 20
1396.0923416340799577
 30
0.0
 11
4032.4638004271118916
 21
1087.0923416340779113
 31
0.0
  0
LINE
  5
1AE61
  8
VISIBLE
 10
4079.8138004271131649
 20
1459.4423416340989661
 30
0.0
 11
4107.8138004271131649
 21
1459.4423416340989661
 31
0.0
  0
LINE
  5
1AE62
  8
VISIBLE
 10
4107.8138004271131649
 20
1376.4423416341069242
 30
0.0
 11
4079.8138004271131649
 21
1376.4423416341069242
 31
0.0
  0
LINE
  5
1AE63
  8
VISIBLE
 10
4107.8138004271131649
 20
1461.4923416341071061
 30
0.0
 11
4107.8138004271131649
 21
1376.4423416341069242
 31
0.0
  0
LINE
  5
1AE64
  8
VISIBLE
 10
4079.8138004271131649
 20
1376.4423416341069242
 30
0.0
 11
4079.8138004271131649
 21
1461.4923416341071061
 31
0.0
  0
LINE
  5
1AE65
  8
VISIBLE
 10
2157.2138004271128011
 20
1459.4423416340980566
 30
0.0
 11
2185.2138004271118916
 21
1459.4423416340980566
 31
0.0
  0
LINE
  5
1AE66
  8
VISIBLE
 10
2185.2138004271118916
 20
1376.4423416341060147
 30
0.0
 11
2157.2138004271128011
 21
1376.4423416341060147
 31
0.0
  0
LINE
  5
1AE67
  8
VISIBLE
 10
2185.2138004271118916
 20
1461.4923416341071061
 30
0.0
 11
2185.2138004271118916
 21
1376.4423416341060147
 31
0.0
  0
LINE
  5
1AE68
  8
VISIBLE
 10
2157.2138004271128011
 20
1029.4923416341080156
 30
0.0
 11
2157.2138004271128011
 21
1461.4923416341071061
 31
0.0
  0
LINE
  5
1AE69
  8
VISIBLE
 10
4103.95326524621305
 20
1147.2423416341121083
 30
0.0
 11
4117.9638004271118916
 21
1147.2423416341121083
 31
0.0
  0
LINE
  5
1AE6A
  8
VISIBLE
 10
4117.9638004271118916
 20
1442.1423416341131087
 30
0.0
 11
4107.8138004271131649
 21
1442.1423416341140182
 31
0.0
  0
LINE
  5
1AE6B
  8
VISIBLE
 10
4117.9638004271118916
 20
1442.1423416341131087
 30
0.0
 11
4117.9638004271118916
 21
1147.2423416341121083
 31
0.0
  0
LINE
  5
1AE6E
  8
VISIBLE
 10
4103.9638004271118916
 20
1029.4923416341080156
 30
0.0
 11
4103.9327585501432623
 21
1376.4423416341069242
 31
0.0
  0
LINE
  5
1AE6F
  8
VISIBLE
 10
4103.9638004271118916
 20
1029.4923416341080156
 30
0.0
 11
2157.2138004271128011
 21
1029.4923416341080156
 31
0.0
  0
LINE
  5
1AE70
  8
VISIBLE
 10
4063.3138004271118007
 20
1442.4423416335630463
 30
0.0
 11
4079.8138004271131649
 21
1442.4423416335630463
 31
0.0
  0
LINE
  5
1AE71
  8
VISIBLE
 10
2185.2138004271118916
 20
1442.4423416341069242
 30
0.0
 11
2201.7138004271118916
 21
1442.4423416341069242
 31
0.0
  0
LINE
  5
1AE72
  8
VISIBLE
 10
2157.2138004271128011
 20
1461.4923416341071061
 30
0.0
 11
4107.8138004271131649
 21
1461.4923416341071061
 31
0.0
  0
LINE
  5
1AE73
  8
VISIBLE
 10
4155.6228688699120539
 20
1089.9328416341959382
 30
0.0
 11
4155.6228688699120539
 21
1121.0528416341960565
 31
0.0
  0
LINE
  5
1AE74
  8
VISIBLE
 10
4103.9557211735846067
 20
1119.7928416341960656
 30
0.0
 11
4155.6228688699120539
 21
1119.7928416341960656
 31
0.0
  0
LINE
  5
1AE75
  8
VISIBLE
 10
4103.9582800370562836
 20
1091.1928416341959291
 30
0.0
 11
4155.6228688699120539
 21
1091.1928416341959291
 31
0.0
  0
LINE
  5
1AE76
  8
VISIBLE
 10
4177.6231438162467384
 20
1089.9328416341959382
 30
0.0
 11
4155.6228688699120539
 21
1089.9328416341959382
 31
0.0
  0
LINE
  5
1AE77
  8
VISIBLE
 10
4177.6231438162467384
 20
1121.0528416341960565
 30
0.0
 11
4155.6228688699120539
 21
1121.0528416341960565
 31
0.0
  0
LINE
  5
1AE78
  8
VISIBLE
 10
4177.6231438162467384
 20
1121.0528416341960565
 30
0.0
 11
4177.6231438162467384
 21
1089.9328416341959382
 31
0.0
  0
CIRCLE
  5
1AEEF
  8
VISIBLE
 10
5072.5413163546118085
 20
1056.6772315564860492
 30
0.0
 40
9.9999999999999591
  0
LINE
  5
1AEF0
  8
VISIBLE
 10
4658.7413163544815689
 20
1396.0916732621399206
 30
0.0
 11
4750.1913163544895724
 21
1396.0916732621660685
 31
0.0
  0
LINE
  5
1AEF1
  8
VISIBLE
 10
4658.7413163544815689
 20
1396.0916732621399206
 30
0.0
 11
4658.7413163545634234
 21
1087.0916732621399206
 31
0.0
  0
LINE
  5
1AEF2
  8
VISIBLE
 10
4750.1913163545796124
 20
1087.091673262166978
 30
0.0
 11
4658.7413163545634234
 21
1087.0916732621399206
 31
0.0
  0
LINE
  5
1AEF3
  8
VISIBLE
 10
4750.1913163544713825
 20
1456.8456577513179582
 30
0.0
 11
4779.5913163544828421
 21
1456.8456577513270531
 31
0.0
  0
LINE
  5
1AEF4
  8
VISIBLE
 10
4750.1913163545968928
 20
1029.4916732621591109
 30
0.0
 11
4750.1913163544713825
 21
1456.8456577513179582
 31
0.0
  0
LINE
  5
1AEF5
  8
VISIBLE
 10
4700.1913163545086718
 20
1061.4405318817980515
 30
0.0
 11
4700.1913163545023053
 21
1087.0916732621510619
 31
0.0
  0
LINE
  5
1AEF6
  8
VISIBLE
 10
4750.1913163545877978
 20
1061.4405318818130581
 30
0.0
 11
4700.1913163545086718
 21
1061.4405318817980515
 31
0.0
  0
LINE
  5
1AEF7
  8
VISIBLE
 10
5336.3413163544792042
 20
1459.4416732623319604
 30
0.0
 11
5336.3413163544792042
 21
1461.4916732623330518
 31
0.0
  0
LINE
  5
1AEF8
  8
VISIBLE
 10
5306.3413163545055795
 20
1376.4416732623240023
 30
0.0
 11
5308.3413163545073985
 21
1376.4416732623249118
 31
0.0
  0
LINE
  5
1AEF9
  8
VISIBLE
 10
5308.3413163544819326
 20
1459.4416732623240023
 30
0.0
 11
5336.3413163544792042
 21
1459.4416732623319604
 31
0.0
  0
LINE
  5
1AEFA
  8
VISIBLE
 10
5308.3413163545073985
 20
1376.4416732623249118
 30
0.0
 11
5308.3413163544819326
 21
1459.4416732623240023
 31
0.0
  0
LINE
  5
1AEFB
  8
VISIBLE
 10
5306.3413163545055795
 20
1376.4416732623240023
 30
0.0
 11
5306.3413163544810232
 21
1461.4916732623239568
 31
0.0
  0
LINE
  5
1AEFC
  8
VISIBLE
 10
4751.5913163544801137
 20
1461.491673262157974
 30
0.0
 11
4751.5913163544801137
 21
1459.441673262158929
 31
0.0
  0
LINE
  5
1AEFD
  8
VISIBLE
 10
4779.591316354508308
 20
1376.4416732621680239
 30
0.0
 11
4782.3913163545048519
 21
1376.4416732621689334
 31
0.0
  0
LINE
  5
1AEFE
  8
VISIBLE
 10
4751.5913163544801137
 20
1459.441673262158929
 30
0.0
 11
4779.5913163544819326
 21
1459.4416732621668871
 31
0.0
  0
LINE
  5
1AEFF
  8
VISIBLE
 10
4779.5913163544819326
 20
1459.4416732621668871
 30
0.0
 11
4779.591316354508308
 21
1376.4416732621680239
 31
0.0
  0
LINE
  5
1AF00
  8
VISIBLE
 10
5306.6913163546087162
 20
1029.4916732623239568
 30
0.0
 11
5306.6913163545114003
 21
1376.4416732623240023
 31
0.0
  0
ARC
  5
1AF01
  8
VISIBLE
 10
5072.541316354603623
 20
1056.6615110324689795
 30
0.0
 40
16.0
 50
187.7941757928371942
 51
352.2058242071951781
  0
LINE
  5
1AF02
  8
VISIBLE
 10
4782.3913163546012584
 20
1054.4916732621679785
 30
0.0
 11
5056.6891302576968883
 21
1054.4916732622500604
 31
0.0
  0
LINE
  5
1AF03
  8
VISIBLE
 10
5088.3935024515103578
 20
1054.4916732622589279
 30
0.0
 11
5306.6913163546014403
 21
1054.4916732623239568
 31
0.0
  0
LINE
  5
1AF04
  8
VISIBLE
 10
4750.1913163545968928
 20
1029.4916732621591109
 30
0.0
 11
5306.6913163546087162
 21
1029.4916732623239568
 31
0.0
  0
LINE
  5
1AF05
  8
VISIBLE
 10
4782.391316354486662
 20
1442.4416732621689334
 30
0.0
 11
4782.3913163544821145
 21
1459.541673262167933
 31
0.0
  0
LINE
  5
1AF06
  8
VISIBLE
 10
5336.3413163544792042
 20
1461.4916732623330518
 30
0.0
 11
4751.5913163544801137
 21
1461.491673262157974
 31
0.0
  0
LINE
  5
1AF07
  8
VISIBLE
 10
4782.3913163544802956
 20
1461.4916732621679785
 30
0.0
 11
4782.3913163544821145
 21
1459.541673262167933
 31
0.0
  0
LINE
  5
1AF08
  8
VISIBLE
 10
4782.3913163546076248
 20
1029.4916732621679785
 30
0.0
 11
4782.3913163544857525
 21
1442.4416732621689334
 31
0.0
  0
LINE
  5
1AF09
  8
VISIBLE
 10
5218.3413163544901181
 20
1442.1416732622990367
 30
0.0
 11
5218.3413163545774296
 21
1147.2416732622980362
 31
0.0
  0
LINE
  5
1AF0A
  8
VISIBLE
 10
5218.3413163545774296
 20
1147.2416732622980362
 30
0.0
 11
4796.4413163545768839
 21
1147.2416732621729807
 31
0.0
  0
LINE
  5
1AF0B
  8
VISIBLE
 10
4796.4413163545768839
 20
1147.2416732621729807
 30
0.0
 11
4796.4413163544895724
 21
1442.1416732621739811
 31
0.0
  0
LINE
  5
1AF0C
  8
VISIBLE
 10
4796.4413163544895724
 20
1442.1416732621739811
 30
0.0
 11
5218.3413163544901181
 21
1442.1416732622990367
 31
0.0
  0
LINE
  5
1AF0D
  8
VISIBLE
 10
5356.6913163544559211
 20
1438.4916732623389635
 30
0.0
 11
5308.3413163544482813
 21
1438.4916732623250937
 31
0.0
  0
LINE
  5
1AF0E
  8
VISIBLE
 10
5306.6913163545959833
 20
1073.3416732623270491
 30
0.0
 11
5356.691316354558694
 21
1073.3416732623409189
 31
0.0
  0
LINE
  5
1AF0F
  8
VISIBLE
 10
5356.6913163544559211
 20
1438.4916732623389635
 30
0.0
 11
5356.691316354558694
 21
1073.3416732623409189
 31
0.0
  0
CIRCLE
  5
1AF10
  8
VISIBLE
 10
5079.5263163546078431
 20
1105.4921732622569834
 30
0.0
 40
17.5000000000000604
  0
CIRCLE
  5
1AF11
  8
VISIBLE
 10
5138.9913163546088981
 20
1105.4926732622750478
 30
0.0
 40
7.2600000000000229
  0
ENDSEC
  0
EOF
