  0
SECTION
  2
HEADER
  9
$ACADVER
  1
AC1009
  9
$INSBASE
 10
0.0
 20
0.0
 30
0.0
  9
$EXTMIN
 10
-482.6699710326120112
 20
-202.1822329199949024
 30
-0.0000000000000053
  9
$EXTMAX
 10
4051.3399977052340546
 20
5070.6467520402702576
 30
0.0000000000000099
  9
$LIMMIN
 10
0.0
 20
0.0
  9
$LIMMAX
 10
3890.0
 20
2660.0
  9
$ORTHOMODE
 70
     1
  9
$REGENMODE
 70
     1
  9
$FILLMODE
 70
     1
  9
$QTEXTMODE
 70
     0
  9
$MIRRTEXT
 70
     0
  9
$DRAGMODE
 70
     2
  9
$LTSCALE
 40
300.0
  9
$OSMODE
 70
  4095
  9
$ATTMODE
 70
     1
  9
$TEXTSIZE
 40
30.0
  9
$TRACEWID
 40
0.05
  9
$TEXTSTYLE
  7
TITLE3
  9
$CLAYER
  8
0
  9
$CELTYPE
  6
BYLAYER
  9
$CECOLOR
 62
   256
  9
$DIMSCALE
 40
1.0
  9
$DIMASZ
 40
0.18
  9
$DIMEXO
 40
0.0625
  9
$DIMDLI
 40
0.38
  9
$DIMRND
 40
0.0
  9
$DIMDLE
 40
0.0
  9
$DIMEXE
 40
0.18
  9
$DIMTP
 40
0.0
  9
$DIMTM
 40
0.0
  9
$DIMTXT
 40
0.18
  9
$DIMCEN
 40
0.09
  9
$DIMTSZ
 40
0.0
  9
$DIMTOL
 70
     0
  9
$DIMLIM
 70
     0
  9
$DIMTIH
 70
     1
  9
$DIMTOH
 70
     1
  9
$DIMSE1
 70
     0
  9
$DIMSE2
 70
     0
  9
$DIMTAD
 70
     0
  9
$DIMZIN
 70
     0
  9
$DIMBLK
  1

  9
$DIMASO
 70
     0
  9
$DIMSHO
 70
     0
  9
$DIMPOST
  1

  9
$DIMAPOST
  1

  9
$DIMALT
 70
     0
  9
$DIMALTD
 70
     2
  9
$DIMALTF
 40
25.3999999999999986
  9
$DIMLFAC
 40
1.0
  9
$DIMTOFL
 70
     0
  9
$DIMTVP
 40
0.0
  9
$DIMTIX
 70
     0
  9
$DIMSOXD
 70
     0
  9
$DIMSAH
 70
     0
  9
$DIMBLK1
  1

  9
$DIMBLK2
  1

  9
$DIMSTYLE
  2
ANNOTATIVE
  9
$DIMCLRD
 70
     0
  9
$DIMCLRE
 70
     0
  9
$DIMCLRT
 70
     0
  9
$DIMTFAC
 40
1.0
  9
$DIMGAP
 40
0.09
  9
$LUNITS
 70
     2
  9
$LUPREC
 70
     2
  9
$SKETCHINC
 40
0.1
  9
$FILLETRAD
 40
0.0
  9
$AUNITS
 70
     0
  9
$AUPREC
 70
     2
  9
$MENU
  1
\acad12\support\cnc
  9
$ELEVATION
 40
0.0
  9
$PELEVATION
 40
0.0
  9
$THICKNESS
 40
0.0
  9
$LIMCHECK
 70
     0
  9
$BLIPMODE
 70
     0
  9
$CHAMFERA
 40
20.0
  9
$CHAMFERB
 40
20.0
  9
$SKPOLY
 70
     0
  9
$TDCREATE
 40
2450610.4026273149065673
  9
$TDUPDATE
 40
2458892.6598842591047287
  9
$TDINDWG
 40
0.8087937384
  9
$TDUSRTIMER
 40
0.8087908912
  9
$USRTIMER
 70
     1
  9
$ANGBASE
 50
0.0
  9
$ANGDIR
 70
     0
  9
$PDMODE
 70
     2
  9
$PDSIZE
 40
10.0
  9
$PLINEWID
 40
2.0
  9
$COORDS
 70
     1
  9
$SPLFRAME
 70
     0
  9
$SPLINETYPE
 70
     6
  9
$SPLINESEGS
 70
     8
  9
$ATTDIA
 70
     1
  9
$ATTREQ
 70
     1
  9
$HANDLING
 70
     1
  9
$HANDSEED
  5
B3FE
  9
$SURFTAB1
 70
     6
  9
$SURFTAB2
 70
     6
  9
$SURFTYPE
 70
     6
  9
$SURFU
 70
     6
  9
$SURFV
 70
     6
  9
$UCSNAME
  2

  9
$UCSORG
 10
0.0
 20
0.0
 30
0.0
  9
$UCSXDIR
 10
1.0
 20
0.0
 30
0.0
  9
$UCSYDIR
 10
0.0
 20
1.0
 30
0.0
  9
$PUCSNAME
  2

  9
$PUCSORG
 10
0.0
 20
0.0
 30
0.0
  9
$PUCSXDIR
 10
1.0
 20
0.0
 30
0.0
  9
$PUCSYDIR
 10
0.0
 20
1.0
 30
0.0
  9
$USERI1
 70
     0
  9
$USERI2
 70
     0
  9
$USERI3
 70
     0
  9
$USERI4
 70
     0
  9
$USERI5
 70
     0
  9
$USERR1
 40
0.0
  9
$USERR2
 40
0.0
  9
$USERR3
 40
0.0
  9
$USERR4
 40
0.0
  9
$USERR5
 40
0.0
  9
$WORLDVIEW
 70
     1
  9
$SHADEDGE
 70
     3
  9
$SHADEDIF
 70
    70
  9
$TILEMODE
 70
     1
  9
$MAXACTVP
 70
    16
  9
$PLIMCHECK
 70
     0
  9
$PEXTMIN
 10
1.1294166384719471
 20
0.7730833676856337
 30
0.0
  9
$PEXTMAX
 10
10.1647497462475407
 20
6.957750309170696
 30
0.0
  9
$PLIMMIN
 10
-0.1979161059762549
 20
-0.2679166643638311
  9
$PLIMMAX
 10
11.4954165961798704
 20
8.0004168307687351
  9
$UNITMODE
 70
     0
  9
$VISRETAIN
 70
     0
  9
$PLINEGEN
 70
     0
  9
$PSLTSCALE
 70
     0
  0
ENDSEC
  0
SECTION
  2
TABLES
  0
TABLE
  2
VPORT
 70
     1
  0
VPORT
  2
*ACTIVE
 70
     0
 10
0.0
 20
0.0
 11
1.0
 21
1.0
 12
-273.1459223654173911
 22
101.709909455848404
 13
0.0
 23
0.0
 14
25.0
 24
25.0
 15
100.0
 25
100.0
 16
0.0
 26
0.0
 36
1.0
 17
2057.4809357017288676
 27
2332.5223501042892167
 37
0.0
 40
5306.8472364761373683
 41
1.6264800861141011
 42
50.0
 43
0.0
 44
0.0
 50
0.0
 51
0.0
 71
     0
 72
   100
 73
     1
 74
     0
 75
     0
 76
     0
 77
     0
 78
     0
  0
ENDTAB
  0
TABLE
  2
LTYPE
 70
    10
  0
LTYPE
  2
CONTINUOUS
 70
     0
  3
Solid line
 72
    65
 73
     0
 40
0.0
  0
LTYPE
  2
PHANTOM2
 70
     0
  3
Phantom (.5x) ___ _ _ ___ _ _ ___ _ _ ___ _ _
 72
    65
 73
     6
 40
1.25
 49
0.625
 49
-0.125
 49
0.125
 49
-0.125
 49
0.125
 49
-0.125
  0
LTYPE
  2
HIDDEN
 70
     0
  3
_ _ _ _ _ _ _ _ _ _ _ _ _ _ _ _ _ _ _ _ _ _ _
 72
    65
 73
     2
 40
0.375
 49
0.25
 49
-0.125
  0
LTYPE
  2
HIDDEN2
 70
     0
  3
Hidden (.5x) _ _ _ _ _ _ _ _ _ _ _ _ _ _ _ _ _
 72
    65
 73
     2
 40
0.1875
 49
0.125
 49
-0.0625
  0
LTYPE
  2
CENTER
 70
     0
  3
Center ____ _ ____ _ ____ _ ____ _ ____ _ ____
 72
    65
 73
     4
 40
2.0
 49
1.25
 49
-0.25
 49
0.25
 49
-0.25
  0
LTYPE
  2
CENTER2
 70
     0
  3
Center (.5x) ___ _ ___ _ ___ _ ___ _ ___ _ ___
 72
    65
 73
     4
 40
1.125
 49
0.75
 49
-0.125
 49
0.125
 49
-0.125
  0
LTYPE
  2
ACANSTGB
 70
     0
  3
__ . . __ . .
 72
    65
 73
     6
 40
0.35433070866
 49
0.15748031496
 49
-0.03937007874
 49
0.03937007874
 49
-0.03937007874
 49
0.03937007874
 49
-0.03937007874
  0
LTYPE
  2
ACANSTGL
 70
     0
  3
_ _ _ _ _
 72
    65
 73
     2
 40
0.11811023622
 49
0.07874015748
 49
-0.03937007874
  0
ENDTAB
  0
TABLE
  2
LAYER
 70
     4
  0
LAYER
  2
0
 70
     0
 62
     7
  6
CONTINUOUS
  0
LAYER
  2
VISIBLE
 70
     0
 62
     7
  6
CONTINUOUS
  0
LAYER
  2
OUTLINE
 70
     0
 62
     7
  6
CONTINUOUS
  0
LAYER
  2
OVERLAY-A3
 70
     0
 62
     7
  6
CONTINUOUS
  0
ENDTAB
  0
TABLE
  2
STYLE
 70
     8
  0
STYLE
  2
STANDARD
 70
     0
 40
0.0
 41
1.0
 50
0.0
 71
     0
 42
0.2
  3
txt
  4

  0
STYLE
  2
ANNOTATIVE
 70
     0
 40
0.0
 41
1.0
 50
0.0
 71
     0
 42
0.2
  3
txt
  4

  0
STYLE
  2
TITLE3
 70
     0
 40
30.0
 41
1.0
 50
0.0
 71
     0
 42
30.0
  3
SIMPLEX
  4

  0
STYLE
  2
TITLE5
 70
     0
 40
50.0
 41
1.0
 50
0.0
 71
     0
 42
50.0
  3
SIMPLEX
  4

  0
STYLE
  2
SIMPLEX
 70
     0
 40
30.0
 41
1.0
 50
0.0
 71
     0
 42
25.0
  3
SIMPLEX.shx
  4

  0
STYLE
  2
TITLE
 70
     0
 40
60.0
 41
1.0
 50
0.0
 71
     0
 42
60.0
  3
simplex.shx
  4

  0
STYLE
  2
ACANSGDT
 70
     0
 40
0.0
 41
1.0
 50
0.0
 71
     0
 42
30.0
  3
amgdt.shx
  4

  0
STYLE
  2
NOTE_TEXT
 70
     0
 40
0.0
 41
1.0
 50
0.0
 71
     0
 42
0.2
  3
txt
  4

  0
ENDTAB
  0
TABLE
  2
VIEW
 70
     0
  0
ENDTAB
  0
TABLE
  2
UCS
 70
     0
  0
ENDTAB
  0
TABLE
  2
APPID
 70
    27
  0
APPID
  2
ACAD
 70
     0
  0
APPID
  2
ACADANNOTATIVE
 70
     0
  0
APPID
  2
ACAD_MLEADERVER
 70
     0
  0
APPID
  2
GENIUS_GENDIM_13
 70
     0
  0
APPID
  2
GENIUS_GENDTOL_13
 70
     0
  0
APPID
  2
GENIUS_GE3DTOL_13
 70
     0
  0
APPID
  2
MCAD_NO_VIS
 70
     0
  0
APPID
  2
ACAD_TEMP_GRAPHIC
 70
     0
  0
APPID
  2
AD_DRAW
 70
     0
  0
APPID
  2
ACATTRIBSERVICES
 70
     0
  0
APPID
  2
ASURF_PCURVE_APPNAME
 70
     0
  0
APPID
  2
AMG_3D2D_5_0
 70
     0
  0
APPID
  2
DESIGNERASSEMBLIES
 70
     0
  0
APPID
  2
ACADM_DIM_EDIT
 70
     0
  0
APPID
  2
AMDT_DM_ADJ
 70
     0
  0
APPID
  2
ACAD_PSEXT
 70
     0
  0
APPID
  2
AMG_3D2D_5_00
 70
     0
  0
APPID
  2
ACAD_EXEMPT_FROM_CAD_STANDARDS
 70
     0
  0
APPID
  2
AMG_3D2D_5_01
 70
     0
  0
APPID
  2
ACAD_NAV_VCDISPLAY
 70
     0
  0
APPID
  2
ACAD_DSTYLE_DIMRADIAL_EXTENSION
 70
     0
  0
APPID
  2
ACAD_DSTYLE_DIMBREAK
 70
     0
  0
APPID
  2
ACAD_DSTYLE_DIMJAG
 70
     0
  0
APPID
  2
GENIUS_GENSCREG_15
 70
     0
  0
APPID
  2
GENIUS_GENOBJ-N-SDF_13
 70
     0
  0
APPID
  2
GENIUS_GENODEF_13
 70
     0
  0
APPID
  2
ACAECLAYERSTANDARD
 70
     0
  0
ENDTAB
  0
TABLE
  2
DIMSTYLE
 70
    11
  0
DIMSTYLE
  2
STANDARD
 70
     0
  3

  4

  5

  6

  7

 40
1.0
 41
0.18
 42
0.0625
 43
0.38
 44
0.18
 45
0.0
 46
0.0
 47
0.0
 48
0.0
140
0.18
141
0.09
142
0.0
143
25.3999999999999986
144
1.0
145
0.0
146
1.0
147
0.09
 71
     0
 72
     0
 73
     1
 74
     1
 75
     0
 76
     0
 77
     0
 78
     0
170
     0
171
     2
172
     0
173
     0
174
     0
175
     0
176
     0
177
     0
178
     0
  0
DIMSTYLE
  2
ANNOTATIVE
 70
     0
  3

  4

  5

  6

  7

 40
1.0
 41
0.18
 42
0.0625
 43
0.38
 44
0.18
 45
0.0
 46
0.0
 47
0.0
 48
0.0
140
0.18
141
0.09
142
0.0
143
25.3999999999999986
144
1.0
145
0.0
146
1.0
147
0.09
 71
     0
 72
     0
 73
     1
 74
     1
 75
     0
 76
     0
 77
     0
 78
     0
170
     0
171
     2
172
     0
173
     0
174
     0
175
     0
176
     0
177
     0
178
     0
  0
DIMSTYLE
  2
AM_ANSI
 70
     0
  3

  4
mm
  5

  6

  7

 40
1.0
 41
0.12
 42
0.05
 43
0.5
 44
0.1
 45
0.0
 46
0.0
 47
0.1
 48
0.1
140
0.12
141
0.0
142
0.0
143
25.3999999999999986
144
1.0
145
0.0
146
0.71
147
0.06
 71
     0
 72
     0
 73
     1
 74
     1
 75
     0
 76
     0
 77
     0
 78
     7
170
     0
171
     2
172
     0
173
     0
174
     0
175
     0
176
   256
177
   256
178
     2
  0
DIMSTYLE
  2
AM_ANSI$3
 70
     0
  3

  4
mm
  5

  6

  7

 40
1.0
 41
0.12
 42
0.05
 43
0.5
 44
0.1
 45
0.0
 46
0.0
 47
0.1
 48
0.1
140
0.12
141
0.0
142
0.0
143
25.3999999999999986
144
1.0
145
0.0
146
0.71
147
0.06
 71
     0
 72
     0
 73
     1
 74
     1
 75
     0
 76
     0
 77
     0
 78
     7
170
     0
171
     2
172
     0
173
     0
174
     0
175
     0
176
   256
177
   256
178
     2
  0
DIMSTYLE
  2
AM_ANSI$4
 70
     0
  3

  4
mm
  5

  6

  7

 40
1.0
 41
0.12
 42
0.05
 43
0.5
 44
0.1
 45
0.0
 46
0.0
 47
0.1
 48
0.1
140
0.12
141
0.0
142
0.0
143
25.3999999999999986
144
1.0
145
0.0
146
0.71
147
0.06
 71
     0
 72
     0
 73
     1
 74
     1
 75
     0
 76
     0
 77
     0
 78
     7
170
     0
171
     2
172
     0
173
     0
174
     0
175
     0
176
   256
177
   256
178
     2
  0
DIMSTYLE
  2
AM_ANSI$7
 70
     0
  3

  4
mm
  5

  6

  7

 40
1.0
 41
0.12
 42
0.05
 43
0.5
 44
0.1
 45
0.0
 46
0.0
 47
0.1
 48
0.1
140
0.12
141
0.0
142
0.0
143
25.3999999999999986
144
1.0
145
0.0
146
0.71
147
0.06
 71
     0
 72
     0
 73
     1
 74
     1
 75
     0
 76
     0
 77
     0
 78
     7
170
     0
171
     2
172
     0
173
     0
174
     0
175
     0
176
   256
177
   256
178
     2
  0
DIMSTYLE
  2
AM_ANSI$SF
 70
     0
  3

  4
mm
  5

  6

  7

 40
1.0
 41
0.12
 42
0.05
 43
0.5
 44
0.1
 45
0.0
 46
0.0
 47
0.1
 48
0.1
140
0.12
141
0.0
142
0.0
143
25.3999999999999986
144
1.0
145
0.0
146
0.71
147
0.06
 71
     0
 72
     0
 73
     1
 74
     1
 75
     1
 76
     1
 77
     0
 78
     7
170
     0
171
     2
172
     0
173
     0
174
     0
175
     0
176
   256
177
   256
178
     2
  0
DIMSTYLE
  2
AM_ANSI$SH
 70
     0
  3

  4
mm
  5

  6

  7

 40
1.0
 41
0.12
 42
0.05
 43
0.5
 44
0.1
 45
0.0
 46
0.0
 47
0.1
 48
0.1
140
0.12
141
0.0
142
0.0
143
25.3999999999999986
144
1.0
145
0.0
146
0.71
147
0.06
 71
     0
 72
     0
 73
     1
 74
     1
 75
     1
 76
     1
 77
     0
 78
     7
170
     0
171
     2
172
     0
173
     1
174
     0
175
     0
176
   256
177
   256
178
     2
  0
DIMSTYLE
  2
DEFAULT
 70
     0
  3

  4

  5

  6

  7

 40
14.2857142857142794
 41
2.5
 42
1.600199999999999
 43
5.9999999999999991
 44
3.174999999999998
 45
0.00000001
 46
10.0
 47
0.0
 48
0.0
140
3.0500001907348611
141
0.09
142
0.0
143
1.0
144
1.0
145
0.0
146
0.9993442296981812
147
0.8
 71
     0
 72
     0
 73
     0
 74
     1
 75
     0
 76
     0
 77
     0
 78
     0
170
     0
171
     1
172
     0
173
     0
174
     0
175
     0
176
   256
177
   256
178
   256
  0
DIMSTYLE
  2
OUTSIDE_DIMENSION
 70
     0
  3

  4

  5

  6

  7

 40
14.2857142857142794
 41
2.5
 42
1.600199999999999
 43
5.9999999999999991
 44
3.174999999999998
 45
0.00000001
 46
10.0
 47
0.0
 48
0.0
140
3.0500001907348611
141
0.09
142
0.0
143
1.0
144
1.0
145
0.0
146
0.9993442296981812
147
0.8
 71
     0
 72
     0
 73
     0
 74
     1
 75
     0
 76
     0
 77
     0
 78
     0
170
     0
171
     1
172
     0
173
     0
174
     0
175
     0
176
   256
177
   256
178
   256
  0
ENDTAB
  0
ENDSEC
  0
SECTION
  2
BLOCKS
  0
BLOCK
  8
0
  2
$MODEL_SPACE
 70
     0
 10
0.0
 20
0.0
 30
0.0
  3
$MODEL_SPACE
  1

  0
ENDBLK
  5
B324
  8
0
  0
BLOCK
 67
     1
  8
0
  2
$PAPER_SPACE
 70
     0
 10
0.0
 20
0.0
 30
0.0
  3
$PAPER_SPACE
  1

  0
ENDBLK
  5
B320
 67
     1
  8
0
  0
BLOCK
  8
0
  2
A$C25792A83
 70
     0
 10
0.0
 20
0.0
 30
0.0
  3
A$C25792A83
  1

  0
LINE
  5
B08B
  8
0
 62
     7
 10
0.0000113122159746
 20
17.4658057747965287
 30
0.0
 11
28.5326132976042608
 21
49.6390384019850899
 31
0.0
  0
LINE
  5
B08C
  8
0
 62
     7
 10
38.582587275129292
 20
0.0000049357859098
 30
0.0
 11
18.4826393200737584
 21
0.0000049357859098
 31
0.0
  0
LINE
  5
B08D
  8
0
 62
     7
 10
57.0652152829870829
 20
17.4658057747965287
 30
0.0
 11
28.5326132976042608
 21
49.6390384019850899
 31
0.0
  0
LINE
  5
B08E
  8
0
 62
     7
 10
38.582587275129292
 20
0.0000049357859098
 30
0.0
 11
38.582587275129292
 21
17.4658057748001703
 31
0.0
  0
LINE
  5
B08F
  8
0
 62
     7
 10
38.582587275129292
 20
17.4658057748001703
 30
0.0
 11
57.0652152829870829
 21
17.4658057747965287
 31
0.0
  0
ENDBLK
  5
B091
  8
0
  0
BLOCK
  8
0
  2
A$C468757C1
 70
     0
 10
0.0
 20
0.0
 30
0.0
  3
A$C468757C1
  1

  0
LINE
  5
B0AB
  8
0
 62
     7
 10
0.0000113122159746
 20
17.4658057747965287
 30
0.0
 11
28.5326132976042608
 21
49.6390384019850899
 31
0.0
  0
LINE
  5
B0AC
  8
0
 62
     7
 10
38.582587275129292
 20
0.0000049357859098
 30
0.0
 11
18.4826393200737584
 21
0.0000049357859098
 31
0.0
  0
LINE
  5
B0AD
  8
0
 62
     7
 10
18.4826393200737584
 20
0.0000049357859098
 30
0.0
 11
18.4826393200737584
 21
17.4658057748001703
 31
0.0
  0
LINE
  5
B0AE
  8
0
 62
     7
 10
18.4826393200737584
 20
17.4658057748001703
 30
0.0
 11
0.0000113122159746
 21
17.4658057747965287
 31
0.0
  0
LINE
  5
B0AF
  8
0
 62
     7
 10
57.0652152829870829
 20
17.4658057747965287
 30
0.0
 11
28.5326132976042608
 21
49.6390384019850899
 31
0.0
  0
LINE
  5
B0B0
  8
0
 62
     7
 10
38.582587275129292
 20
0.0000049357859098
 30
0.0
 11
38.582587275129292
 21
17.4658057748001703
 31
0.0
  0
LINE
  5
B0B1
  8
0
 62
     7
 10
38.582587275129292
 20
17.4658057748001703
 30
0.0
 11
57.0652152829870829
 21
17.4658057747965287
 31
0.0
  0
ENDBLK
  5
B0B3
  8
0
  0
BLOCK
  8
0
  2
*U4
 70
     1
 10
0.0
 20
0.0
 30
0.0
  3
*U4
  1

  0
TEXT
  5
B10B
  8
0
 10
0.0000116198455089
 20
0.0000008618553622
 30
0.0
 40
30.0
  1
ACCESS PANEL
  7
TITLE3
  0
ENDBLK
  5
B10D
  8
0
  0
BLOCK
  8
0
  2
*U5
 70
     1
 10
0.0
 20
0.0
 30
0.0
  3
*U5
  1

  0
TEXT
  5
B10F
  8
0
 10
243.2685087529571035
 20
3739.383279029240839
 30
0.0
 40
30.0
  1
ACCESS PANEL
  7
TITLE3
  0
ENDBLK
  5
B111
  8
0
  0
BLOCK
  8
0
  2
*U6
 70
     1
 10
0.0
 20
0.0
 30
0.0
  3
*U6
  1

  0
TEXT
  5
B113
  8
0
 62
     7
 10
3873.3958007763999376
 20
691.871105211190752
 30
0.0
 40
33.5999999999967329
  1
NOTE
  7
TITLE3
  0
TEXT
  5
B114
  8
0
 62
     7
 10
3305.3958007764540525
 20
635.8711052111963227
 30
0.0
 40
33.5999999999967329
  1
The manufacturer reserves
  7
TITLE3
  0
TEXT
  5
B115
  8
0
 62
     7
 10
3481.3958007764372269
 20
579.8711052112015523
 30
0.0
 40
33.5999999999967329
  1
the right to change
  7
TITLE3
  0
TEXT
  5
B116
  8
0
 62
     7
 10
3318.1958007764519607
 20
523.8711052112070092
 30
0.0
 40
33.5999999999967329
  1
specifications at any time
  7
TITLE3
  0
TEXT
  5
B117
  8
0
 62
     7
 10
3266.9958007764580543
 20
467.8711052112125799
 30
0.0
 40
33.5999999999967329
  1
without notice or obligation.
  7
TITLE3
  0
TEXT
  5
B118
  8
0
 62
     7
 10
3484.5958007764361355
 20
411.87110521121798
 30
0.0
 40
33.5999999999967329
  1
Certified dimensions
  7
TITLE3
  0
TEXT
  5
B119
  8
0
 62
     7
 10
3465.3958007764381364
 20
355.8711052112234938
 30
0.0
 40
33.5999999999967329
  1
available on request.
  7
TITLE3
  0
ENDBLK
  5
B11B
  8
0
  0
ENDSEC
  0
SECTION
  2
ENTITIES
  0
LINE
  5
8200
  8
0
 62
     7
 10
-482.5073820823072879
 20
-202.0215522544401949
 30
0.0
 11
4051.1219824173408597
 21
-202.0215522544395981
 31
0.0
  0
LINE
  5
8201
  8
0
 62
     7
 10
4051.1219824173399502
 20
-202.0215522544395981
 30
0.0
 11
4051.1219824173399502
 21
5070.5938071972759644
 31
0.0
  0
LINE
  5
8203
  8
0
 62
     7
 10
-482.5073820823072879
 20
5070.5938071972759644
 30
0.0
 11
-482.5073820823072879
 21
-202.0215522544401949
 31
0.0
  0
LINE
  5
86BD
  8
0
 62
     7
 10
-231.6585260690081043
 20
-106.8337204056832945
 30
0.0
 11
414.2998203672942168
 21
-106.8337204056834935
 31
0.0
  0
LINE
  5
86BE
  8
0
 62
     7
 10
1303.3414739309839661
 20
-106.8337204056834935
 30
0.0
 11
651.7371473207713279
 21
-106.8337204056834935
 31
0.0
  0
SOLID
  5
86BF
  8
0
 62
     7
 10
-231.6585260690081043
 20
-101.8337204056834935
 30
0.0
 11
-231.6585260690081043
 21
-111.833720405683394
 31
0.0
 12
-261.6585260690088717
 22
-106.8337204056832945
 32
0.0
 13
-261.6585260690088717
 23
-106.8337204056832945
 33
0.0
  0
SOLID
  5
86C0
  8
0
 62
     7
 10
1303.3414739309839661
 20
-101.8337204056837066
 30
0.0
 11
1303.3414739309839661
 21
-111.8337204056834935
 31
0.0
 12
1333.3414739309860124
 22
-106.8337204056834935
 32
0.0
 13
1333.3414739309860124
 23
-106.8337204056834935
 33
0.0
  0
LINE
  5
86C2
  8
0
 62
     7
 10
-58.5585260690231735
 20
-21.3295614623043512
 30
0.0
 11
-58.5585260690231735
 21
-63.9565633913445382
 31
0.0
  0
LINE
  5
86C3
  8
0
 62
     7
 10
1130.441473930975917
 20
-21.3295614623044401
 30
0.0
 11
1130.441473930975917
 21
-63.9565633913446518
 31
0.0
  0
LINE
  5
86C4
  8
0
 62
     7
 10
-28.5585260690222711
 20
-43.9565633913445666
 30
0.0
 11
400.6844801958829976
 21
-43.9565633913445666
 31
0.0
  0
LINE
  5
86C5
  8
0
 62
     7
 10
1100.441473930975917
 20
-43.9565633913446305
 30
0.0
 11
660.684480195883225
 21
-43.9565633913445666
 31
0.0
  0
SOLID
  5
86C6
  8
0
 62
     7
 10
-28.5585260690222711
 20
-38.9565633913445808
 30
0.0
 11
-28.5585260690222711
 21
-48.9565633913445808
 31
0.0
 12
-58.5585260690231735
 22
-43.9565633913445666
 32
0.0
 13
-58.5585260690231735
 23
-43.9565633913445666
 33
0.0
  0
SOLID
  5
86C7
  8
0
 62
     7
 10
1100.441473930975917
 20
-38.9565633913446305
 30
0.0
 11
1100.441473930975917
 21
-48.9565633913446732
 31
0.0
 12
1130.441473930975917
 22
-43.9565633913446305
 32
0.0
 13
1130.441473930975917
 23
-43.9565633913446305
 33
0.0
  0
LINE
  5
8722
  8
0
 62
     7
 10
1476.3898855436659687
 20
-21.3295614623045786
 30
0.0
 11
1476.3898855436659687
 21
-130.5990989357075875
 31
0.0
  0
LINE
  5
8723
  8
0
 62
     7
 10
2317.2398855436658778
 20
-21.3295614623045786
 30
0.0
 11
2317.2398855436658778
 21
-130.5990989357075875
 31
0.0
  0
LINE
  5
8724
  8
0
 62
     7
 10
1506.3898855436659687
 20
-110.5990989357076018
 30
0.0
 11
1781.3219262620430072
 21
-110.5990989357076018
 31
0.0
  0
LINE
  5
8725
  8
0
 62
     7
 10
2287.2398855436640588
 20
-110.5990989357076018
 30
0.0
 11
2006.9932767695170241
 21
-110.5990989357076018
 31
0.0
  0
SOLID
  5
8726
  8
0
 62
     7
 10
1506.3898855436659687
 20
-115.5990989357076018
 30
0.0
 11
1506.3898855436659687
 21
-105.5990989357076018
 31
0.0
 12
1476.3898855436659687
 22
-110.5990989357076018
 32
0.0
 13
1476.3898855436659687
 23
-110.5990989357076018
 33
0.0
  0
SOLID
  5
8727
  8
0
 62
     7
 10
2287.2398855436640588
 20
-115.5990989357076018
 30
0.0
 11
2287.2398855436640588
 21
-105.5990989357076018
 31
0.0
 12
2317.2398855436658778
 22
-110.5990989357076018
 32
0.0
 13
2317.2398855436658778
 23
-110.5990989357076018
 33
0.0
  0
LINE
  5
8758
  8
0
 62
     7
 10
2298.2401511647171901
 20
-69.0171306785030083
 30
0.0
 11
2298.2401511647171901
 21
-21.4326379942174192
 31
0.0
  0
LINE
  5
8759
  8
0
 62
     7
 10
1503.3898855436659687
 20
-69.5986739547186914
 30
0.0
 11
1503.3898855436659687
 21
-22.0141812704585718
 31
0.0
  0
LINE
  5
875A
  8
0
 62
     7
 10
2268.2401511647171901
 20
-41.603183802195197
 30
0.0
 11
2091.257138374097849
 21
-41.603183802195197
 31
0.0
  0
LINE
  5
875B
  8
0
 62
     7
 10
1533.3898855436659687
 20
-41.603183802195197
 30
0.0
 11
1706.17652292905791
 21
-41.603183802195197
 31
0.0
  0
SOLID
  5
875C
  8
0
 62
     7
 10
2268.2401511647171901
 20
-36.4326379942174299
 30
0.0
 11
2268.2401511647171901
 21
-46.4326379942174299
 31
0.0
 12
2298.2401511647171901
 22
-41.4326379942174299
 32
0.0
 13
2298.2401511647171901
 23
-41.4326379942174299
 33
0.0
  0
SOLID
  5
875D
  8
0
 62
     7
 10
1533.3898855436659687
 20
-37.0141812704603765
 30
0.0
 11
1533.3898855436659687
 21
-47.0141812704585931
 31
0.0
 12
1503.3898855436659687
 22
-42.0141812704585931
 32
0.0
 13
1503.3898855436659687
 23
-42.0141812704585931
 33
0.0
  0
LINE
  5
8799
  8
0
 62
     7
 10
-58.5585260690231735
 20
-21.3295614623043512
 30
0.0
 11
-58.5585260690231735
 21
-63.8904932711195528
 31
0.0
  0
LINE
  5
879A
  8
0
 62
     7
 10
-261.6585260690098949
 20
31.6704385377047402
 30
0.0
 11
-261.6585260690098949
 21
-143.7207288515319021
 31
0.0
  0
SOLID
  5
879D
  8
0
 62
     7
 10
-88.5585260690240688
 20
-38.9565633913447016
 30
0.0
 11
-88.5585260690240688
 21
-48.9565633913445808
 31
0.0
 12
-58.5585260690231735
 22
-43.9565633913445666
 32
0.0
 13
-58.5585260690231735
 23
-43.9565633913445666
 33
0.0
  0
SOLID
  5
879E
  8
0
 62
     7
 10
-231.6585260690090138
 20
-38.9565633913443321
 30
0.0
 11
-231.6585260690090138
 21
-48.9565633913442895
 31
0.0
 12
-261.6585260690098949
 22
-43.9565633913442824
 32
0.0
 13
-261.6585260690098949
 23
-43.9565633913442824
 33
0.0
  0
LINE
  5
8942
  8
0
 10
4051.1219824173399502
 20
5070.5938071972759644
 30
0.0
 11
-482.5073820823075721
 21
5070.5938071972759644
 31
0.0
  0
TEXT
  5
8946
  8
0
 62
     7
 10
1726.4640922154098917
 20
-56.603183802195197
 30
0.0
 40
30.0
  1
795 MTG CTRS
  0
TEXT
  5
8947
  8
0
 62
     7
 10
1799.8846157899049558
 20
-127.5528380018592003
 30
0.0
 40
30.0
  1
841 O/A
  0
TEXT
  5
8949
  8
0
 62
     7
 10
-197.1551869571667055
 20
-58.9565633913445382
 30
0.0
 40
30.0
  1
203
  0
TEXT
  5
894B
  8
0
 62
     7
 10
409.1252809339438272
 20
-58.9565633913445382
 30
0.0
 40
30.0
  1
1189 CTRS
  0
TEXT
  5
894C
  8
0
 62
     7
 10
422.346485184047026
 20
-121.8337204056837066
 30
0.0
 40
30.0
  1
1595 O/A
  0
LINE
  5
918B
  8
0
 62
     7
 10
2347.2398855436658778
 20
-42.10781250921967
 30
0.0
 11
2374.0462552350841179
 21
-42.10781250921967
 31
0.0
  0
SOLID
  5
918D
  8
0
 62
     7
 10
2347.2398855436658778
 20
-47.27835831719743
 30
0.0
 11
2347.2398855436658778
 21
-37.2783583171992632
 31
0.0
 12
2317.2398855436667873
 22
-42.2783583171992632
 32
0.0
 13
2317.2398855436667873
 23
-42.2783583171992632
 33
0.0
  0
TEXT
  5
9190
  8
0
 62
     7
 10
2380.8270742701488416
 20
-55.364021889442931
 30
0.0
 40
30.0
  1
19
  0
LINE
  5
AEB7
  8
VISIBLE
 10
922.5914739309755532
 20
1258.7704385377039671
 30
0.0
 11
922.5914739309755532
 21
51.6704385377045128
 31
0.0
  0
LINE
  5
AEB8
  8
VISIBLE
 10
-108.0585260690240972
 20
51.6704385377045128
 30
0.0
 11
-108.0585260690240972
 21
1258.770438537705104
 31
0.0
  0
LINE
  5
AEB9
  8
VISIBLE
 10
922.5914739309755532
 20
51.6704385377045128
 30
0.0
 11
-108.0585260690240972
 21
51.6704385377045128
 31
0.0
  0
LINE
  5
AEBB
  8
VISIBLE
 10
925.5914739309756669
 20
51.6704385377040509
 30
0.0
 11
1335.6414739310901041
 21
51.6704385377040509
 31
0.0
  0
LINE
  5
AEBD
  8
VISIBLE
 10
925.5914739309756669
 20
51.6704385377040509
 30
0.0
 11
925.5914739309756669
 21
1258.7704385377039671
 31
0.0
  0
LINE
  5
AEBF
  8
VISIBLE
 10
-262.2585260689083952
 20
51.6704385377047331
 30
0.0
 11
-111.0585260689967981
 21
51.6704385377045128
 31
0.0
  0
LINE
  5
AEC0
  8
VISIBLE
 10
-111.0585260689967981
 20
51.6704385377045128
 30
0.0
 11
-111.0585260689967981
 21
1258.7704385377039671
 31
0.0
  0
LINE
  5
AEC1
  8
VISIBLE
 10
1331.816473930974098
 20
48.6704385377056497
 30
0.0
 11
-257.2125105581853859
 21
48.6704385377056497
 31
0.0
  0
LINE
  5
AEC2
  8
VISIBLE
 10
1204.7196954696330522
 20
48.6704385377056497
 30
0.0
 11
1175.7714739309681136
 21
-1.3295614623052641
 31
0.0
  0
LINE
  5
AEC3
  8
VISIBLE
 10
1084.8114739309739889
 20
-1.3295614623045811
 30
0.0
 11
1055.9439604714980305
 21
48.6704385377056497
 31
0.0
  0
LINE
  5
AEC4
  8
VISIBLE
 10
1084.8114739309739889
 20
-1.3295614623045811
 30
0.0
 11
1175.7714739309681136
 21
-1.3295614623052641
 31
0.0
  0
LINE
  5
AEC5
  8
VISIBLE
 10
-104.0385260690236038
 20
-1.329561462304353
 30
0.0
 11
-132.9060395284977005
 21
48.6704385377056497
 31
0.0
  0
LINE
  5
AEC6
  8
VISIBLE
 10
15.7889873904532596
 20
48.6704385377056497
 30
0.0
 11
-13.0785260690227005
 21
-1.329561462304353
 31
0.0
  0
LINE
  5
AEC7
  8
VISIBLE
 10
-104.0385260690236038
 20
-1.329561462304353
 30
0.0
 11
-13.0785260690227005
 21
-1.329561462304353
 31
0.0
  0
POLYLINE
  5
AEC8
  8
VISIBLE
 66
     1
 10
0.0
 20
0.0
 30
0.0
 70
     8
  0
VERTEX
  5
B11C
  8
VISIBLE
 10
383.8650000000000091
 20
1290.75
 30
0.0
 70
    32
  0
VERTEX
  5
B11D
  8
VISIBLE
 10
383.8650000000000091
 20
1290.7400000000000091
 30
0.0
 70
    32
  0
VERTEX
  5
B11E
  8
VISIBLE
 10
383.8639999999999759
 20
1290.7200000000000273
 30
0.0
 70
    32
  0
VERTEX
  5
B11F
  8
VISIBLE
 10
383.8639999999999759
 20
1290.7000000000000455
 30
0.0
 70
    32
  0
VERTEX
  5
B120
  8
VISIBLE
 10
383.8639999999999759
 20
1290.6900000000000546
 30
0.0
 70
    32
  0
VERTEX
  5
B121
  8
VISIBLE
 10
383.8630000000001132
 20
1290.6700000000000728
 30
0.0
 70
    32
  0
VERTEX
  5
B122
  8
VISIBLE
 10
383.8630000000001132
 20
1290.6600000000000819
 30
0.0
 70
    32
  0
VERTEX
  5
B123
  8
VISIBLE
 10
383.8630000000001132
 20
1290.6400000000001
 30
0.0
 70
    32
  0
VERTEX
  5
B124
  8
VISIBLE
 10
383.8620000000000232
 20
1290.6300000000001091
 30
0.0
 70
    32
  0
VERTEX
  5
B125
  8
VISIBLE
 10
383.8620000000000232
 20
1290.6099999999999
 30
0.0
 70
    32
  0
VERTEX
  5
B126
  8
VISIBLE
 10
383.8620000000000232
 20
1290.5999999999999091
 30
0.0
 70
    32
  0
VERTEX
  5
B127
  8
VISIBLE
 10
383.8620000000000232
 20
1290.5799999999999272
 30
0.0
 70
    32
  0
VERTEX
  5
B128
  8
VISIBLE
 10
383.86099999999999
 20
1290.5699999999999363
 30
0.0
 70
    32
  0
VERTEX
  5
B129
  8
VISIBLE
 10
383.86099999999999
 20
1290.5499999999999545
 30
0.0
 70
    32
  0
VERTEX
  5
B12A
  8
VISIBLE
 10
383.86099999999999
 20
1290.5299999999999727
 30
0.0
 70
    32
  0
VERTEX
  5
B12B
  8
VISIBLE
 10
383.8600000000000136
 20
1290.5199999999999818
 30
0.0
 70
    32
  0
VERTEX
  5
B12C
  8
VISIBLE
 10
383.8600000000000136
 20
1290.5
 30
0.0
 70
    32
  0
VERTEX
  5
B12D
  8
VISIBLE
 10
383.8600000000000136
 20
1290.4900000000000091
 30
0.0
 70
    32
  0
VERTEX
  5
B12E
  8
VISIBLE
 10
383.8600000000000136
 20
1290.4700000000000273
 30
0.0
 70
    32
  0
VERTEX
  5
B12F
  8
VISIBLE
 10
383.8589999999999804
 20
1290.4600000000000364
 30
0.0
 70
    32
  0
VERTEX
  5
B130
  8
VISIBLE
 10
383.8589999999999804
 20
1290.4400000000000546
 30
0.0
 70
    32
  0
VERTEX
  5
B131
  8
VISIBLE
 10
383.8589999999999804
 20
1290.4300000000000637
 30
0.0
 70
    32
  0
VERTEX
  5
B132
  8
VISIBLE
 10
383.8580000000000041
 20
1290.4100000000000819
 30
0.0
 70
    32
  0
VERTEX
  5
B133
  8
VISIBLE
 10
383.8580000000000041
 20
1290.4000000000000909
 30
0.0
 70
    32
  0
VERTEX
  5
B134
  8
VISIBLE
 10
383.8580000000000041
 20
1290.3800000000001091
 30
0.0
 70
    32
  0
VERTEX
  5
B135
  8
VISIBLE
 10
383.8580000000000041
 20
1290.3599999999999
 30
0.0
 70
    32
  0
VERTEX
  5
B136
  8
VISIBLE
 10
383.8570000000000277
 20
1290.3499999999999091
 30
0.0
 70
    32
  0
VERTEX
  5
B137
  8
VISIBLE
 10
383.8570000000000277
 20
1290.3299999999999272
 30
0.0
 70
    32
  0
VERTEX
  5
B138
  8
VISIBLE
 10
383.8570000000000277
 20
1290.3199999999999363
 30
0.0
 70
    32
  0
VERTEX
  5
B139
  8
VISIBLE
 10
383.8570000000000277
 20
1290.2999999999999545
 30
0.0
 70
    32
  0
VERTEX
  5
B13A
  8
VISIBLE
 10
383.8570000000000277
 20
1290.2899999999999636
 30
0.0
 70
    32
  0
VERTEX
  5
B13B
  8
VISIBLE
 10
383.8559999999999945
 20
1290.2699999999999818
 30
0.0
 70
    32
  0
VERTEX
  5
B13C
  8
VISIBLE
 10
383.8559999999999945
 20
1290.2599999999999909
 30
0.0
 70
    32
  0
VERTEX
  5
B13D
  8
VISIBLE
 10
383.8559999999999945
 20
1290.2400000000000091
 30
0.0
 70
    32
  0
VERTEX
  5
B13E
  8
VISIBLE
 10
383.8559999999999945
 20
1290.2300000000000182
 30
0.0
 70
    32
  0
VERTEX
  5
B13F
  8
VISIBLE
 10
383.8559999999999945
 20
1290.2100000000000364
 30
0.0
 70
    32
  0
VERTEX
  5
B140
  8
VISIBLE
 10
383.8550000000000182
 20
1290.1900000000000546
 30
0.0
 70
    32
  0
VERTEX
  5
B141
  8
VISIBLE
 10
383.8550000000000182
 20
1290.1800000000000637
 30
0.0
 70
    32
  0
VERTEX
  5
B142
  8
VISIBLE
 10
383.8550000000000182
 20
1290.1600000000000819
 30
0.0
 70
    32
  0
VERTEX
  5
B143
  8
VISIBLE
 10
383.8550000000000182
 20
1290.1500000000000909
 30
0.0
 70
    32
  0
VERTEX
  5
B144
  8
VISIBLE
 10
383.8550000000000182
 20
1290.1300000000001091
 30
0.0
 70
    32
  0
VERTEX
  5
B145
  8
VISIBLE
 10
383.853999999999985
 20
1290.1199999999998909
 30
0.0
 70
    32
  0
VERTEX
  5
B146
  8
VISIBLE
 10
383.853999999999985
 20
1290.0999999999999091
 30
0.0
 70
    32
  0
VERTEX
  5
B147
  8
VISIBLE
 10
383.853999999999985
 20
1290.0899999999999181
 30
0.0
 70
    32
  0
VERTEX
  5
B148
  8
VISIBLE
 10
383.853999999999985
 20
1290.0699999999999363
 30
0.0
 70
    32
  0
VERTEX
  5
B149
  8
VISIBLE
 10
383.853999999999985
 20
1290.0599999999999454
 30
0.0
 70
    32
  0
VERTEX
  5
B14A
  8
VISIBLE
 10
383.853999999999985
 20
1290.0399999999999636
 30
0.0
 70
    32
  0
VERTEX
  5
B14B
  8
VISIBLE
 10
383.8530000000000086
 20
1290.0199999999999818
 30
0.0
 70
    32
  0
VERTEX
  5
B14C
  8
VISIBLE
 10
383.8530000000000086
 20
1290.0099999999999909
 30
0.0
 70
    32
  0
VERTEX
  5
B14D
  8
VISIBLE
 10
383.8530000000000086
 20
1289.9900000000000091
 30
0.0
 70
    32
  0
VERTEX
  5
B14E
  8
VISIBLE
 10
383.8530000000000086
 20
1289.9800000000000182
 30
0.0
 70
    32
  0
VERTEX
  5
B14F
  8
VISIBLE
 10
383.8530000000000086
 20
1289.9600000000000364
 30
0.0
 70
    32
  0
VERTEX
  5
B150
  8
VISIBLE
 10
383.8530000000000086
 20
1289.9500000000000455
 30
0.0
 70
    32
  0
VERTEX
  5
B151
  8
VISIBLE
 10
383.8530000000000086
 20
1289.9300000000000637
 30
0.0
 70
    32
  0
VERTEX
  5
B152
  8
VISIBLE
 10
383.8519999999999754
 20
1289.9200000000000728
 30
0.0
 70
    32
  0
VERTEX
  5
B153
  8
VISIBLE
 10
383.8519999999999754
 20
1289.9000000000000909
 30
0.0
 70
    32
  0
VERTEX
  5
B154
  8
VISIBLE
 10
383.8519999999999754
 20
1289.8800000000001091
 30
0.0
 70
    32
  0
VERTEX
  5
B155
  8
VISIBLE
 10
383.8519999999999754
 20
1289.8699999999998909
 30
0.0
 70
    32
  0
VERTEX
  5
B156
  8
VISIBLE
 10
383.8519999999999754
 20
1289.8499999999999091
 30
0.0
 70
    32
  0
VERTEX
  5
B157
  8
VISIBLE
 10
383.8519999999999754
 20
1289.8399999999999181
 30
0.0
 70
    32
  0
VERTEX
  5
B158
  8
VISIBLE
 10
383.8519999999999754
 20
1289.8199999999999363
 30
0.0
 70
    32
  0
VERTEX
  5
B159
  8
VISIBLE
 10
383.8519999999999754
 20
1289.8099999999999454
 30
0.0
 70
    32
  0
VERTEX
  5
B15A
  8
VISIBLE
 10
383.8519999999999754
 20
1289.7899999999999636
 30
0.0
 70
    32
  0
VERTEX
  5
B15B
  8
VISIBLE
 10
383.8519999999999754
 20
1289.7799999999999727
 30
0.0
 70
    32
  0
VERTEX
  5
B15C
  8
VISIBLE
 10
383.8509999999999991
 20
1289.7599999999999909
 30
0.0
 70
    32
  0
VERTEX
  5
B15D
  8
VISIBLE
 10
383.8509999999999991
 20
1289.75
 30
0.0
 70
    32
  0
VERTEX
  5
B15E
  8
VISIBLE
 10
383.8509999999999991
 20
1289.7300000000000182
 30
0.0
 70
    32
  0
VERTEX
  5
B15F
  8
VISIBLE
 10
383.8509999999999991
 20
1289.7100000000000364
 30
0.0
 70
    32
  0
VERTEX
  5
B160
  8
VISIBLE
 10
383.8509999999999991
 20
1289.7000000000000455
 30
0.0
 70
    32
  0
VERTEX
  5
B161
  8
VISIBLE
 10
383.8509999999999991
 20
1289.6800000000000637
 30
0.0
 70
    32
  0
VERTEX
  5
B162
  8
VISIBLE
 10
383.8509999999999991
 20
1289.6700000000000728
 30
0.0
 70
    32
  0
VERTEX
  5
B163
  8
VISIBLE
 10
383.8509999999999991
 20
1289.6500000000000909
 30
0.0
 70
    32
  0
VERTEX
  5
B164
  8
VISIBLE
 10
383.8509999999999991
 20
1289.6400000000001
 30
0.0
 70
    32
  0
VERTEX
  5
B165
  8
VISIBLE
 10
383.8509999999999991
 20
1289.6199999999998909
 30
0.0
 70
    32
  0
VERTEX
  5
B166
  8
VISIBLE
 10
383.8509999999999991
 20
1289.6099999999999
 30
0.0
 70
    32
  0
VERTEX
  5
B167
  8
VISIBLE
 10
383.8509999999999991
 20
1289.5899999999999181
 30
0.0
 70
    32
  0
VERTEX
  5
B168
  8
VISIBLE
 10
383.8509999999999991
 20
1289.5799999999999272
 30
0.0
 70
    32
  0
VERTEX
  5
B169
  8
VISIBLE
 10
383.8509999999999991
 20
1289.5599999999999454
 30
0.0
 70
    32
  0
VERTEX
  5
B16A
  8
VISIBLE
 10
383.8509999999999991
 20
1289.5399999999999636
 30
0.0
 70
    32
  0
VERTEX
  5
B16B
  8
VISIBLE
 10
383.8509999999999991
 20
1289.5299999999999727
 30
0.0
 70
    32
  0
VERTEX
  5
B16C
  8
VISIBLE
 10
383.8509999999999991
 20
1289.5099999999999909
 30
0.0
 70
    32
  0
VERTEX
  5
B16D
  8
VISIBLE
 10
383.8509999999999991
 20
1289.5
 30
0.0
 70
    32
  0
VERTEX
  5
B16E
  8
VISIBLE
 10
383.8509999999999991
 20
1289.4800000000000182
 30
0.0
 70
    32
  0
VERTEX
  5
B16F
  8
VISIBLE
 10
383.8509999999999991
 20
1289.4700000000000273
 30
0.0
 70
    32
  0
VERTEX
  5
B170
  8
VISIBLE
 10
383.8509999999999991
 20
1289.4500000000000455
 30
0.0
 70
    32
  0
VERTEX
  5
B171
  8
VISIBLE
 10
383.8509999999999991
 20
1289.4400000000000546
 30
0.0
 70
    32
  0
VERTEX
  5
B172
  8
VISIBLE
 10
383.8509999999999991
 20
1289.4200000000000728
 30
0.0
 70
    32
  0
VERTEX
  5
B173
  8
VISIBLE
 10
383.8509999999999991
 20
1289.4000000000000909
 30
0.0
 70
    32
  0
VERTEX
  5
B174
  8
VISIBLE
 10
383.8509999999999991
 20
1289.3900000000001
 30
0.0
 70
    32
  0
VERTEX
  5
B175
  8
VISIBLE
 10
383.8509999999999991
 20
1289.3699999999998909
 30
0.0
 70
    32
  0
VERTEX
  5
B176
  8
VISIBLE
 10
383.8509999999999991
 20
1289.3599999999999
 30
0.0
 70
    32
  0
VERTEX
  5
B177
  8
VISIBLE
 10
383.8509999999999991
 20
1289.3399999999999181
 30
0.0
 70
    32
  0
VERTEX
  5
B178
  8
VISIBLE
 10
383.8509999999999991
 20
1289.3299999999999272
 30
0.0
 70
    32
  0
VERTEX
  5
B179
  8
VISIBLE
 10
383.8509999999999991
 20
1289.3099999999999454
 30
0.0
 70
    32
  0
VERTEX
  5
B17A
  8
VISIBLE
 10
383.8509999999999991
 20
1289.2999999999999545
 30
0.0
 70
    32
  0
VERTEX
  5
B17B
  8
VISIBLE
 10
383.8509999999999991
 20
1289.2799999999999727
 30
0.0
 70
    32
  0
VERTEX
  5
B17C
  8
VISIBLE
 10
383.8509999999999991
 20
1289.2699999999999818
 30
0.0
 70
    32
  0
VERTEX
  5
B17D
  8
VISIBLE
 10
383.8509999999999991
 20
1289.25
 30
0.0
 70
    32
  0
VERTEX
  5
B17E
  8
VISIBLE
 10
383.8509999999999991
 20
1289.2300000000000182
 30
0.0
 70
    32
  0
VERTEX
  5
B17F
  8
VISIBLE
 10
383.8509999999999991
 20
1289.2200000000000273
 30
0.0
 70
    32
  0
VERTEX
  5
B180
  8
VISIBLE
 10
383.8509999999999991
 20
1289.2000000000000455
 30
0.0
 70
    32
  0
VERTEX
  5
B181
  8
VISIBLE
 10
383.8509999999999991
 20
1289.1900000000000546
 30
0.0
 70
    32
  0
VERTEX
  5
B182
  8
VISIBLE
 10
383.8509999999999991
 20
1289.1700000000000728
 30
0.0
 70
    32
  0
VERTEX
  5
B183
  8
VISIBLE
 10
383.8509999999999991
 20
1289.1600000000000819
 30
0.0
 70
    32
  0
VERTEX
  5
B184
  8
VISIBLE
 10
383.8519999999999754
 20
1289.1400000000001
 30
0.0
 70
    32
  0
VERTEX
  5
B185
  8
VISIBLE
 10
383.8519999999999754
 20
1289.1300000000001091
 30
0.0
 70
    32
  0
VERTEX
  5
B186
  8
VISIBLE
 10
383.8519999999999754
 20
1289.1099999999999
 30
0.0
 70
    32
  0
VERTEX
  5
B187
  8
VISIBLE
 10
383.8519999999999754
 20
1289.0999999999999091
 30
0.0
 70
    32
  0
VERTEX
  5
B188
  8
VISIBLE
 10
383.8519999999999754
 20
1289.0799999999999272
 30
0.0
 70
    32
  0
VERTEX
  5
B189
  8
VISIBLE
 10
383.8519999999999754
 20
1289.0599999999999454
 30
0.0
 70
    32
  0
VERTEX
  5
B18A
  8
VISIBLE
 10
383.8519999999999754
 20
1289.0499999999999545
 30
0.0
 70
    32
  0
VERTEX
  5
B18B
  8
VISIBLE
 10
383.8519999999999754
 20
1289.0299999999999727
 30
0.0
 70
    32
  0
VERTEX
  5
B18C
  8
VISIBLE
 10
383.8519999999999754
 20
1289.0199999999999818
 30
0.0
 70
    32
  0
VERTEX
  5
B18D
  8
VISIBLE
 10
383.8519999999999754
 20
1289.0
 30
0.0
 70
    32
  0
VERTEX
  5
B18E
  8
VISIBLE
 10
383.8530000000000086
 20
1288.9900000000000091
 30
0.0
 70
    32
  0
VERTEX
  5
B18F
  8
VISIBLE
 10
383.8530000000000086
 20
1288.9700000000000273
 30
0.0
 70
    32
  0
VERTEX
  5
B190
  8
VISIBLE
 10
383.8530000000000086
 20
1288.9600000000000364
 30
0.0
 70
    32
  0
VERTEX
  5
B191
  8
VISIBLE
 10
383.8530000000000086
 20
1288.9400000000000546
 30
0.0
 70
    32
  0
VERTEX
  5
B192
  8
VISIBLE
 10
383.8530000000000086
 20
1288.9300000000000637
 30
0.0
 70
    32
  0
VERTEX
  5
B193
  8
VISIBLE
 10
383.8530000000000086
 20
1288.9100000000000819
 30
0.0
 70
    32
  0
VERTEX
  5
B194
  8
VISIBLE
 10
383.8530000000000086
 20
1288.8900000000001
 30
0.0
 70
    32
  0
VERTEX
  5
B195
  8
VISIBLE
 10
383.853999999999985
 20
1288.8800000000001091
 30
0.0
 70
    32
  0
VERTEX
  5
B196
  8
VISIBLE
 10
383.853999999999985
 20
1288.8599999999999
 30
0.0
 70
    32
  0
VERTEX
  5
B197
  8
VISIBLE
 10
383.853999999999985
 20
1288.8499999999999091
 30
0.0
 70
    32
  0
VERTEX
  5
B198
  8
VISIBLE
 10
383.853999999999985
 20
1288.8299999999999272
 30
0.0
 70
    32
  0
VERTEX
  5
B199
  8
VISIBLE
 10
383.853999999999985
 20
1288.8199999999999363
 30
0.0
 70
    32
  0
VERTEX
  5
B19A
  8
VISIBLE
 10
383.853999999999985
 20
1288.7999999999999545
 30
0.0
 70
    32
  0
VERTEX
  5
B19B
  8
VISIBLE
 10
383.8550000000000182
 20
1288.7899999999999636
 30
0.0
 70
    32
  0
VERTEX
  5
B19C
  8
VISIBLE
 10
383.8550000000000182
 20
1288.7699999999999818
 30
0.0
 70
    32
  0
SEQEND
  5
B19D
  8
VISIBLE
  0
LINE
  5
AEC9
  8
VISIBLE
 10
396.1506727532669174
 20
1290.8704385377429844
 30
0.0
 11
396.1506727532669174
 21
1288.7704385377419385
 31
0.0
  0
LINE
  5
AECA
  8
VISIBLE
 10
383.8506727532666218
 20
1289.4580678374809395
 30
0.0
 11
383.8506727532666218
 21
1288.7704385377419385
 31
0.0
  0
LINE
  5
AECB
  8
VISIBLE
 10
578.7322751087812094
 20
1288.7704385377419385
 30
0.0
 11
578.7322751087812094
 21
1290.8704385377420749
 31
0.0
  0
LINE
  5
AECC
  8
VISIBLE
 10
1058.1506727532650984
 20
1290.8704385377429844
 30
0.0
 11
1058.1506727532650984
 21
1288.7704385377419385
 31
0.0
  0
LINE
  5
AECD
  8
VISIBLE
 10
1057.750672753265917
 20
1302.4015274509879418
 30
0.0
 11
1046.250672753265917
 21
1302.4015274509879418
 31
0.0
  0
LINE
  5
AECE
  8
VISIBLE
 10
1046.250672753265917
 20
1297.370438537740938
 30
0.0
 11
1046.250672753265917
 21
1302.4015274509879418
 31
0.0
  0
LINE
  5
AECF
  8
VISIBLE
 10
1057.750672753265917
 20
1297.3704385377388917
 30
0.0
 11
1057.750672753265917
 21
1302.4015274509879418
 31
0.0
  0
ARC
  5
AED0
  8
VISIBLE
 10
1052.000672753265917
 20
1299.3704385377420749
 30
0.0
 40
6.4999999999999991
 50
27.7957724960363208
 51
152.2042275039636934
  0
LINE
  5
AED1
  8
VISIBLE
 10
1059.500672753265917
 20
1297.3704385377388917
 30
0.0
 11
1044.500672753265917
 21
1297.3704385377420749
 31
0.0
  0
LINE
  5
AED2
  8
VISIBLE
 10
1059.500672753265917
 20
1290.8704385377420749
 30
0.0
 11
1059.500672753265917
 21
1297.3704385377388917
 31
0.0
  0
LINE
  5
AED3
  8
VISIBLE
 10
1044.500672753265917
 20
1290.8704385377388917
 30
0.0
 11
1044.500672753265917
 21
1297.3704385377420749
 31
0.0
  0
LINE
  5
AED4
  8
VISIBLE
 10
1044.500672753265917
 20
1290.8704385377388917
 30
0.0
 11
1059.500672753265917
 21
1290.8704385377420749
 31
0.0
  0
LINE
  5
AED5
  8
VISIBLE
 10
578.3322751087807774
 20
1302.4015274509879418
 30
0.0
 11
566.8322751087806637
 21
1302.4015274509879418
 31
0.0
  0
LINE
  5
AED6
  8
VISIBLE
 10
566.8322751087806637
 20
1297.370438537740938
 30
0.0
 11
566.8322751087806637
 21
1302.4015274509879418
 31
0.0
  0
LINE
  5
AED7
  8
VISIBLE
 10
578.3322751087799816
 20
1297.3704385377388917
 30
0.0
 11
578.3322751087807774
 21
1302.4015274509879418
 31
0.0
  0
ARC
  5
AED8
  8
VISIBLE
 10
572.5822751087806637
 20
1299.3704385377420749
 30
0.0
 40
6.5
 50
27.7957724960363208
 51
152.2042275039636934
  0
LINE
  5
AED9
  8
VISIBLE
 10
580.0821243949227437
 20
1297.3704385377388917
 30
0.0
 11
565.08242582263847
 21
1297.3704385377420749
 31
0.0
  0
LINE
  5
AEDA
  8
VISIBLE
 10
580.0821243949227437
 20
1290.8704385377388917
 30
0.0
 11
580.0821243949227437
 21
1297.3704385377388917
 31
0.0
  0
LINE
  5
AEDB
  8
VISIBLE
 10
565.08242582263847
 20
1290.8704385377420749
 30
0.0
 11
565.08242582263847
 21
1297.3704385377420749
 31
0.0
  0
LINE
  5
AEDC
  8
VISIBLE
 10
565.08242582263847
 20
1290.8704385377420749
 30
0.0
 11
580.0821243949227437
 21
1290.8704385377388917
 31
0.0
  0
LINE
  5
AEDD
  8
VISIBLE
 10
395.7506727532672244
 20
1302.4015274509879418
 30
0.0
 11
384.2506727532672244
 21
1302.4015274509879418
 31
0.0
  0
LINE
  5
AEDE
  8
VISIBLE
 10
384.2506727532672244
 20
1297.370438537740938
 30
0.0
 11
384.2506727532672244
 21
1302.4015274509879418
 31
0.0
  0
LINE
  5
AEDF
  8
VISIBLE
 10
395.7506727532672244
 20
1297.3704385377388917
 30
0.0
 11
395.7506727532672244
 21
1302.4015274509879418
 31
0.0
  0
ARC
  5
AEE0
  8
VISIBLE
 10
390.0006727532672244
 20
1299.3704385377420749
 30
0.0
 40
6.4999999999999947
 50
27.7957724960363208
 51
152.2042275039636934
  0
LINE
  5
AEE1
  8
VISIBLE
 10
397.5005226665743976
 20
1297.3704385377388917
 30
0.0
 11
382.5008228399584027
 21
1297.3704385377420749
 31
0.0
  0
LINE
  5
AEE2
  8
VISIBLE
 10
397.5005226665743976
 20
1290.8704385377388917
 30
0.0
 11
397.5005226665743976
 21
1297.3704385377388917
 31
0.0
  0
LINE
  5
AEE3
  8
VISIBLE
 10
382.5008228399584027
 20
1290.8704385377420749
 30
0.0
 11
382.5008228399584027
 21
1297.3704385377420749
 31
0.0
  0
LINE
  5
AEE4
  8
VISIBLE
 10
382.5008228399584027
 20
1290.8704385377420749
 30
0.0
 11
397.5005226665743976
 21
1290.8704385377388917
 31
0.0
  0
LINE
  5
AEE5
  8
VISIBLE
 10
1335.6414739310901041
 20
1288.7704385377039671
 30
0.0
 11
-262.2585260689083952
 21
1288.7704385377039671
 31
0.0
  0
LINE
  5
AEE6
  8
VISIBLE
 10
-262.2585260689083952
 20
1288.7704385377039671
 30
0.0
 11
-262.2585260689083952
 21
51.6704385377049675
 31
0.0
  0
LINE
  5
AEE7
  8
VISIBLE
 10
1335.6414739310901041
 20
51.6704385377040509
 30
0.0
 11
1335.6414739310901041
 21
1288.7704385377039671
 31
0.0
  0
LINE
  5
AEE8
  8
VISIBLE
 10
-262.2585260689083952
 20
1258.7704385377030576
 30
0.0
 11
1335.6414739310901041
 21
1258.7704385377030576
 31
0.0
  0
LINE
  5
AEE9
  8
VISIBLE
 10
1195.9414739305120747
 20
718.6704385377033759
 30
0.0
 11
1195.9414739305120747
 21
248.6704385377036033
 31
0.0
  0
LINE
  5
AEEA
  8
VISIBLE
 10
1335.6414739310901041
 20
718.6704385377033759
 30
0.0
 11
1195.9414739305120747
 21
718.6704385377033759
 31
0.0
  0
LINE
  5
AEEB
  8
VISIBLE
 10
1335.6414739310901041
 20
248.6704385377036033
 30
0.0
 11
1195.9414739305120747
 21
248.6704385377036033
 31
0.0
  0
LINE
  5
AEEE
  8
VISIBLE
 10
-83.2677248912186769
 20
1290.8704385377429844
 30
0.0
 11
-83.2677248912186769
 21
1288.7704385377419385
 31
0.0
  0
LINE
  5
AEEF
  8
VISIBLE
 10
-83.6677248912191942
 20
1302.4015274509879418
 30
0.0
 11
-95.1677248912191942
 21
1302.4015274509879418
 31
0.0
  0
LINE
  5
AEF0
  8
VISIBLE
 10
-95.1677248912191942
 20
1297.3704385377420749
 30
0.0
 11
-95.1677248912191942
 21
1302.4015274509879418
 31
0.0
  0
LINE
  5
AEF1
  8
VISIBLE
 10
-83.667724891220999
 20
1297.3704385377370727
 30
0.0
 11
-83.6677248912191942
 21
1302.4015274509879418
 31
0.0
  0
ARC
  5
AEF2
  8
VISIBLE
 10
-89.4177248912191942
 20
1299.3704385377420749
 30
0.0
 40
6.4999999999999929
 50
27.7957724960363208
 51
152.2042275039636934
  0
LINE
  5
AEF3
  8
VISIBLE
 10
-82.0854505584866274
 20
1297.3704385377370727
 30
0.0
 11
-96.7499992239518036
 21
1297.3704385377429844
 31
0.0
  0
LINE
  5
AEF4
  8
VISIBLE
 10
-82.0854505584866274
 20
1290.8704385377379822
 30
0.0
 11
-82.0854505584866274
 21
1297.3704385377370727
 31
0.0
  0
LINE
  5
AEF5
  8
VISIBLE
 10
-96.7499992239518036
 20
1290.8704385377420749
 30
0.0
 11
-96.7499992239518036
 21
1297.3704385377429844
 31
0.0
  0
LINE
  5
AEF6
  8
VISIBLE
 10
-96.7499992239518036
 20
1290.8704385377420749
 30
0.0
 11
-82.0854505584866274
 21
1290.8704385377379822
 31
0.0
  0
LINE
  5
AEF8
  8
VISIBLE
 10
1136.291473931461951
 20
4050.9141194638200432
 30
0.0
 11
1142.306969981274051
 21
4044.9141194638200432
 31
0.0
  0
LINE
  5
AEF9
  8
VISIBLE
 10
1136.2914739314580856
 20
4073.7141194638270463
 30
0.0
 11
1136.291473931461951
 21
4050.9141194638200432
 31
0.0
  0
LINE
  5
AEFA
  8
VISIBLE
 10
1124.291473931461951
 20
4050.9141194638200432
 30
0.0
 11
1124.291473931461951
 21
4073.714119463823863
 31
0.0
  0
LINE
  5
AEFB
  8
VISIBLE
 10
1118.3069300631088936
 20
4044.9141194638200432
 30
0.0
 11
1124.291473931461951
 21
4050.9141194638200432
 31
0.0
  0
LINE
  5
AEFC
  8
VISIBLE
 10
1136.2914739314630879
 20
4874.7641194638208617
 30
0.0
 11
1136.2914739314630879
 21
4856.9641194638279558
 31
0.0
  0
ARC
  5
AEFD
  8
VISIBLE
 10
1130.2914739314630879
 20
4874.7641194638208617
 30
0.0
 40
5.9999999999999361
 50
0.0
 51
180.0
  0
LINE
  5
AEFE
  8
VISIBLE
 10
1124.2914739314660437
 20
4856.9641194638252273
 30
0.0
 11
1124.2914739314630879
 21
4874.7641194638208617
 31
0.0
  0
LINE
  5
AEFF
  8
VISIBLE
 10
1142.306969981274051
 20
4044.9141194638200432
 30
0.0
 11
1177.5035247390298991
 21
4044.9141194638200432
 31
0.0
  0
LINE
  5
AF00
  8
VISIBLE
 10
1083.0794231238919565
 20
4044.9141194638200432
 30
0.0
 11
1118.3069300631088936
 21
4044.9141194638200432
 31
0.0
  0
LINE
  5
AF01
  8
VISIBLE
 10
1083.0794231238930934
 20
4885.7641194638208617
 30
0.0
 11
1177.503524739031036
 21
4885.7641194638208617
 31
0.0
  0
LINE
  5
AF02
  8
VISIBLE
 10
1083.0794231238919565
 20
4044.9141194638200432
 30
0.0
 11
1071.4365908164829762
 21
4073.7141194638179513
 31
0.0
  0
LINE
  5
AF03
  8
VISIBLE
 10
1189.1463570464441091
 20
4073.7141194638270463
 30
0.0
 11
1177.5035247390298991
 21
4044.9141194638200432
 31
0.0
  0
LINE
  5
AF04
  8
VISIBLE
 10
1071.4365908164829762
 20
4856.9641194638179513
 30
0.0
 11
1083.0794231238930934
 21
4885.7641194638208617
 31
0.0
  0
LINE
  5
AF05
  8
VISIBLE
 10
1177.503524739031036
 20
4885.7641194638208617
 30
0.0
 11
1189.1463570464391069
 21
4856.9641194638279558
 31
0.0
  0
LINE
  5
AF06
  8
VISIBLE
 10
-52.5585260685365725
 20
4050.9141194638200432
 30
0.0
 11
-46.5430300187235702
 21
4044.9141194638200432
 31
0.0
  0
LINE
  5
AF07
  8
VISIBLE
 10
-52.5585260685402318
 20
4073.7141194636469663
 30
0.0
 11
-52.5585260685365725
 21
4050.9141194638200432
 31
0.0
  0
LINE
  5
AF08
  8
VISIBLE
 10
-64.5585260685365938
 20
4050.9141194638200432
 30
0.0
 11
-64.5585260685365938
 21
4073.7141194636451473
 31
0.0
  0
LINE
  5
AF09
  8
VISIBLE
 10
-70.5430699368880454
 20
4044.9141194638200432
 30
0.0
 11
-64.5585260685365938
 21
4050.9141194638200432
 31
0.0
  0
LINE
  5
AF0A
  8
VISIBLE
 10
-52.5585260685365725
 20
4874.7641194638208617
 30
0.0
 11
-52.5585260685329487
 21
4856.9641194636469663
 31
0.0
  0
ARC
  5
AF0B
  8
VISIBLE
 10
-58.5585260685356701
 20
4874.7641194638208617
 30
0.0
 40
5.999999999999897
 50
0.0
 51
180.0
  0
LINE
  5
AF0C
  8
VISIBLE
 10
-64.5585260685347748
 20
4856.9641194636451473
 30
0.0
 11
-64.5585260685356843
 21
4874.7641194638208617
 31
0.0
  0
LINE
  5
AF0D
  8
VISIBLE
 10
-46.5430300187235702
 20
4044.9141194638200432
 30
0.0
 11
-11.3464752609670505
 21
4044.9141194638200432
 31
0.0
  0
LINE
  5
AF0E
  8
VISIBLE
 10
-105.7705768761051957
 20
4044.9141194638200432
 30
0.0
 11
-70.5430699368880454
 21
4044.9141194638200432
 31
0.0
  0
LINE
  5
AF0F
  8
VISIBLE
 10
-105.7705768761043004
 20
4885.7641194638208617
 30
0.0
 11
-11.3464752609670505
 21
4885.7641194638208617
 31
0.0
  0
LINE
  5
AF10
  8
VISIBLE
 10
-105.7705768761051957
 20
4044.9141194638200432
 30
0.0
 11
-117.4134091834785067
 21
4073.7141194637279114
 31
0.0
  0
LINE
  5
AF11
  8
VISIBLE
 10
0.2963570464089571
 20
4073.7141194637360968
 30
0.0
 11
-11.3464752609670505
 21
4044.9141194638200432
 31
0.0
  0
LINE
  5
AF12
  8
VISIBLE
 10
-117.4134091835522042
 20
4856.9641194637270019
 30
0.0
 11
-105.7705768761043004
 21
4885.7641194638208617
 31
0.0
  0
LINE
  5
AF13
  8
VISIBLE
 10
-11.3464752609670505
 20
4885.7641194638208617
 30
0.0
 11
0.2963570464762597
 21
4856.9641194637370063
 31
0.0
  0
LINE
  5
AF14
  8
VISIBLE
 10
-262.2585260685390836
 20
4856.964119463616953
 30
0.0
 11
-262.2585260684218156
 21
4073.714119463615134
 31
0.0
  0
LINE
  5
AF15
  8
VISIBLE
 10
1335.6414739314589042
 20
4856.9641194638570596
 30
0.0
 11
-262.2585260685390836
 21
4856.964119463616953
 31
0.0
  0
LINE
  5
AF16
  8
VISIBLE
 10
1335.641473931578048
 20
4073.7141194638561501
 30
0.0
 11
1335.6414739314589042
 21
4856.9641194638570596
 31
0.0
  0
LINE
  5
AF17
  8
VISIBLE
 10
-262.2585260684218156
 20
4073.714119463615134
 30
0.0
 11
1335.641473931578048
 21
4073.7141194638561501
 31
0.0
  0
LINE
  5
AF18
  8
VISIBLE
 10
1598.9400098863670792
 20
576.5095785592679931
 30
0.0
 11
1598.9400098863720814
 21
558.5595785592679476
 31
0.0
  0
LINE
  5
AF19
  8
VISIBLE
 10
1598.9400098863720814
 20
558.4595785592678112
 30
0.0
 11
1598.9400098863770836
 21
541.5095785592677657
 31
0.0
  0
LINE
  5
AF1A
  8
VISIBLE
 10
1598.9400098863820858
 20
523.0126892869418498
 30
0.0
 11
1598.9400098863909534
 21
497.5626892869423727
 31
0.0
  0
LINE
  5
AF1B
  8
VISIBLE
 10
1598.9400098863909534
 20
497.4626892869421226
 30
0.0
 11
1598.9400098863970925
 21
473.0126892869416224
 31
0.0
  0
LINE
  5
AF1C
  8
VISIBLE
 10
2237.2398851997381826
 20
51.6704385379211999
 30
0.0
 11
2288.439885543724813
 21
51.6704385379367821
 31
0.0
  0
LINE
  5
AF1E
  8
VISIBLE
 10
2237.2398851993812059
 20
1258.7704385379220184
 30
0.0
 11
2237.2398851997381826
 21
51.6704385379214415
 31
0.0
  0
LINE
  5
AF1F
  8
VISIBLE
 10
1505.1898855436959366
 20
51.6704385377036886
 30
0.0
 11
1626.3898855436939357
 21
51.6704385377397486
 31
0.0
  0
LINE
  5
AF22
  8
VISIBLE
 10
1626.3898855436939357
 20
51.6704385377397486
 30
0.0
 11
1626.389885543336959
 21
1258.7704385377380731
 31
0.0
  0
LINE
  5
AF23
  8
VISIBLE
 10
1598.9898855435410496
 20
576.5095785592676521
 30
0.0
 11
1598.9898855435510541
 21
541.5095785592675384
 31
0.0
  0
LINE
  5
AF24
  8
VISIBLE
 10
1598.9898855435560563
 20
523.012689286941395
 30
0.0
 11
1598.989885543571063
 21
473.0126892869416224
 31
0.0
  0
LINE
  5
AF25
  8
VISIBLE
 10
2234.2398855436990743
 20
51.6204385379205632
 30
0.0
 11
1629.3898855436959821
 21
51.6204385377407107
 31
0.0
  0
LINE
  5
AF26
  8
VISIBLE
 10
1629.3898855436959821
 20
51.6204385377407107
 30
0.0
 11
1629.3898855433349127
 21
1258.7704385377398921
 31
0.0
  0
LINE
  5
AF27
  8
VISIBLE
 10
2234.2398855433380049
 20
1258.7704385379199721
 30
0.0
 11
2234.2398855436990743
 21
51.6204385379205632
 31
0.0
  0
CIRCLE
  5
AF28
  8
VISIBLE
 10
1558.5398855435739733
 20
498.0124939732871212
 30
0.0
 40
17.5000000000001101
  0
LINE
  5
AF29
  8
VISIBLE
 10
2286.039885543660148
 20
48.6704385379357518
 30
0.0
 11
1507.5898855436580561
 21
48.6704385377047331
 31
0.0
  0
LINE
  5
AF2A
  8
VISIBLE
 10
2286.0398855436637859
 20
23.5169137300783895
 30
0.0
 11
2286.0398855436560552
 21
51.6704385379362066
 31
0.0
  0
LINE
  5
AF2B
  8
VISIBLE
 10
1507.589885543661012
 20
44.4704385377049221
 30
0.0
 11
1507.5898855436630583
 21
23.5169137298471504
 31
0.0
  0
LINE
  5
AF2C
  8
VISIBLE
 10
1507.589885543661012
 20
44.4704385377049221
 30
0.0
 11
1507.5898855436589656
 21
51.6704385377045128
 31
0.0
  0
LINE
  5
AF2D
  8
VISIBLE
 10
1507.5898855436630583
 20
23.5169137298471504
 30
0.0
 11
1476.3898855436659687
 21
1.6704385376949631
 31
0.0
  0
LINE
  5
AF2E
  8
VISIBLE
 10
2317.2398855436658778
 20
1.6704385379448461
 30
0.0
 11
2286.0398855436637859
 21
23.5169137300783895
 31
0.0
  0
LINE
  5
AF2F
  8
VISIBLE
 10
2317.2398855436658778
 20
-1.329561462055153
 30
0.0
 11
2317.2398855436658778
 21
0.0704385379447103
 31
0.0
  0
LINE
  5
AF30
  8
VISIBLE
 10
1476.3898855436659687
 20
-1.3295614623045811
 30
0.0
 11
2317.2398855436658778
 21
-1.329561462055153
 31
0.0
  0
LINE
  5
AF31
  8
VISIBLE
 10
1476.3898855436659687
 20
0.0704385376952814
 30
0.0
 11
1476.3898855436659687
 21
-1.3295614623045811
 31
0.0
  0
LINE
  5
AF32
  8
VISIBLE
 10
2317.2398855436658778
 20
1.6704385379448461
 30
0.0
 11
2317.2398855436681515
 21
0.0704385379447103
 31
0.0
  0
LINE
  5
AF33
  8
VISIBLE
 10
1476.3898855436671056
 20
0.0704385376952814
 30
0.0
 11
1476.3898855436659687
 21
1.6704385376949631
 31
0.0
  0
LINE
  5
AF34
  8
VISIBLE
 10
2120.7490843654832133
 20
1290.8704385378860025
 30
0.0
 11
2120.7490843654832133
 21
1288.7704385378860934
 31
0.0
  0
LINE
  5
AF35
  8
VISIBLE
 10
2108.4490843654830314
 20
1290.8704385378830466
 30
0.0
 11
2108.4490843654839409
 21
1288.7704385378829102
 31
0.0
  0
LINE
  5
AF36
  8
VISIBLE
 10
2120.3490843654799392
 20
1302.4015274511320968
 30
0.0
 11
2108.8490843654799392
 21
1302.401527451128004
 31
0.0
  0
LINE
  5
AF37
  8
VISIBLE
 10
2108.8490843654822129
 20
1297.3704385378830466
 30
0.0
 11
2108.8490843654799392
 21
1302.401527451128004
 31
0.0
  0
LINE
  5
AF38
  8
VISIBLE
 10
2120.3490843654822129
 20
1297.3704385378860025
 30
0.0
 11
2120.3490843654799392
 21
1302.4015274511320968
 31
0.0
  0
ARC
  5
AF39
  8
VISIBLE
 10
2114.5990843654822129
 20
1299.370438537885093
 30
0.0
 40
6.4999999999999991
 50
27.7957724960449788
 51
152.2042275039723052
  0
LINE
  5
AF3A
  8
VISIBLE
 10
2108.080299999584895
 20
1290.8704385378830466
 30
0.0
 11
2108.080299999584895
 21
1297.3704385378830466
 31
0.0
  0
LINE
  5
AF3B
  8
VISIBLE
 10
2121.1178687313799855
 20
1290.8704385378860025
 30
0.0
 11
2121.1178687313799855
 21
1297.3704385378860025
 31
0.0
  0
LINE
  5
AF3C
  8
VISIBLE
 10
2121.1178687313799855
 20
1297.3704385378860025
 30
0.0
 11
2108.080299999584895
 21
1297.3704385378830466
 31
0.0
  0
LINE
  5
AF3D
  8
VISIBLE
 10
2108.080299999584895
 20
1290.8704385378830466
 30
0.0
 11
2121.1178687313799855
 21
1290.8704385378860025
 31
0.0
  0
LINE
  5
AF3E
  8
VISIBLE
 10
2288.4398855433692006
 20
1288.7704385379358882
 30
0.0
 11
1505.1898855433680637
 21
1288.7704385377039671
 31
0.0
  0
LINE
  5
AF3F
  8
VISIBLE
 10
2288.439885543724813
 20
51.6704385379368887
 30
0.0
 11
2288.4398855433692006
 21
1288.7704385379358882
 31
0.0
  0
LINE
  5
AF40
  8
VISIBLE
 10
1505.1898855433680637
 20
1288.7704385377039671
 30
0.0
 11
1505.1898855436959366
 21
51.6704385377038307
 31
0.0
  0
LINE
  5
AF41
  8
VISIBLE
 10
1505.1898855433760218
 20
1258.7704385377030576
 30
0.0
 11
2288.4398855433778408
 21
1258.7704385379358882
 31
0.0
  0
LINE
  5
AF42
  8
VISIBLE
 10
1608.9898855435699261
 20
473.0126892869445783
 30
0.0
 11
1550.9398855435958922
 21
473.0126892869271842
 31
0.0
  0
ARC
  5
AF43
  8
VISIBLE
 10
1550.9398855435879341
 20
498.0126892869271273
 30
0.0
 40
25.0
 50
90.0
 51
270.0
  0
LINE
  5
AF44
  8
VISIBLE
 10
1550.9398855435811129
 20
523.0126892869272979
 30
0.0
 11
1608.9898855435569658
 21
523.0126892869445783
 31
0.0
  0
LINE
  5
AF45
  8
VISIBLE
 10
1608.9898855435499172
 20
541.5095785592707216
 30
0.0
 11
1550.9398855435590576
 21
541.5095785592534412
 31
0.0
  0
ARC
  5
AF46
  8
VISIBLE
 10
1550.9398855435540554
 20
559.0095785592534412
 30
0.0
 40
17.5
 50
90.0
 51
270.0
  0
LINE
  5
AF47
  8
VISIBLE
 10
1550.9398855435490532
 20
576.5095785592535549
 30
0.0
 11
1608.9898855435399128
 21
576.5095785592704942
 31
0.0
  0
LINE
  5
AF4B
  8
VISIBLE
 10
1505.1898855436429585
 20
248.6704385377038022
 30
0.0
 11
1608.9898855436379108
 21
248.6704385377344124
 31
0.0
  0
LINE
  5
AF4C
  8
VISIBLE
 10
1608.9898855435569658
 20
523.0126892869445783
 30
0.0
 11
1608.9898855435499172
 21
541.5095785592707216
 31
0.0
  0
LINE
  5
AF4D
  8
VISIBLE
 10
1608.9898855435399128
 20
576.5095785592704942
 30
0.0
 11
1608.989885543498076
 21
718.6704385377342987
 31
0.0
  0
LINE
  5
AF4E
  8
VISIBLE
 10
1608.989885543498076
 20
718.6704385377342987
 30
0.0
 11
1505.1898855435190399
 21
718.6704385377034896
 31
0.0
  0
LINE
  5
AF4F
  8
VISIBLE
 10
1608.9898855436379108
 20
248.6704385377344124
 30
0.0
 11
1608.9898855435699261
 21
473.0126892869445783
 31
0.0
  0
CIRCLE
  5
AF50
  8
VISIBLE
 10
1558.5398855435880705
 20
559.0097317258928342
 30
0.0
 40
11.0000000000000107
  0
LINE
  5
AF51
  8
VISIBLE
 10
1641.3306867210010296
 20
1290.8704385377438939
 30
0.0
 11
1641.3306867210030759
 21
1288.7704385377439849
 31
0.0
  0
LINE
  5
AF52
  8
VISIBLE
 10
1629.0306867210010751
 20
1290.8704385377400286
 30
0.0
 11
1629.0306867210019846
 21
1288.770438537741029
 31
0.0
  0
LINE
  5
AF53
  8
VISIBLE
 10
1640.9306867209988923
 20
1302.4015274509899882
 30
0.0
 11
1629.4306867209979828
 21
1302.4015274509858955
 31
0.0
  0
LINE
  5
AF54
  8
VISIBLE
 10
1629.4306867210000291
 20
1297.3704385377400286
 30
0.0
 11
1629.4306867209979828
 21
1302.4015274509858955
 31
0.0
  0
LINE
  5
AF55
  8
VISIBLE
 10
1640.9306867210000291
 20
1297.3704385377450308
 30
0.0
 11
1640.9306867209988923
 21
1302.4015274509899882
 31
0.0
  0
ARC
  5
AF56
  8
VISIBLE
 10
1635.1806867210000291
 20
1299.3704385377420749
 30
0.0
 40
6.4999999999999938
 50
27.7957724960449788
 51
152.2042275039723052
  0
LINE
  5
AF57
  8
VISIBLE
 10
1641.6758772493849392
 20
1297.3704385377450308
 30
0.0
 11
1628.6854961926180749
 21
1297.3704385377400286
 31
0.0
  0
LINE
  5
AF58
  8
VISIBLE
 10
1628.6854961926189844
 20
1290.8704385377400286
 30
0.0
 11
1628.6854961926180749
 21
1297.3704385377400286
 31
0.0
  0
LINE
  5
AF59
  8
VISIBLE
 10
1641.6758772493860761
 20
1290.8704385377438939
 30
0.0
 11
1641.6758772493849392
 21
1297.3704385377450308
 31
0.0
  0
LINE
  5
AF5A
  8
VISIBLE
 10
1628.6854961926189844
 20
1290.8704385377400286
 30
0.0
 11
1641.6758772493860761
 21
1290.8704385377438939
 31
0.0
  0
LINE
  5
AF5B
  8
0
 10
1581.8898855431530137
 20
1288.7704385377260223
 30
0.0
 11
1581.8898855431530137
 21
1295.3704385377259314
 31
0.0
  0
LINE
  5
AF5C
  8
0
 10
2172.8898855431530137
 20
1295.3704385377259314
 30
0.0
 11
2172.8898855431548327
 21
1288.7704385379011001
 31
0.0
  0
LINE
  5
AF5D
  8
0
 10
1581.8898855431530137
 20
1295.3704385377259314
 30
0.0
 11
1628.6854961926189844
 21
1295.3704385377379822
 31
0.0
  0
LINE
  5
AF5E
  8
0
 10
1641.6758772493849392
 20
1295.3704385377420749
 30
0.0
 11
2108.080299999584895
 21
1295.3704385378709958
 31
0.0
  0
LINE
  5
AF5F
  8
0
 10
2121.1178687313799855
 20
1295.3704385378730422
 30
0.0
 11
2172.8898855431530137
 21
1295.3704385378889583
 31
0.0
  0
LINE
  5
AF60
  8
0
 10
1331.816473930974098
 20
51.6704385377042925
 30
0.0
 11
1331.816473930974098
 21
48.6704385377056497
 31
0.0
  0
LINE
  5
AF61
  8
0
 10
-257.2125105581853859
 20
48.6704385377056497
 30
0.0
 11
-257.2125105581853859
 21
51.6704385377047331
 31
0.0
  0
LINE
  5
AF62
  8
0
 10
522.2914739310053847
 20
1295.3704385378730422
 30
0.0
 11
522.2914739310053847
 21
1288.7704385377039671
 31
0.0
  0
LINE
  5
AF63
  8
0
 10
1107.2914739310040204
 20
1288.7704385377039671
 30
0.0
 11
1107.295767086952992
 21
1295.3704385378130155
 31
0.0
  0
LINE
  5
AF64
  8
0
 10
522.2914739310053847
 20
1295.3704385378730422
 30
0.0
 11
565.08242582263847
 21
1295.3704385378700863
 31
0.0
  0
LINE
  5
AF65
  8
0
 10
580.0821243949227437
 20
1295.3704385378689494
 30
0.0
 11
1044.500672753265917
 21
1295.3704385378189272
 31
0.0
  0
LINE
  5
AF66
  8
0
 10
1059.500672753264098
 20
1295.3704385378171082
 30
0.0
 11
1107.295767086952992
 21
1295.3704385378130155
 31
0.0
  0
LINE
  5
AF67
  8
0
 10
1045.8650309775430287
 20
1290.8704385377400286
 30
0.0
 11
1045.8650309775430287
 21
1288.7704385377039671
 31
0.0
  0
LINE
  5
AF68
  8
0
 10
566.4396591315743308
 20
1290.8704385377400286
 30
0.0
 11
566.4396591315743308
 21
1288.7704385377039671
 31
0.0
  0
CIRCLE
  5
AF69
  8
0
 10
812.2914739314918506
 20
4443.4141194637977605
 30
0.0
 40
290.0
  0
CIRCLE
  5
AF6A
  8
0
 10
150.2914739314927033
 20
4443.4141194637468288
 30
0.0
 40
290.0
  0
LINE
  5
AF6B
  8
0
 10
445.2957670869544131
 20
1295.3704385378130155
 30
0.0
 11
445.2957670869544131
 21
1288.7704385377039671
 31
0.0
  0
LINE
  5
AF6C
  8
0
 10
-139.7085260689945869
 20
1288.7704385377039671
 30
0.0
 11
-139.7085260689945869
 21
1295.3704385377041035
 31
0.0
  0
LINE
  5
AF6D
  8
0
 10
-139.7085260689945869
 20
1295.3704385377041035
 30
0.0
 11
-96.7499992239518036
 21
1295.3704385377129711
 31
0.0
  0
LINE
  5
AF6E
  8
0
 10
-82.0854505584866274
 20
1295.3704385377150174
 30
0.0
 11
382.5008228399584027
 21
1295.3704385378021016
 31
0.0
  0
LINE
  5
AF6F
  8
0
 10
397.5005226665743976
 20
1295.3704385378039206
 30
0.0
 11
445.2957670869544131
 21
1295.3704385378130155
 31
0.0
  0
LINE
  5
AF70
  8
0
 10
-95.5533666669416135
 20
1290.8704385377420749
 30
0.0
 11
-95.5533666669416135
 21
1288.7704385377039671
 31
0.0
  0
TEXT
  5
AF77
  8
0
 62
     7
 10
61.9856095312517823
 20
4464.6783712461528921
 30
0.0
 40
56.25
  1
OSA
  7
TITLE5
 72
     1
 11
139.6641809598231987
 21
4464.6783712461528921
 31
0.0
  0
TEXT
  5
AF78
  8
0
 62
     7
 10
-55.8715333258910789
 20
4386.5936844717571148
 30
0.0
 40
56.25
  1
351RLTFV
  7
TITLE5
 72
     1
 11
139.6641809598231987
 21
4386.5936844717571148
 31
0.0
  0
INSERT
  5
AF7F
  8
0
  2
*U5
 10
0.0
 20
258.6614872898881003
 30
0.0
  0
TEXT
  5
AF90
  8
0
 62
     7
 10
-313.0235547025541223
 20
4339.0264477304954198
 30
0.0
 40
30.0
  1
CLEARANCE
 50
90.0
  7
TITLE3
  0
TEXT
  5
AF91
  8
0
 62
     7
 10
-358.2821160375306135
 20
4374.3859710398373863
 30
0.0
 40
30.0
  1
150 min
 50
90.0
  7
TITLE3
  0
TEXT
  5
AF92
  8
0
 62
     7
 10
225.933458537464503
 20
3354.3069694870728199
 30
0.0
 40
30.0
  1
750 min CLEARANCE
  7
TITLE3
  0
TEXT
  5
AF93
  8
0
 62
     7
 10
2295.113169068264142
 20
4336.2392658630005826
 30
0.0
 40
30.0
  1
CLEARANCE
 50
90.0
  7
TITLE3
  0
TEXT
  5
AF94
  8
0
 62
     7
 10
324.5491875033775955
 20
4956.3351677205218948
 30
0.0
 40
30.0
  1
150 min CLEARANCE
  7
TITLE3
  0
TEXT
  5
AF95
  8
0
 62
     7
 10
2234.5896477033647898
 20
4377.3130748866333306
 30
0.0
 40
30.0
  1
1000 min
 50
90.0
  7
TITLE3
  0
LINE
  5
AF96
  8
0
  6
PHANTOM2
 10
-412.3585260684238847
 20
5006.7141194638579691
 30
0.0
 11
-412.3585260684264995
 21
3323.7141194638579691
 31
0.0
  0
LINE
  5
AF97
  8
0
  6
PHANTOM2
 10
1385.641473931578048
 20
4073.7141194638561501
 30
0.0
 11
2335.6414739315769111
 21
4073.7141194638561501
 31
0.0
  0
LINE
  5
AF98
  8
0
  6
PHANTOM2
 10
2335.6414739315769111
 20
5006.7141194638579691
 30
0.0
 11
2335.6414739315769111
 21
4073.7141194638561501
 31
0.0
  0
LINE
  5
AF99
  8
0
  6
PHANTOM2
 10
-412.3585260684238847
 20
3323.7141194638579691
 30
0.0
 11
1335.641473931578048
 21
3323.7141194638547859
 31
0.0
  0
LINE
  5
AF9A
  8
0
  6
PHANTOM2
 10
1335.6414739315769111
 20
3323.7141194638547859
 30
0.0
 11
1335.641473931578048
 21
4023.7141194638561501
 31
0.0
  0
LINE
  5
AF9B
  8
0
  6
PHANTOM2
 10
-412.3585260684238847
 20
5006.7141194638579691
 30
0.0
 11
2335.6414739315769111
 21
5006.7141194638579691
 31
0.0
  0
LINE
  5
AFA9
  8
0
 62
     7
 10
507.9147373627411071
 20
4765.1552125808957499
 30
0.0
 11
479.3821353773528244
 21
4732.9819799537081053
 31
0.0
  0
LINE
  5
AFAA
  8
0
 62
     7
 10
469.3321613998277826
 20
4782.6210134199072854
 30
0.0
 11
489.4321093548830959
 21
4782.6210134199072854
 31
0.0
  0
LINE
  5
AFAB
  8
0
 62
     7
 10
489.4321093548830959
 20
4782.6210134199072854
 30
0.0
 11
489.4321093548830959
 21
4765.1552125808921119
 31
0.0
  0
LINE
  5
AFAC
  8
0
 62
     7
 10
489.4321093548830959
 20
4765.1552125808921119
 30
0.0
 11
507.9147373627411071
 21
4765.1552125808957499
 31
0.0
  0
LINE
  5
AFAD
  8
0
 62
     7
 10
450.8495333919698282
 20
4765.1552125808957499
 30
0.0
 11
479.3821353773528244
 21
4732.9819799537081053
 31
0.0
  0
LINE
  5
AFAE
  8
0
 62
     7
 10
469.3321613998277826
 20
4782.6210134199072854
 30
0.0
 11
469.3321613998277826
 21
4765.1552125808921119
 31
0.0
  0
LINE
  5
AFAF
  8
0
 62
     7
 10
469.3321613998277826
 20
4765.1552125808921119
 30
0.0
 11
450.8495333919698282
 21
4765.1552125808957499
 31
0.0
  0
LINE
  5
AFBB
  8
0
 62
     7
 10
-213.214112241440489
 20
4470.433104099072807
 30
0.0
 11
-181.0408796142519066
 21
4441.9005021136854339
 31
0.0
  0
LINE
  5
AFBC
  8
0
 62
     7
 10
-230.6799130804510867
 20
4431.850528136158573
 30
0.0
 11
-230.6799130804510867
 21
4451.9504760912141137
 31
0.0
  0
LINE
  5
AFBD
  8
0
 62
     7
 10
-230.6799130804510867
 20
4451.9504760912141137
 30
0.0
 11
-213.2141122414369079
 21
4451.9504760912141137
 31
0.0
  0
LINE
  5
AFBE
  8
0
 62
     7
 10
-213.2141122414369079
 20
4451.9504760912141137
 30
0.0
 11
-213.214112241440489
 21
4470.433104099072807
 31
0.0
  0
LINE
  5
AFBF
  8
0
 62
     7
 10
-213.214112241440489
 20
4413.3679001282998797
 30
0.0
 11
-181.0408796142519066
 21
4441.9005021136854339
 31
0.0
  0
LINE
  5
AFC0
  8
0
 62
     7
 10
-230.6799130804510867
 20
4431.850528136158573
 30
0.0
 11
-213.2141122414369079
 21
4431.850528136158573
 31
0.0
  0
LINE
  5
AFC1
  8
0
 62
     7
 10
-213.2141122414369079
 20
4431.850528136158573
 30
0.0
 11
-213.214112241440489
 21
4413.3679001282998797
 31
0.0
  0
TEXT
  5
AFCA
  8
0
 62
     7
 10
309.5410781404116278
 20
3225.487213337832145
 30
0.0
 40
30.0
  1
2000 min CLEARANCE
  7
TITLE3
  0
LINE
  5
AFCB
  8
0
  6
PHANTOM2
 62
     7
 10
-262.2585260689083952
 20
3288.7697564668292216
 30
0.0
 11
1335.6414739310889672
 21
3288.7697564668292216
 31
0.0
  0
LINE
  5
AFCC
  8
0
  6
PHANTOM2
 10
-262.2585260689083952
 20
3288.7697564668292216
 30
0.0
 11
-262.2585260689083952
 21
1338.7704385377039671
 31
0.0
  0
LINE
  5
AFCD
  8
0
  6
PHANTOM2
 10
1335.6414739310889672
 20
3288.7697564668292216
 30
0.0
 11
1335.6414739310889672
 21
1338.7704385377039671
 31
0.0
  0
TEXT
  5
AFD8
  8
0
 62
     7
 10
491.2034359868084152
 20
1508.0511114429220925
 30
0.0
 40
60.0
  1
AIR
  7
TITLE
  0
TEXT
  5
AFD9
  8
0
 62
     7
 10
444.0605788439531807
 20
1408.0511114429220925
 30
0.0
 40
60.0
  1
FLOW
  7
TITLE
  0
LINE
  5
AFE5
  8
0
 62
     7
 10
-109.4177244097381987
 20
1305.8660500031739957
 30
0.0
 11
-408.4308135470964771
 21
1305.8004385376939354
 31
0.0
  0
LINE
  5
AFE6
  8
0
 62
     7
 10
-124.0385260690236038
 20
-1.329561462304353
 30
0.0
 11
-408.4308135470964771
 21
-1.329561462303928
 31
0.0
  0
LINE
  5
AFE7
  8
0
 62
     7
 10
-388.1468516264686173
 20
1275.8004385376950722
 30
0.0
 11
-388.1468516264729942
 21
781.2094637030374997
 31
0.0
  0
LINE
  5
AFE8
  8
0
 62
     7
 10
-388.4308135471009109
 20
28.6704385376960715
 30
0.0
 11
-388.4308135471009109
 21
530.7794637030373224
 31
0.0
  0
SOLID
  5
AFE9
  8
0
 62
     7
 10
-393.4308135470964771
 20
1275.8004385376939354
 30
0.0
 11
-383.4308135470964771
 21
1275.8004385376939354
 31
0.0
 12
-388.4308135470964771
 22
1305.8004385376939354
 32
0.0
 13
-388.4308135470964771
 23
1305.8004385376939354
 33
0.0
  0
SOLID
  5
AFEA
  8
0
 62
     7
 10
-393.4308135471001151
 20
28.6704385376960715
 30
0.0
 11
-383.4308135470964771
 21
28.6704385376960715
 31
0.0
 12
-388.4308135471009109
 22
-1.329561462303928
 32
0.0
 13
-388.4308135471009109
 23
-1.329561462303928
 33
0.0
  0
TEXT
  5
AFEB
  8
0
 62
     7
 10
-373.4308135471001151
 20
544.3901952423557304
 30
0.0
 40
30.0
  1
1307 O/A
 50
90.0
  0
LINE
  5
AFFE
  8
0
 10
-231.6585260690090138
 20
-43.9565633913443179
 30
0.0
 11
-211.6585260690090138
 21
-43.9565633913443179
 31
0.0
  0
LINE
  5
AFFF
  8
0
 10
-88.5585260690240688
 20
-43.9565633913446376
 30
0.0
 11
-108.5585260690239977
 21
-43.9565633913446376
 31
0.0
  0
LINE
  5
B005
  8
0
 62
     7
 10
1332.7914739309740071
 20
31.6704385377045092
 30
0.0
 11
1332.7914739309740071
 21
-143.7207288515319874
 31
0.0
  0
TEXT
  5
B00B
  8
0
 62
     7
 10
120.6186622917954026
 20
655.2204404631045236
 30
0.0
 40
56.25
  1
OSA351RLTFV
  7
TITLE5
 72
     1
 11
401.8686622917954878
 21
655.2204404631045236
 31
0.0
  0
TEXT
  5
B022
  8
0
 62
     7
 10
2506.4113707581332164
 20
196.7349666032282016
 30
0.0
 40
62.5
  1
temperzone OSA 351RLTFV
 41
1.13857554626276
  7
TITLE5
 72
     5
 11
3973.6828336503199353
 21
196.7349666032282016
 31
0.0
  0
TEXT
  5
B023
  8
0
 62
     7
 10
3400.7559836691921191
 20
-103.540600129691498
 30
0.0
 40
37.5
  1
OSA351RLTFV
 41
1.0440000000000009
  7
TITLE3
 72
     5
 11
3792.2559836691930286
 21
-103.540600129691498
 31
0.0
  0
TEXT
  5
B024
  8
0
 62
     7
 10
2679.1227127900287996
 20
-45.5392800897949428
 30
0.0
 40
37.5
  1
29-01-20
 41
0.8296296296296201
  7
TITLE3
 72
     5
 11
2919.1227127900260712
 21
-45.5392800897949428
 31
0.0
  0
TEXT
  5
B025
  8
OVERLAY-A3
 10
2505.8942780600550577
 20
-44.2924592996434825
 30
0.0
 40
36.0
  1
Date
  7
SIMPLEX
  0
TEXT
  5
B026
  8
OVERLAY-A3
 10
3852.7157321785798558
 20
-16.2843270546781014
 30
0.0
 40
36.0
  1
Revision
 41
0.7812095035935001
  7
SIMPLEX
 72
     5
 11
4010.7432546197801457
 21
-16.2843270546781014
 31
0.0
  0
LINE
  5
B027
  8
OVERLAY-A3
 10
3835.2859686034198603
 20
-179.2755408173190119
 30
0.0
 11
3835.2859686034198603
 21
41.8637034730251116
 31
0.0
  0
LINE
  5
B028
  8
OVERLAY-A3
 10
2462.5762378039021314
 20
295.2873481570373997
 30
0.0
 11
2462.5762378039021314
 21
-179.2755408173190119
 31
0.0
  0
LINE
  5
B029
  8
OVERLAY-A3
 10
3358.9194606378209755
 20
-179.2755408173190119
 30
0.0
 11
3358.9194606378209755
 21
41.8637034730251116
 31
0.0
  0
LINE
  5
B02A
  8
OVERLAY-A3
 10
3358.9194606378168828
 20
-70.5703811855994303
 30
0.0
 11
2462.5762378039021314
 21
-70.5703811855994303
 31
0.0
  0
LINE
  5
B02B
  8
OVERLAY-A3
 10
4025.9121414749429277
 20
41.8637034730251116
 30
0.0
 11
2462.5762378039021314
 21
41.8637034730251116
 31
0.0
  0
LINE
  5
B02C
  8
OVERLAY-A3
 10
2462.5762378039021314
 20
-179.2755408173190119
 30
0.0
 11
4025.465880707415181
 21
-179.2755408173190119
 31
0.0
  0
LINE
  5
B02D
  8
OVERLAY-A3
 10
4025.465880707415181
 20
-179.2755408173190119
 30
0.0
 11
4025.465880707415181
 21
295.2873481570373997
 31
0.0
  0
LINE
  5
B02E
  8
OVERLAY-A3
 10
4025.465880707415181
 20
295.2873481570373997
 30
0.0
 11
2462.5762378039021314
 21
295.2873481570373997
 31
0.0
  0
TEXT
  5
B02F
  8
OVERLAY-A3
 10
2500.2737722728429617
 20
-138.6555479917583966
 30
0.0
 40
30.0
  1
Scale
 41
1.3701747965659949
  7
SIMPLEX
 72
     5
 11
2650.992999895102912
 21
-138.6555479917583966
 31
0.0
  0
TEXT
  5
B030
  8
OVERLAY-A3
 10
3445.8376290193778004
 20
-17.1991328297306083
 30
0.0
 40
30.0
  1
Drawing No.
  7
SIMPLEX
 72
     2
 11
3707.2662004479498137
 21
-17.1991328297306083
 31
0.0
  0
TEXT
  5
B031
  8
0
 62
     7
 10
2732.6922490731399193
 20
-136.3292230664378906
 30
0.0
 40
37.5
  1
1:20
  7
TITLE3
  0
LINE
  5
B04F
  8
0
 62
     7
 10
1505.1898855433680637
 20
1308.7704385377039671
 30
0.0
 11
1505.1898855433680637
 21
1381.8327162629029772
 31
0.0
  0
LINE
  5
B050
  8
0
 62
     7
 10
2288.1898855433678364
 20
1308.7704385377039671
 30
0.0
 11
2288.1898855433678364
 21
1381.8327162629029772
 31
0.0
  0
LINE
  5
B051
  8
0
 62
     7
 10
1535.1898855433701101
 20
1351.8688594743719023
 30
0.0
 11
1839.9987869556121041
 21
1351.8688594743719023
 31
0.0
  0
LINE
  5
B052
  8
0
 62
     7
 10
2258.1898855433678364
 20
1351.8688594743719023
 30
0.0
 11
1936.6725072864319372
 21
1351.8688594743719023
 31
0.0
  0
SOLID
  5
B053
  8
0
 62
     7
 10
1535.1898855433701101
 20
1346.8688594743719023
 30
0.0
 11
1535.1898855433701101
 21
1356.8688594743709928
 31
0.0
 12
1505.1898855433680637
 22
1351.8688594743719023
 32
0.0
 13
1505.1898855433680637
 23
1351.8688594743719023
 33
0.0
  0
SOLID
  5
B054
  8
0
 62
     7
 10
2258.1898855433678364
 20
1346.8688594743719023
 30
0.0
 11
2258.1898855433678364
 21
1356.8688594743709928
 31
0.0
 12
2288.1898855433678364
 22
1351.8688594743719023
 32
0.0
 13
2288.1898855433678364
 23
1351.8688594743719023
 33
0.0
  0
TEXT
  5
B055
  8
0
 62
     7
 10
1845.9318114045690891
 20
1335.9295764596849949
 30
0.0
 40
30.0
  1
783
  0
TEXT
  5
B05C
  8
0
 62
     7
 10
1852.9943912918508886
 20
1025.0374070438911076
 30
0.0
 40
56.25
  1
OSA
  7
TITLE5
 72
     1
 11
1930.6729627204219923
 21
1025.0374070438911076
 31
0.0
  0
TEXT
  5
B05D
  8
0
 62
     7
 10
1735.137248434707999
 20
946.9527202694951029
 30
0.0
 40
56.25
  1
351RLTFV
  7
TITLE5
 72
     1
 11
1930.6729627204219923
 21
946.9527202694951029
 31
0.0
  0
LINE
  5
B069
  8
0
 62
     7
 10
2356.6554838690722136
 20
626.6878365525601566
 30
0.0
 11
2324.4822512418832048
 21
655.2204385379476435
 31
0.0
  0
LINE
  5
B06A
  8
0
 62
     7
 10
2374.1212847080828396
 20
665.2704125154735948
 30
0.0
 11
2374.1212847080828396
 21
645.1704645604179404
 31
0.0
  0
LINE
  5
B06B
  8
0
 62
     7
 10
2374.1212847080828396
 20
645.1704645604179404
 30
0.0
 11
2356.6554838690690303
 21
645.1704645604179404
 31
0.0
  0
LINE
  5
B06C
  8
0
 62
     7
 10
2356.6554838690690303
 20
645.1704645604179404
 30
0.0
 11
2356.6554838690722136
 21
626.6878365525601566
 31
0.0
  0
LINE
  5
B06D
  8
0
 62
     7
 10
2356.6554838690722136
 20
683.7530405233312649
 30
0.0
 11
2324.4822512418832048
 21
655.2204385379476435
 31
0.0
  0
LINE
  5
B06E
  8
0
 62
     7
 10
2374.1212847080828396
 20
665.2704125154735948
 30
0.0
 11
2356.6554838690690303
 21
665.2704125154735948
 31
0.0
  0
LINE
  5
B06F
  8
0
 62
     7
 10
2356.6554838690690303
 20
665.2704125154735948
 30
0.0
 11
2356.6554838690722136
 21
683.7530405233312649
 31
0.0
  0
TEXT
  5
B076
  8
0
 62
     7
 10
2467.1751151521430074
 20
671.4767589933105683
 30
0.0
 40
60.0
  1
AIR
  7
TITLE
  0
TEXT
  5
B077
  8
0
 62
     7
 10
2420.0322580092888529
 20
571.4767589933105683
 30
0.0
 40
60.0
  1
FLOW
  7
TITLE
  0
LINE
  5
B083
  8
0
 62
     7
 10
720.3447493799258154
 20
1480.5190532303849977
 30
0.0
 11
748.8773513653140981
 21
1512.692285857573097
 31
0.0
  0
LINE
  5
B084
  8
0
 62
     7
 10
758.9273253428390262
 20
1463.0532523913739169
 30
0.0
 11
738.8273773877837129
 21
1463.0532523913739169
 31
0.0
  0
LINE
  5
B085
  8
0
 62
     7
 10
738.8273773877837129
 20
1463.0532523913739169
 30
0.0
 11
738.8273773877837129
 21
1480.5190532303870441
 31
0.0
  0
LINE
  5
B086
  8
0
 62
     7
 10
738.8273773877837129
 20
1480.5190532303870441
 30
0.0
 11
720.3447493799258154
 21
1480.5190532303849977
 31
0.0
  0
LINE
  5
B087
  8
0
 62
     7
 10
777.4099533506969237
 20
1480.5190532303849977
 30
0.0
 11
748.8773513653140981
 21
1512.692285857573097
 31
0.0
  0
LINE
  5
B088
  8
0
 62
     7
 10
758.9273253428390262
 20
1463.0532523913739169
 30
0.0
 11
758.9273253428390262
 21
1480.5190532303870441
 31
0.0
  0
LINE
  5
B089
  8
0
 62
     7
 10
758.9273253428390262
 20
1480.5190532303870441
 30
0.0
 11
777.4099533506969237
 21
1480.5190532303849977
 31
0.0
  0
LINE
  5
B0A3
  8
0
 62
     7
 10
323.1592460205437192
 20
1480.5190532303849977
 30
0.0
 11
351.6918480059321155
 21
1512.692285857573097
 31
0.0
  0
LINE
  5
B0A4
  8
0
 62
     7
 10
361.7418219834572142
 20
1463.0532523913739169
 30
0.0
 11
341.6418740284016167
 21
1463.0532523913739169
 31
0.0
  0
LINE
  5
B0A5
  8
0
 62
     7
 10
341.6418740284016167
 20
1463.0532523913739169
 30
0.0
 11
341.6418740284016167
 21
1480.5190532303870441
 31
0.0
  0
LINE
  5
B0A6
  8
0
 62
     7
 10
341.6418740284016167
 20
1480.5190532303870441
 30
0.0
 11
323.1592460205437192
 21
1480.5190532303849977
 31
0.0
  0
LINE
  5
B0A7
  8
0
 62
     7
 10
380.2244499913148843
 20
1480.5190532303849977
 30
0.0
 11
351.6918480059321155
 21
1512.692285857573097
 31
0.0
  0
LINE
  5
B0A8
  8
0
 62
     7
 10
361.7418219834572142
 20
1463.0532523913739169
 30
0.0
 11
361.7418219834572142
 21
1480.5190532303870441
 31
0.0
  0
LINE
  5
B0A9
  8
0
 62
     7
 10
361.7418219834572142
 20
1480.5190532303870441
 30
0.0
 11
380.2244499913148843
 21
1480.5190532303849977
 31
0.0
  0
INSERT
  5
B0B4
  8
0
  2
*U6
 10
0.0
 20
0.0
 30
0.0
  0
LINE
  5
B385
  8
0
 62
     7
 10
1503.3898855436659687
 20
-6.327851689163551
 30
0.0
 11
1503.3898855436659687
 21
3.668728764568232
 31
0.0
  0
LINE
  5
B38B
  8
0
 62
     7
 10
2298.2401511647171901
 20
-6.3278516889277237
 30
0.0
 11
2298.2401511647171901
 21
3.668728764804059
 31
0.0
  0
LINE
  5
B39D
  8
0
 62
     7
 10
1446.3898855436659687
 20
-41.8436354624790283
 30
0.0
 11
1419.583515852247956
 21
-41.8436354624790283
 31
0.0
  0
SOLID
  5
B39E
  8
0
 62
     7
 10
1446.3898855436659687
 20
-47.0141812704567883
 30
0.0
 11
1446.3898855436659687
 21
-37.0141812704586073
 31
0.0
 12
1476.3898855436659687
 22
-42.0141812704586073
 32
0.0
 13
1476.3898855436659687
 23
-42.0141812704586073
 33
0.0
  0
TEXT
  5
B39F
  8
0
 62
     7
 10
1368.0278473066130118
 20
-55.0998448427022822
 30
0.0
 40
30.0
  1
27
  0
VIEWPORT
  5
900C
 67
     1
  8
0
 10
5.648750245101807
 20
3.8662500832024511
 30
0.0
 40
19.9726078406340086
 41
8.7478968378502522
 68
     1
 69
     1
1001
ACAD
1000
MVIEW
1002
{
1070
    16
1010
0.0
1020
0.0
1030
0.0
1010
0.0
1020
0.0
1030
1.0
1040
0.0
1040
8.7478968378502522
1040
5.648750245101807
1040
3.8662500832024511
1040
50.0
1040
0.0
1040
0.0
1070
     0
1070
   100
1070
     1
1070
     1
1070
     0
1070
     0
1070
     0
1070
     0
1040
0.0
1040
0.0
1040
0.0
1040
10.0
1040
10.0
1040
10.0
1040
10.0
1070
     0
1002
{
1002
}
1002
}
1001
GENIUS_GENOBJ-N-SDF_13
1002
{
1000
OWNER
1000
GEN
1002
}
1001
GENIUS_GENODEF_13
1002
{
1000
HIER
1070
     0
1002
}
1002
{
1000
MANEDIT
1070
     0
1002
}
1002
{
1000
NOSEL
1070
     0
1002
}
1002
{
1000
BEHIND
1070
     0
1002
}
1002
{
1000
OTHER
1070
     0
1002
}
1002
{
1000
REACTOR
1002
}
1001
GENIUS_GENSCREG_15
1000
PF
1040
1.0
1000
DF
1040
1.0
1000
MIN
1011
-4.3375536752151964
1021
0.0
1031
0.0
1021
-0.5076983357226759
1031
0.0
1000
MAX
1011
15.6350541654188095
1021
0.0
1031
0.0
1021
8.2401985021275763
1031
0.0
1000
FLAGS
1070
     4
  0
VIEWPORT
  5
9010
 67
     1
  8
0
 10
5.6470831923597444
 20
3.8654168384281631
 30
0.0
 40
9.0353331077755907
 41
6.184666941485065
 68
     2
 69
     2
1001
ACAD
1000
MVIEW
1002
{
1070
    16
1010
0.0
1020
0.0
1030
0.0
1010
0.0
1020
0.0
1030
1.0
1040
0.0
1040
4713.1002850123250028
1040
2057.5437465944428368
1040
2332.3444419077209204
1040
50.0
1040
0.0
1040
0.0
1070
     0
1070
   100
1070
     1
1070
     1
1070
     0
1070
     0
1070
     0
1070
     0
1040
0.0
1040
0.0
1040
0.0
1040
10.0
1040
10.0
1040
10.0
1040
10.0
1070
     0
1002
{
1002
}
1002
}
1001
GENIUS_GENOBJ-N-SDF_13
1002
{
1000
OWNER
1000
GEN
1002
}
1001
GENIUS_GENODEF_13
1002
{
1000
HIER
1070
     0
1002
}
1002
{
1000
MANEDIT
1070
     0
1002
}
1002
{
1000
NOSEL
1070
     0
1002
}
1002
{
1000
BEHIND
1070
     0
1002
}
1002
{
1000
OTHER
1070
     0
1002
}
1002
{
1000
REACTOR
1002
}
1001
GENIUS_GENSCREG_15
1000
PF
1040
0.0
1000
DF
1040
0.0
1000
MIN
1011
1.1294166384719471
1021
0.0
1031
0.0
1021
0.7730833676856337
1031
0.0
1000
MAX
1011
10.1647497462475407
1021
0.0
1031
0.0
1021
6.957750309170696
1031
0.0
1000
FLAGS
1070
     4
  0
ENDSEC
  0
EOF
