  0
SECTION
  2
HEADER
  9
$ACADVER
  1
AC1009
  9
$INSBASE
 10
0.0
 20
0.0
 30
0.0
  9
$EXTMIN
 10
1062.881624495709957
 20
299.9583519062925916
 30
-0.000000000000013
  9
$EXTMAX
 10
5609.1013628030195832
 20
5162.0719303283685804
 30
0.0000000000000023
  9
$LIMMIN
 10
0.0
 20
0.0
  9
$LIMMAX
 10
4941.1764705882351336
 20
3494.1176470588229677
  9
$ORTHOMODE
 70
     1
  9
$REGENMODE
 70
     1
  9
$FILLMODE
 70
     1
  9
$QTEXTMODE
 70
     0
  9
$MIRRTEXT
 70
     0
  9
$DRAGMODE
 70
     2
  9
$LTSCALE
 40
11.7647058823529402
  9
$OSMODE
 70
  4095
  9
$ATTMODE
 70
     1
  9
$TEXTSIZE
 40
0.2
  9
$TRACEWID
 40
0.05
  9
$TEXTSTYLE
  7
STANDARD
  9
$CLAYER
  8
0
  9
$CELTYPE
  6
BYLAYER
  9
$CECOLOR
 62
   256
  9
$DIMSCALE
 40
1.0
  9
$DIMASZ
 40
0.18
  9
$DIMEXO
 40
0.0625
  9
$DIMDLI
 40
0.38
  9
$DIMRND
 40
0.0
  9
$DIMDLE
 40
0.0
  9
$DIMEXE
 40
0.18
  9
$DIMTP
 40
0.0
  9
$DIMTM
 40
0.0
  9
$DIMTXT
 40
0.18
  9
$DIMCEN
 40
0.09
  9
$DIMTSZ
 40
0.0
  9
$DIMTOL
 70
     0
  9
$DIMLIM
 70
     0
  9
$DIMTIH
 70
     1
  9
$DIMTOH
 70
     1
  9
$DIMSE1
 70
     0
  9
$DIMSE2
 70
     0
  9
$DIMTAD
 70
     0
  9
$DIMZIN
 70
     0
  9
$DIMBLK
  1

  9
$DIMASO
 70
     1
  9
$DIMSHO
 70
     1
  9
$DIMPOST
  1

  9
$DIMAPOST
  1

  9
$DIMALT
 70
     0
  9
$DIMALTD
 70
     2
  9
$DIMALTF
 40
25.3999999999999986
  9
$DIMLFAC
 40
1.0
  9
$DIMTOFL
 70
     0
  9
$DIMTVP
 40
0.0
  9
$DIMTIX
 70
     0
  9
$DIMSOXD
 70
     0
  9
$DIMSAH
 70
     0
  9
$DIMBLK1
  1

  9
$DIMBLK2
  1

  9
$DIMSTYLE
  2
STANDARD
  9
$DIMCLRD
 70
     0
  9
$DIMCLRE
 70
     0
  9
$DIMCLRT
 70
     0
  9
$DIMTFAC
 40
1.0
  9
$DIMGAP
 40
0.09
  9
$LUNITS
 70
     2
  9
$LUPREC
 70
     4
  9
$SKETCHINC
 40
0.1
  9
$FILLETRAD
 40
0.0
  9
$AUNITS
 70
     0
  9
$AUPREC
 70
     0
  9
$MENU
  1
.
  9
$ELEVATION
 40
0.0
  9
$PELEVATION
 40
0.0
  9
$THICKNESS
 40
0.0
  9
$LIMCHECK
 70
     0
  9
$BLIPMODE
 70
     0
  9
$CHAMFERA
 40
0.0
  9
$CHAMFERB
 40
0.0
  9
$SKPOLY
 70
     0
  9
$TDCREATE
 40
2458773.2969791670329869
  9
$TDUPDATE
 40
2458786.3335532411001623
  9
$TDINDWG
 40
0.3169675926
  9
$TDUSRTIMER
 40
0.3169675926
  9
$USRTIMER
 70
     1
  9
$ANGBASE
 50
0.0
  9
$ANGDIR
 70
     0
  9
$PDMODE
 70
     0
  9
$PDSIZE
 40
0.0
  9
$PLINEWID
 40
0.0
  9
$COORDS
 70
     1
  9
$SPLFRAME
 70
     0
  9
$SPLINETYPE
 70
     6
  9
$SPLINESEGS
 70
     8
  9
$ATTDIA
 70
     1
  9
$ATTREQ
 70
     1
  9
$HANDLING
 70
     1
  9
$HANDSEED
  5
30B9
  9
$SURFTAB1
 70
     6
  9
$SURFTAB2
 70
     6
  9
$SURFTYPE
 70
     6
  9
$SURFU
 70
     6
  9
$SURFV
 70
     6
  9
$UCSNAME
  2

  9
$UCSORG
 10
0.0
 20
0.0
 30
0.0
  9
$UCSXDIR
 10
1.0
 20
0.0
 30
0.0
  9
$UCSYDIR
 10
0.0
 20
1.0
 30
0.0
  9
$PUCSNAME
  2

  9
$PUCSORG
 10
0.0
 20
0.0
 30
0.0
  9
$PUCSXDIR
 10
1.0
 20
0.0
 30
0.0
  9
$PUCSYDIR
 10
0.0
 20
1.0
 30
0.0
  9
$USERI1
 70
     0
  9
$USERI2
 70
     0
  9
$USERI3
 70
     0
  9
$USERI4
 70
     0
  9
$USERI5
 70
     0
  9
$USERR1
 40
0.0
  9
$USERR2
 40
0.0
  9
$USERR3
 40
0.0
  9
$USERR4
 40
0.0
  9
$USERR5
 40
0.0
  9
$WORLDVIEW
 70
     1
  9
$SHADEDGE
 70
     3
  9
$SHADEDIF
 70
    70
  9
$TILEMODE
 70
     1
  9
$MAXACTVP
 70
    64
  9
$PLIMCHECK
 70
     0
  9
$PEXTMIN
 10
0.0
 20
0.0
 30
0.0
  9
$PEXTMAX
 10
4941.1764705882351336
 20
3494.1176470588229677
 30
0.0
  9
$PLIMMIN
 10
0.0
 20
0.0
  9
$PLIMMAX
 10
4941.1764705882351336
 20
3494.1176470588229677
  9
$UNITMODE
 70
     0
  9
$VISRETAIN
 70
     1
  9
$PLINEGEN
 70
     0
  9
$PSLTSCALE
 70
     1
  0
ENDSEC
  0
SECTION
  2
TABLES
  0
TABLE
  2
VPORT
 70
     1
  0
VPORT
  2
*ACTIVE
 70
     0
 10
0.0
 20
0.0
 11
1.0
 21
1.0
 12
-215.2576134846335947
 22
1496.1829102976460035
 13
0.0
 23
0.0
 14
1.0
 24
1.0
 15
0.0
 25
0.0
 16
0.0
 26
0.0
 36
501.3550651019638167
 17
3551.2491071340000417
 27
1234.8322308196850372
 37
0.0
 40
4894.4199809365090914
 41
2.043237250554323
 42
50.0
 43
0.0
 44
0.0
 50
0.0
 51
0.0
 71
     0
 72
 10000
 73
     1
 74
     1
 75
     0
 76
     0
 77
     0
 78
     1
  0
ENDTAB
  0
TABLE
  2
LTYPE
 70
    60
  0
LTYPE
  2
CONTINUOUS
 70
     0
  3
Solid line
 72
    65
 73
     0
 40
0.0
  0
LTYPE
  2
BY_STANDARD
 70
     0
  3
By Standard ____________    ____    ____   _
 72
    65
 73
     6
 40
1.2402999999999991
 49
0.6614
 49
-0.0827
 49
0.1654
 49
-0.0827
 49
0.1654
 49
-0.0827
  0
LTYPE
  2
CHAIN
 70
     0
  3
Chain ____ _ ____ _ ____ _ ____ _ ____ _ ____
 72
    65
 73
     4
 40
0.7087
 49
0.4724000000000001
 49
-0.0591
 49
0.1181
 49
-0.0591
  0
LTYPE
  2
DASH_DOT
 70
     0
  3
Dash dot __ . __ . __ . __ . __ . __ . __ . __
 72
    65
 73
     4
 40
0.37
 49
0.24
 49
-0.06
 49
0.01
 49
-0.06
  0
LTYPE
  2
DOUBLE_DASH_DOT
 70
     0
  3
Double-Dash Dot __ __ . __ __ . __ __ . __ _
 72
    65
 73
     6
 40
0.4398
 49
0.24
 49
-0.06
 49
0.0098
 49
-0.06
 49
0.01
 49
-0.06
  0
LTYPE
  2
DASH_TRIPLE_DOT
 70
     0
  3
Dash Triple-Dot _ . . . _ . . . _ . . . _
 72
    65
 73
     8
 40
0.51
 49
0.24
 49
-0.06
 49
0.01
 49
-0.06
 49
0.01
 49
-0.06
 49
0.01
 49
-0.06
  0
LTYPE
  2
DASHED
 70
     0
  3
Dashed __ __ __ __ __ __ __ __ __ __ __ __ __ _
 72
    65
 73
     2
 40
0.2067
 49
0.1654
 49
-0.0413
  0
LTYPE
  2
DASH_DOUBLE_DOT
 70
     0
  3
Dash Double-Dot __ . . __ . . __ . . __ . .
 72
    65
 73
     6
 40
0.4398
 49
0.24
 49
-0.06
 49
0.0098
 49
-0.06
 49
0.01
 49
-0.06
  0
LTYPE
  2
DASHED_SPACE
 70
     0
  3
Dashed Space __ __ __ __ __ __ __ __ __ __ __ _
 72
    65
 73
     2
 40
0.2067
 49
0.1654
 49
-0.0413
  0
LTYPE
  2
DOTTED
 70
     0
  3
Dotted . . . . . . . . . . . . . . . . . . . . 
 72
    65
 73
     2
 40
0.0482
 49
0.0069
 49
-0.0413
  0
LTYPE
  2
DOUBLE_DASH_CHAIN
 70
     0
  3
Double-Dash Chain ______  __  __  ______  __  _
 72
    65
 73
     6
 40
1.2402999999999991
 49
0.6614
 49
-0.0827
 49
0.1654
 49
-0.0827
 49
0.1654
 49
-0.0827
  0
LTYPE
  2
DOUBLE_DASH_DOUBLE_DOT
 70
     0
  3
Double-Dash Double-dot _ _ . . _ _ . . _
 72
    65
 73
     8
 40
0.7400000000000001
 49
0.24
 49
-0.06
 49
0.24
 49
-0.06
 49
0.01
 49
-0.06
 49
0.01
 49
-0.06
  0
LTYPE
  2
DOUBLE_DASH_TRIPLE_DOT
 70
     0
  3
Double Dash Triple Dot __ __ . . . __ __ . .
 72
    65
 73
    10
 40
0.8100000000000001
 49
0.24
 49
-0.06
 49
0.24
 49
-0.06
 49
0.01
 49
-0.06
 49
0.01
 49
-0.06
 49
0.01
 49
-0.06
  0
LTYPE
  2
LONG_DASH_DOTTED
 70
     0
  3
Long Dash Dotted ____ . ____ . ____ . ____ . _
 72
    65
 73
     4
 40
0.3543
 49
0.2362
 49
-0.0295
 49
0.0591
 49
-0.0295
  0
LTYPE
  2
LONG_DASH_DOUBLE_DOT
 70
     0
  3
Long Dash Double Dot ________  .  .  ________  
 72
    65
 73
     6
 40
0.6799999999999999
 49
0.48
 49
-0.06
 49
0.01
 49
-0.06
 49
0.01
 49
-0.06
  0
LTYPE
  2
LONG_DASH_TRIPLE_DOT
 70
     0
  3
Long Dash Triple Dot ____ ... ____ ... ____
 72
    65
 73
     8
 40
0.3689
 49
0.2362
 49
-0.0295
 49
0.0049
 49
-0.0295
 49
0.0049
 49
-0.0295
 49
0.0049
 49
-0.0295
  0
LTYPE
  2
BORDER
 70
     0
  3
Border __ __ . __ __ . __ __ . __ __ . __ __ .
 72
    65
 73
     6
 40
1.75
 49
0.5
 49
-0.25
 49
0.5
 49
-0.25
 49
0.0
 49
-0.25
  0
LTYPE
  2
BORDER2
 70
     0
  3
Border (.5x) __.__.__.__.__.__.__.__.__.__.__.
 72
    65
 73
     6
 40
0.875
 49
0.25
 49
-0.125
 49
0.25
 49
-0.125
 49
0.0
 49
-0.125
  0
LTYPE
  2
BORDERX2
 70
     0
  3
Border (2x) ____  ____  .  ____  ____  .  ___
 72
    65
 73
     6
 40
3.5
 49
1.0
 49
-0.5
 49
1.0
 49
-0.5
 49
0.0
 49
-0.5
  0
LTYPE
  2
CENTER
 70
     0
  3
Center ____ _ ____ _ ____ _ ____ _ ____ _ ____
 72
    65
 73
     4
 40
2.0
 49
1.25
 49
-0.25
 49
0.25
 49
-0.25
  0
LTYPE
  2
CENTER2
 70
     0
  3
Center (.5x) ___ _ ___ _ ___ _ ___ _ ___ _ ___
 72
    65
 73
     4
 40
1.125
 49
0.75
 49
-0.125
 49
0.125
 49
-0.125
  0
LTYPE
  2
CENTERX2
 70
     0
  3
Center (2x) ________  __  ________  __  _____
 72
    65
 73
     4
 40
4.0
 49
2.5
 49
-0.5
 49
0.5
 49
-0.5
  0
LTYPE
  2
DASHDOT2
 70
     0
  3
Dash dot (.5x) _._._._._._._._._._._._._._._.
 72
    65
 73
     4
 40
0.5
 49
0.25
 49
-0.125
 49
0.0
 49
-0.125
  0
LTYPE
  2
DASHDOTX2
 70
     0
  3
Dash dot (2x) ____  .  ____  .  ____  .  ___
 72
    65
 73
     4
 40
2.0
 49
1.0
 49
-0.5
 49
0.0
 49
-0.5
  0
LTYPE
  2
DASHED2
 70
     0
  3
Dashed (.5x) _ _ _ _ _ _ _ _ _ _ _ _ _ _ _ _ _
 72
    65
 73
     2
 40
0.375
 49
0.25
 49
-0.125
  0
LTYPE
  2
DASHEDX2
 70
     0
  3
Dashed (2x) ____  ____  ____  ____  ____  ___
 72
    65
 73
     2
 40
1.5
 49
1.0
 49
-0.5
  0
LTYPE
  2
DIVIDE
 70
     0
  3
Divide ____ . . ____ . . ____ . . ____ . . ____
 72
    65
 73
     6
 40
1.25
 49
0.5
 49
-0.25
 49
0.0
 49
-0.25
 49
0.0
 49
-0.25
  0
LTYPE
  2
DIVIDE2
 70
     0
  3
Divide (.5x) __..__..__..__..__..__..__..__.._
 72
    65
 73
     6
 40
0.625
 49
0.25
 49
-0.125
 49
0.0
 49
-0.125
 49
0.0
 49
-0.125
  0
LTYPE
  2
DIVIDEX2
 70
     0
  3
Divide (2x) ________  .  .  ________  .  .  _
 72
    65
 73
     6
 40
2.5
 49
1.0
 49
-0.5
 49
0.0
 49
-0.5
 49
0.0
 49
-0.5
  0
LTYPE
  2
DOT
 70
     0
  3
Dot . . . . . . . . . . . . . . . . . . . . . .
 72
    65
 73
     2
 40
0.25
 49
0.0
 49
-0.25
  0
LTYPE
  2
DOT2
 70
     0
  3
Dot (.5x) .....................................
 72
    65
 73
     2
 40
0.125
 49
0.0
 49
-0.125
  0
LTYPE
  2
DOTX2
 70
     0
  3
Dot (2x) .  .  .  .  .  .  .  .  .  .  .  .  . 
 72
    65
 73
     2
 40
0.5
 49
0.0
 49
-0.5
  0
LTYPE
  2
HIDDEN
 70
     0
  3
Hidden __ __ __ __ __ __ __ __ __ __ __ __ __ _
 72
    65
 73
     2
 40
0.375
 49
0.25
 49
-0.125
  0
LTYPE
  2
HIDDEN2
 70
     0
  3
Hidden (.5x) _ _ _ _ _ _ _ _ _ _ _ _ _ _ _ _ _
 72
    65
 73
     2
 40
0.1875
 49
0.125
 49
-0.0625
  0
LTYPE
  2
HIDDENX2
 70
     0
  3
Hidden (2x) ____ ____ ____ ____ ____ ____ ____
 72
    65
 73
     2
 40
0.75
 49
0.5
 49
-0.25
  0
LTYPE
  2
PHANTOM
 70
     0
  3
Phantom ______  __  __  ______  __  __  ______
 72
    65
 73
     6
 40
2.5
 49
1.25
 49
-0.25
 49
0.25
 49
-0.25
 49
0.25
 49
-0.25
  0
LTYPE
  2
PHANTOM2
 70
     0
  3
Phantom (.5x) ___ _ _ ___ _ _ ___ _ _ ___ _ _
 72
    65
 73
     6
 40
1.25
 49
0.625
 49
-0.125
 49
0.125
 49
-0.125
 49
0.125
 49
-0.125
  0
LTYPE
  2
PHANTOMX2
 70
     0
  3
Phantom (2x) ____________    ____    ____   _
 72
    65
 73
     6
 40
5.0
 49
2.5
 49
-0.5
 49
0.5
 49
-0.5
 49
0.5
 49
-0.5
  0
LTYPE
  2
ACAD_ISO02W100
 70
     0
  3
ISO dash __ __ __ __ __ __ __ __ __ __ __ __ __
 72
    65
 73
     2
 40
0.59
 49
0.47
 49
-0.12
  0
LTYPE
  2
ACAD_ISO03W100
 70
     0
  3
ISO dash space __    __    __    __    __    __
 72
    65
 73
     2
 40
1.179999999999999
 49
0.47
 49
-0.71
  0
LTYPE
  2
ACAD_ISO04W100
 70
     0
  3
ISO long-dash dot ____ . ____ . ____ . ____ . _
 72
    65
 73
     4
 40
1.179999999999999
 49
0.9399999999999998
 49
-0.12
 49
0.0
 49
-0.12
  0
LTYPE
  2
ACAD_ISO05W100
 70
     0
  3
ISO long-dash double-dot ____ .. ____ .. ____ .
 72
    65
 73
     6
 40
1.2999999999999989
 49
0.9399999999999998
 49
-0.12
 49
0.0
 49
-0.12
 49
0.0
 49
-0.12
  0
LTYPE
  2
ACAD_ISO06W100
 70
     0
  3
ISO long-dash triple-dot ____ ... ____ ... ____
 72
    65
 73
     8
 40
1.419999999999999
 49
0.9399999999999998
 49
-0.12
 49
0.0
 49
-0.12
 49
0.0
 49
-0.12
 49
0.0
 49
-0.12
  0
LTYPE
  2
ACAD_ISO07W100
 70
     0
  3
ISO dot . . . . . . . . . . . . . . . . . . . .
 72
    65
 73
     2
 40
0.12
 49
0.0
 49
-0.12
  0
LTYPE
  2
ACAD_ISO08W100
 70
     0
  3
ISO long-dash short-dash ____ __ ____ __ ____ _
 72
    65
 73
     4
 40
0.95
 49
0.47
 49
-0.12
 49
0.24
 49
-0.12
  0
LTYPE
  2
ACAD_ISO09W100
 70
     0
  3
ISO long-dash double-short-dash ____ __ __ ____
 72
    65
 73
     6
 40
1.3100000000000001
 49
0.47
 49
-0.12
 49
0.24
 49
-0.12
 49
0.24
 49
-0.12
  0
LTYPE
  2
ACAD_ISO10W100
 70
     0
  3
ISO dash dot __ . __ . __ . __ . __ . __ . __ .
 72
    65
 73
     4
 40
0.71
 49
0.47
 49
-0.12
 49
0.0
 49
-0.12
  0
LTYPE
  2
ACAD_ISO11W100
 70
     0
  3
ISO double-dash dot __ __ . __ __ . __ __ . __ 
 72
    65
 73
     6
 40
1.2999999999999989
 49
0.47
 49
-0.12
 49
0.47
 49
-0.12
 49
0.0
 49
-0.12
  0
LTYPE
  2
ACAD_ISO12W100
 70
     0
  3
ISO dash double-dot __ . . __ . . __ . . __ . .
 72
    65
 73
     6
 40
0.8299999999999998
 49
0.47
 49
-0.12
 49
0.0
 49
-0.12
 49
0.0
 49
-0.12
  0
LTYPE
  2
ACAD_ISO13W100
 70
     0
  3
ISO double-dash double-dot __ __ . . __ __ . . 
 72
    65
 73
     8
 40
1.419999999999999
 49
0.47
 49
-0.12
 49
0.47
 49
-0.12
 49
0.0
 49
-0.12
 49
0.0
 49
-0.12
  0
LTYPE
  2
ACAD_ISO14W100
 70
     0
  3
ISO dash triple-dot __ . . . __ . . . __ . . . 
 72
    65
 73
     8
 40
0.95
 49
0.47
 49
-0.12
 49
0.0
 49
-0.12
 49
0.0
 49
-0.12
 49
0.0
 49
-0.12
  0
LTYPE
  2
ACAD_ISO15W100
 70
     0
  3
ISO double-dash triple-dot __ __ . . . __ __ . 
 72
    65
 73
    10
 40
1.5399999999999989
 49
0.47
 49
-0.12
 49
0.47
 49
-0.12
 49
0.0
 49
-0.12
 49
0.0
 49
-0.12
 49
0.0
 49
-0.12
  0
LTYPE
  2
FENCELINE1
 70
     0
  3
Fenceline circle ----0-----0----0-----0----0---
 72
    65
 73
     4
 40
1.45
 49
0.25
 49
-0.1
 49
-0.1
 49
1.0
  0
LTYPE
  2
FENCELINE2
 70
     0
  3
Fenceline square ----[]-----[]----[]-----[]----
 72
    65
 73
     4
 40
1.45
 49
0.25
 49
-0.1
 49
-0.1
 49
1.0
  0
LTYPE
  2
TRACKS
 70
     0
  3
Tracks -|-|-|-|-|-|-|-|-|-|-|-|-|-|-|-|-|-|-|-|
 72
    65
 73
     2
 40
0.3
 49
0.15
 49
0.15
  0
LTYPE
  2
BATTING
 70
     0
  3
Batting SSSSSSSSSSSSSSSSSSSSSSSSSSSSSSSSSSSSSSS
 72
    65
 73
     4
 40
0.4001000000000001
 49
0.0001
 49
-0.1
 49
-0.2
 49
-0.1
  0
LTYPE
  2
HOT_WATER_SUPPLY
 70
     0
  3
Hot water supply ---- HW ---- HW ---- HW ----
 72
    65
 73
     3
 40
0.9
 49
0.5
 49
-0.2
 49
-0.2
  0
LTYPE
  2
GAS_LINE
 70
     0
  3
Gas line ----GAS----GAS----GAS----GAS----GAS---
 72
    65
 73
     3
 40
0.95
 49
0.5
 49
-0.2
 49
-0.25
  0
LTYPE
  2
ZIGZAG
 70
     0
  3
Zig zag /\/\/\/\/\/\/\/\/\/\/\/\/\/\/\/\/\/\/\/
 72
    65
 73
     4
 40
0.8001000000000001
 49
0.0001
 49
-0.2
 49
-0.4
 49
-0.2
  0
ENDTAB
  0
TABLE
  2
LAYER
 70
     9
  0
LAYER
  2
0
 70
     0
 62
     7
  6
CONTINUOUS
  0
LAYER
  2
OUTLINE
 70
     0
 62
     7
  6
CONTINUOUS
  0
LAYER
  2
SKETCH_GEOMETRY__ANSI_
 70
     0
 62
     7
  6
CONTINUOUS
  0
LAYER
  2
DIMENSION
 70
     0
 62
     7
  6
CONTINUOUS
  0
LAYER
  2
SKETCH_GEOMETRY
 70
     0
 62
     7
  6
CONTINUOUS
  0
LAYER
  2
SYMBOL
 70
     0
 62
     7
  6
CONTINUOUS
  0
LAYER
  2
VISIBLE
 70
     0
 62
     7
  6
CONTINUOUS
  0
LAYER
  2
DEFPOINTS
 70
     0
 62
     7
  6
CONTINUOUS
  0
LAYER
  2
CLEAR
 70
     0
 62
     1
  6
PHANTOM
  0
ENDTAB
  0
TABLE
  2
STYLE
 70
    17
  0
STYLE
  2
STANDARD
 70
     0
 40
0.0
 41
1.0
 50
0.0
 71
     0
 42
0.2
  3
txt
  4

  0
STYLE
  2
ANNOTATIVE
 70
     0
 40
0.0
 41
1.0
 50
0.0
 71
     0
 42
0.2
  3
txt
  4

  0
STYLE
  2

 70
     1
 40
0.0
 41
1.0
 50
0.0
 71
     0
 42
0.2
  3
ltypeshp.shx
  4

  0
STYLE
  2
BEND_NUMBERS
 70
     0
 40
0.0
 41
1.0
 50
0.0
 71
     0
 42
0.2
  3
txt
  4

  0
STYLE
  2
COLUMN_HEADER_TEXT
 70
     0
 40
0.0
 41
1.0
 50
0.0
 71
     0
 42
0.2
  3
txt
  4

  0
STYLE
  2
COPY_OF_COPY_OF_NOTE_TEXT
 70
     0
 40
0.0
 41
1.0
 50
0.0
 71
     0
 42
0.2
  3
txt
  4

  0
STYLE
  2
COPY_OF_NOTE_TEXT
 70
     0
 40
0.0
 41
1.0
 50
0.0
 71
     0
 42
0.2
  3
txt
  4

  0
STYLE
  2
LABEL_TEXT
 70
     0
 40
0.0
 41
1.0
 50
0.0
 71
     0
 42
0.2
  3
txt
  4

  0
STYLE
  2
LABEL_TEXT__ISO_
 70
     0
 40
0.0
 41
1.0
 50
0.0
 71
     0
 42
0.2
  3
txt
  4

  0
STYLE
  2
NOTE_TEXT
 70
     0
 40
0.0
 41
1.0
 50
0.0
 71
     0
 42
0.2
  3
txt
  4

  0
STYLE
  2
NOTE_TEXT__ISO_
 70
     0
 40
0.0
 41
1.0
 50
0.0
 71
     0
 42
0.2
  3
txt
  4

  0
STYLE
  2
TITLEBLOCK_1
 70
     0
 40
0.0
 41
1.0
 50
0.0
 71
     0
 42
0.2
  3
txt
  4

  0
STYLE
  2
TITLEBLOCK_2
 70
     0
 40
0.0
 41
1.0
 50
0.0
 71
     0
 42
0.2
  3
txt
  4

  0
STYLE
  2
TITLE3
 70
     0
 40
40.0
 41
1.0
 50
0.0
 71
     0
 42
40.0
  3
SIMPLEX.shx
  4

  0
STYLE
  2
SIMPLEX
 70
     0
 40
40.0
 41
1.0
 50
0.0
 71
     0
 42
25.0
  3
SIMPLEX
  4

  0
STYLE
  2
TITLE5
 70
     0
 40
50.0
 41
1.0
 50
0.0
 71
     0
 42
50.0
  3
SIMPLEX.shx
  4

  0
STYLE
  2
MTXPL_TAHOMA
 70
     0
 40
0.0
 41
1.0
 50
0.0
 71
     0
 42
0.2
  3
txt
  4

  0
ENDTAB
  0
TABLE
  2
VIEW
 70
     3
  0
ENDTAB
  0
TABLE
  2
UCS
 70
     0
  0
ENDTAB
  0
TABLE
  2
APPID
 70
     6
  0
APPID
  2
ACAD
 70
     0
  0
APPID
  2
ACADANNOTATIVE
 70
     0
  0
APPID
  2
ACAD_NAV_VCDISPLAY
 70
     0
  0
APPID
  2
ACAD_EXEMPT_FROM_CAD_STANDARDS
 70
     0
  0
APPID
  2
ACAD_DSTYLE_DIMRADIAL_EXTENSION
 70
     0
  0
APPID
  2
ACAD_MLEADERVER
 70
     0
  0
ENDTAB
  0
TABLE
  2
DIMSTYLE
 70
    34
  0
DIMSTYLE
  2
STANDARD
 70
     0
  3

  4

  5

  6

  7

 40
1.0
 41
0.18
 42
0.0625
 43
0.38
 44
0.18
 45
0.0
 46
0.0
 47
0.0
 48
0.0
140
0.18
141
0.09
142
0.0
143
25.3999999999999986
144
1.0
145
0.0
146
1.0
147
0.09
 71
     0
 72
     0
 73
     1
 74
     1
 75
     0
 76
     0
 77
     0
 78
     0
170
     0
171
     2
172
     0
173
     0
174
     0
175
     0
176
     0
177
     0
178
     0
  0
DIMSTYLE
  2
ANNOTATIVE
 70
     0
  3

  4

  5

  6

  7

 40
1.0
 41
0.18
 42
0.0625
 43
0.38
 44
0.18
 45
0.0
 46
0.0
 47
0.0
 48
0.0
140
0.18
141
0.09
142
0.0
143
25.3999999999999986
144
1.0
145
0.0
146
1.0
147
0.09
 71
     0
 72
     0
 73
     1
 74
     1
 75
     0
 76
     0
 77
     0
 78
     0
170
     0
171
     2
172
     0
173
     0
174
     0
175
     0
176
     0
177
     0
178
     0
  0
DIMSTYLE
  2
BEND_NOTES_NO_RAD
 70
     0
  3

  4

  5

  6

  7

 40
11.7647058823529402
 41
2.5
 42
1.600199999999999
 43
5.9999999999999991
 44
3.1749999999999989
 45
0.00000001
 46
10.0
 47
0.0
 48
0.0
140
3.0500001907348628
141
0.09
142
0.0
143
1.0
144
1.0
145
0.0
146
0.9993442296981812
147
0.8
 71
     0
 72
     0
 73
     0
 74
     1
 75
     0
 76
     0
 77
     0
 78
     8
170
     0
171
     1
172
     0
173
     0
174
     0
175
     0
176
   256
177
   256
178
   256
  0
DIMSTYLE
  2
BEND_NOTES_NO_RAD$7
 70
     0
  3

  4

  5

  6

  7

 40
11.7647058823529402
 41
2.5
 42
1.600199999999999
 43
5.9999999999999991
 44
3.1749999999999989
 45
0.00000001
 46
10.0
 47
0.0
 48
0.0
140
3.0500001907348628
141
0.09
142
0.0
143
1.0
144
1.0
145
0.0
146
0.9993442296981812
147
0.8
 71
     0
 72
     0
 73
     0
 74
     1
 75
     0
 76
     0
 77
     0
 78
     8
170
     0
171
     1
172
     0
173
     0
174
     0
175
     0
176
   256
177
   256
178
   256
  0
DIMSTYLE
  2
BEND_NOTES_WITH_RAD
 70
     0
  3

  4

  5

  6

  7

 40
11.7647058823529402
 41
2.5
 42
1.600199999999999
 43
5.9999999999999991
 44
3.1749999999999989
 45
0.00000001
 46
10.0
 47
0.0
 48
0.0
140
3.0500001907348628
141
0.09
142
0.0
143
1.0
144
1.0
145
0.0
146
0.9993442296981812
147
0.8
 71
     0
 72
     0
 73
     0
 74
     1
 75
     0
 76
     0
 77
     0
 78
     8
170
     0
171
     1
172
     0
173
     0
174
     0
175
     0
176
   256
177
   256
178
   256
  0
DIMSTYLE
  2
BEND_NOTES_WITH_RAD$7
 70
     0
  3

  4

  5

  6

  7

 40
11.7647058823529402
 41
2.5
 42
1.600199999999999
 43
5.9999999999999991
 44
3.1749999999999989
 45
0.00000001
 46
10.0
 47
0.0
 48
0.0
140
3.0500001907348628
141
0.09
142
0.0
143
1.0
144
1.0
145
0.0
146
0.9993442296981812
147
0.8
 71
     0
 72
     0
 73
     0
 74
     1
 75
     0
 76
     0
 77
     0
 78
     8
170
     0
171
     1
172
     0
173
     0
174
     0
175
     0
176
   256
177
   256
178
   256
  0
DIMSTYLE
  2
BEND_NUMBERS
 70
     0
  3

  4

  5

  6

  7

 40
11.7647058823529402
 41
2.5
 42
1.600199999999999
 43
5.9999999999999991
 44
3.1749999999999989
 45
0.00000001
 46
10.0
 47
0.0
 48
0.0
140
3.0480000972747798
141
0.09
142
0.0
143
1.0
144
1.0
145
0.0
146
1.0
147
0.8
 71
     0
 72
     0
 73
     0
 74
     1
 75
     0
 76
     0
 77
     0
 78
     8
170
     0
171
     1
172
     0
173
     0
174
     0
175
     0
176
   256
177
   256
178
     5
  0
DIMSTYLE
  2
BEND_NUMBERS$7
 70
     0
  3

  4

  5

  6

  7

 40
11.7647058823529402
 41
2.5
 42
1.600199999999999
 43
5.9999999999999991
 44
3.1749999999999989
 45
0.00000001
 46
10.0
 47
0.0
 48
0.0
140
3.0480000972747798
141
0.09
142
0.0
143
1.0
144
1.0
145
0.0
146
1.0
147
0.8
 71
     0
 72
     0
 73
     0
 74
     1
 75
     0
 76
     0
 77
     0
 78
     8
170
     0
171
     1
172
     0
173
     0
174
     0
175
     0
176
   256
177
   256
178
     5
  0
DIMSTYLE
  2
DEFAULT
 70
     0
  3

  4

  5

  6

  7

 40
11.7647058823529402
 41
2.5
 42
1.600199999999999
 43
5.9999999999999991
 44
3.1749999999999989
 45
0.00000001
 46
10.0
 47
0.0
 48
0.0
140
3.0500001907348628
141
0.09
142
0.0
143
1.0
144
1.0
145
0.0
146
0.9993442296981812
147
0.8
 71
     0
 72
     0
 73
     0
 74
     1
 75
     0
 76
     0
 77
     0
 78
     0
170
     0
171
     1
172
     0
173
     0
174
     0
175
     0
176
   256
177
   256
178
   256
  0
DIMSTYLE
  2
DEFAULT$7
 70
     0
  3

  4

  5

  6

  7

 40
11.7647058823529402
 41
2.5
 42
1.600199999999999
 43
5.9999999999999991
 44
3.1749999999999989
 45
0.00000001
 46
10.0
 47
0.0
 48
0.0
140
3.0500001907348628
141
0.09
142
0.0
143
1.0
144
1.0
145
0.0
146
0.9993442296981812
147
0.8
 71
     0
 72
     0
 73
     0
 74
     1
 75
     0
 76
     0
 77
     0
 78
     0
170
     0
171
     1
172
     0
173
     0
174
     0
175
     0
176
   256
177
   256
178
   256
  0
DIMSTYLE
  2
DEFAULT_-_METHOD_1B__ISO_
 70
     0
  3

  4

  5

  6

  7

 40
11.7647058823529402
 41
2.5
 42
0.0
 43
5.9999999999999991
 44
3.1749999999999989
 45
0.00000001
 46
10.0
 47
0.0
 48
0.0
140
3.5
141
0.09
142
0.0
143
0.03937
144
1.0
145
0.0
146
1.0
147
0.762
 71
     0
 72
     0
 73
     0
 74
     1
 75
     0
 76
     0
 77
     1
 78
     8
170
     0
171
     3
172
     1
173
     0
174
     0
175
     0
176
   256
177
   256
178
   256
  0
DIMSTYLE
  2
DEFAULT_-_METHOD_1B__ISO_$
 70
     0
  3

  4

  5

  6

  7

 40
11.7647058823529402
 41
2.5
 42
0.0
 43
5.9999999999999991
 44
3.1749999999999989
 45
0.00000001
 46
10.0
 47
0.0
 48
0.0
140
3.5
141
0.09
142
0.0
143
0.03937
144
1.0
145
0.0
146
1.0
147
0.762
 71
     0
 72
     0
 73
     0
 74
     1
 75
     0
 76
     0
 77
     1
 78
     8
170
     0
171
     3
172
     1
173
     0
174
     0
175
     0
176
   256
177
   256
178
   256
  0
DIMSTYLE
  2
DEFAULT_-_METHOD_2A__ISO_
 70
     0
  3

  4

  5

  6

  7

 40
11.7647058823529402
 41
2.5
 42
0.0
 43
5.9999999999999991
 44
3.1749999999999989
 45
0.00000001
 46
10.0
 47
0.0
 48
0.0
140
3.5
141
0.09
142
0.0
143
0.03937
144
1.0
145
0.0
146
1.0
147
0.762
 71
     0
 72
     0
 73
     1
 74
     1
 75
     0
 76
     0
 77
     1
 78
     8
170
     0
171
     3
172
     1
173
     0
174
     0
175
     0
176
   256
177
   256
178
   256
  0
DIMSTYLE
  2
DEFAULT_-_METHOD_2A__ISO_$
 70
     0
  3

  4

  5

  6

  7

 40
11.7647058823529402
 41
2.5
 42
0.0
 43
5.9999999999999991
 44
3.1749999999999989
 45
0.00000001
 46
10.0
 47
0.0
 48
0.0
140
3.5
141
0.09
142
0.0
143
0.03937
144
1.0
145
0.0
146
1.0
147
0.762
 71
     0
 72
     0
 73
     1
 74
     1
 75
     0
 76
     0
 77
     1
 78
     8
170
     0
171
     3
172
     1
173
     0
174
     0
175
     0
176
   256
177
   256
178
   256
  0
DIMSTYLE
  2
DEFAULT_-_METHOD_2B__ISO_
 70
     0
  3

  4

  5

  6

  7

 40
11.7647058823529402
 41
2.5
 42
0.0
 43
5.9999999999999991
 44
3.1749999999999989
 45
0.00000001
 46
10.0
 47
0.0
 48
0.0
140
3.5
141
0.09
142
0.0
143
0.03937
144
1.0
145
0.0
146
1.0
147
0.762
 71
     0
 72
     0
 73
     1
 74
     1
 75
     0
 76
     0
 77
     1
 78
     8
170
     0
171
     3
172
     1
173
     0
174
     0
175
     0
176
   256
177
   256
178
   256
  0
DIMSTYLE
  2
DEFAULT_-_METHOD_2B__ISO_$
 70
     0
  3

  4

  5

  6

  7

 40
11.7647058823529402
 41
2.5
 42
0.0
 43
5.9999999999999991
 44
3.1749999999999989
 45
0.00000001
 46
10.0
 47
0.0
 48
0.0
140
3.5
141
0.09
142
0.0
143
0.03937
144
1.0
145
0.0
146
1.0
147
0.762
 71
     0
 72
     0
 73
     1
 74
     1
 75
     0
 76
     0
 77
     1
 78
     8
170
     0
171
     3
172
     1
173
     0
174
     0
175
     0
176
   256
177
   256
178
   256
  0
DIMSTYLE
  2
DEFAULT_-_MM__IN___ISO_
 70
     0
  3

  4
 in
  5

  6

  7

 40
11.7647058823529402
 41
2.5
 42
0.0
 43
5.9999999999999991
 44
3.1749999999999989
 45
0.00000001
 46
10.0
 47
0.0
 48
0.0
140
3.5
141
0.09
142
0.0
143
0.03937
144
1.0
145
0.0
146
1.0
147
0.762
 71
     0
 72
     0
 73
     0
 74
     0
 75
     0
 76
     0
 77
     1
 78
     8
170
     1
171
     3
172
     1
173
     0
174
     0
175
     0
176
   256
177
   256
178
   256
  0
DIMSTYLE
  2
DEFAULT_-_MM__IN___ISO_$7
 70
     0
  3

  4
 in
  5

  6

  7

 40
11.7647058823529402
 41
2.5
 42
0.0
 43
5.9999999999999991
 44
3.1749999999999989
 45
0.00000001
 46
10.0
 47
0.0
 48
0.0
140
3.5
141
0.09
142
0.0
143
0.03937
144
1.0
145
0.0
146
1.0
147
0.762
 71
     0
 72
     0
 73
     0
 74
     0
 75
     0
 76
     0
 77
     1
 78
     8
170
     1
171
     3
172
     1
173
     0
174
     0
175
     0
176
   256
177
   256
178
   256
  0
DIMSTYLE
  2
DEFAULT__ISO_
 70
     0
  3

  4

  5

  6

  7

 40
11.7647058823529402
 41
2.5
 42
0.0
 43
5.9999999999999991
 44
3.1749999999999989
 45
0.00000001
 46
10.0
 47
0.0
 48
0.0
140
3.5
141
0.09
142
0.0
143
0.03937
144
1.0
145
0.0
146
1.0014857053756709
147
0.762
 71
     0
 72
     0
 73
     0
 74
     0
 75
     0
 76
     0
 77
     1
 78
     0
170
     0
171
     3
172
     1
173
     0
174
     0
175
     0
176
   256
177
   256
178
   256
  0
DIMSTYLE
  2
DEFAULT__ISO_$7
 70
     0
  3

  4

  5

  6

  7

 40
11.7647058823529402
 41
2.5
 42
0.0
 43
5.9999999999999991
 44
3.1749999999999989
 45
0.00000001
 46
10.0
 47
0.0
 48
0.0
140
3.5
141
0.09
142
0.0
143
0.03937
144
1.0
145
0.0
146
1.0014857053756709
147
0.762
 71
     0
 72
     0
 73
     0
 74
     0
 75
     0
 76
     0
 77
     1
 78
     0
170
     0
171
     3
172
     1
173
     0
174
     0
175
     0
176
   256
177
   256
178
   256
  0
DIMSTYLE
  2
FOLDED
 70
     0
  3

  4

  5

  6

  7

 40
11.7647058823529402
 41
2.5
 42
1.600199999999999
 43
5.9999999999999991
 44
3.1749999999999989
 45
0.00000001
 46
10.0
 47
0.0
 48
0.0
140
3.0500001907348628
141
0.09
142
0.0
143
1.0
144
1.0
145
0.0
146
0.9993442296981812
147
-0.8
 71
     0
 72
     0
 73
     0
 74
     1
 75
     0
 76
     0
 77
     0
 78
     0
170
     0
171
     1
172
     0
173
     0
174
     0
175
     0
176
   256
177
   256
178
   256
  0
DIMSTYLE
  2
FOLDED$7
 70
     0
  3

  4

  5

  6

  7

 40
11.7647058823529402
 41
2.5
 42
1.600199999999999
 43
5.9999999999999991
 44
3.1749999999999989
 45
0.00000001
 46
10.0
 47
0.0
 48
0.0
140
3.0500001907348628
141
0.09
142
0.0
143
1.0
144
1.0
145
0.0
146
0.9993442296981812
147
-0.8
 71
     0
 72
     0
 73
     0
 74
     1
 75
     0
 76
     0
 77
     0
 78
     0
170
     0
171
     1
172
     0
173
     0
174
     0
175
     0
176
   256
177
   256
178
   256
  0
DIMSTYLE
  2
MISCELLANEOUS_OBJECT__ISO_
 70
     0
  3

  4

  5

  6

  7

 40
11.7647058823529402
 41
2.5
 42
0.0
 43
5.9999999999999991
 44
3.1749999999999989
 45
0.00000001
 46
10.0
 47
0.0
 48
0.0
140
5.25
141
0.09
142
0.0
143
0.03937
144
1.0
145
0.0
146
0.6676571965217591
147
0.762
 71
     0
 72
     0
 73
     0
 74
     0
 75
     0
 76
     0
 77
     1
 78
     0
170
     0
171
     3
172
     1
173
     0
174
     0
175
     0
176
   256
177
   256
178
   256
  0
DIMSTYLE
  2
MISCELLANEOUS_OBJECT__ISO0
 70
     0
  3

  4

  5

  6

  7

 40
11.7647058823529402
 41
5.0
 42
0.0
 43
5.9999999999999991
 44
3.1749999999999989
 45
0.00000001
 46
10.0
 47
0.0
 48
0.0
140
5.25
141
0.09
142
0.0
143
0.03937
144
1.0
145
0.0
146
0.6676571965217591
147
0.762
 71
     0
 72
     0
 73
     0
 74
     0
 75
     0
 76
     0
 77
     1
 78
     0
170
     0
171
     3
172
     1
173
     0
174
     0
175
     0
176
   256
177
   256
178
   256
  0
DIMSTYLE
  2
OUTSIDE_DIMENSION
 70
     0
  3

  4

  5

  6

  7

 40
11.7647058823529402
 41
2.5
 42
1.600199999999999
 43
5.9999999999999991
 44
3.1749999999999989
 45
0.00000001
 46
10.0
 47
0.0
 48
0.0
140
3.0500001907348628
141
0.09
142
0.0
143
1.0
144
1.0
145
0.0
146
0.9993442296981812
147
0.8
 71
     0
 72
     0
 73
     0
 74
     1
 75
     0
 76
     0
 77
     0
 78
     0
170
     0
171
     1
172
     0
173
     0
174
     0
175
     0
176
   256
177
   256
178
   256
  0
DIMSTYLE
  2
OUTSIDE_DIMENSION$7
 70
     0
  3

  4

  5

  6

  7

 40
11.7647058823529402
 41
2.5
 42
1.600199999999999
 43
5.9999999999999991
 44
3.1749999999999989
 45
0.00000001
 46
10.0
 47
0.0
 48
0.0
140
3.0500001907348628
141
0.09
142
0.0
143
1.0
144
1.0
145
0.0
146
0.9993442296981812
147
0.8
 71
     0
 72
     0
 73
     0
 74
     1
 75
     0
 76
     0
 77
     0
 78
     0
170
     0
171
     1
172
     0
173
     0
174
     0
175
     0
176
   256
177
   256
178
   256
  0
DIMSTYLE
  2
PIPEWORK
 70
     0
  3

  4

  5

  6

  7

 40
11.7647058823529402
 41
2.5
 42
1.600199999999999
 43
5.9999999999999991
 44
3.1749999999999989
 45
0.00000001
 46
10.0
 47
0.0
 48
0.0
140
3.0500001907348628
141
0.09
142
0.0
143
1.0
144
1.0
145
0.0
146
0.9993442296981812
147
0.8
 71
     0
 72
     0
 73
     0
 74
     1
 75
     0
 76
     0
 77
     0
 78
     8
170
     0
171
     1
172
     0
173
     0
174
     0
175
     0
176
   256
177
   256
178
   256
  0
DIMSTYLE
  2
PIPEWORK$7
 70
     0
  3

  4

  5

  6

  7

 40
11.7647058823529402
 41
2.5
 42
1.600199999999999
 43
5.9999999999999991
 44
3.1749999999999989
 45
0.00000001
 46
10.0
 47
0.0
 48
0.0
140
3.0500001907348628
141
0.09
142
0.0
143
1.0
144
1.0
145
0.0
146
0.9993442296981812
147
0.8
 71
     0
 72
     0
 73
     0
 74
     1
 75
     0
 76
     0
 77
     0
 78
     8
170
     0
171
     1
172
     0
173
     0
174
     0
175
     0
176
   256
177
   256
178
   256
  0
DIMSTYLE
  2
ALTERNATE
 70
     0
  3

  4

  5
CLOSED
  6

  7

 40
11.7647058823529402
 41
2.489200115203857
 42
0.0625
 43
0.38
 44
0.18
 45
0.0
 46
0.0
 47
0.0
 48
0.0
140
0.18
141
0.09
142
0.0
143
25.3999999999999986
144
1.0
145
0.0
146
1.0
147
0.09
 71
     0
 72
     0
 73
     1
 74
     1
 75
     0
 76
     0
 77
     0
 78
     0
170
     0
171
     2
172
     0
173
     0
174
     0
175
     0
176
     0
177
     0
178
     0
  0
DIMSTYLE
  2
ALTERNATE__ISO_
 70
     0
  3

  4

  5
CLOSED
  6

  7

 40
11.7647058823529402
 41
2.5
 42
0.0625
 43
0.38
 44
0.18
 45
0.0
 46
0.0
 47
0.0
 48
0.0
140
0.18
141
0.09
142
0.0
143
25.3999999999999986
144
1.0
145
0.0
146
1.0
147
0.09
 71
     0
 72
     0
 73
     1
 74
     1
 75
     0
 76
     0
 77
     0
 78
     0
170
     0
171
     2
172
     0
173
     0
174
     0
175
     0
176
     0
177
     0
178
     0
  0
DIMSTYLE
  2
DATUM
 70
     0
  3

  4

  5
CLOSED
  6

  7

 40
11.7647058823529402
 41
2.489200115203857
 42
0.0625
 43
0.38
 44
0.18
 45
0.0
 46
0.0
 47
0.0
 48
0.0
140
0.18
141
0.09
142
0.0
143
25.3999999999999986
144
1.0
145
0.0
146
1.0
147
0.09
 71
     0
 72
     0
 73
     1
 74
     1
 75
     0
 76
     0
 77
     0
 78
     0
170
     0
171
     2
172
     0
173
     0
174
     0
175
     0
176
     0
177
     0
178
     0
  0
DIMSTYLE
  2
DATUM__ISO_
 70
     0
  3

  4

  5
CLOSED
  6

  7

 40
11.7647058823529402
 41
2.5
 42
0.0625
 43
0.38
 44
0.18
 45
0.0
 46
0.0
 47
0.0
 48
0.0
140
0.18
141
0.09
142
0.0
143
25.3999999999999986
144
1.0
145
0.0
146
1.0
147
0.09
 71
     0
 72
     0
 73
     1
 74
     1
 75
     0
 76
     0
 77
     0
 78
     0
170
     0
171
     2
172
     0
173
     0
174
     0
175
     0
176
     0
177
     0
178
     0
  0
DIMSTYLE
  2
LARGE
 70
     0
  3

  4

  5
CLOSED
  6

  7

 40
11.7647058823529402
 41
4.978400230407714
 42
0.0625
 43
0.38
 44
0.18
 45
0.0
 46
0.0
 47
0.0
 48
0.0
140
0.18
141
0.09
142
0.0
143
25.3999999999999986
144
1.0
145
0.0
146
1.0
147
0.09
 71
     0
 72
     0
 73
     1
 74
     1
 75
     0
 76
     0
 77
     0
 78
     0
170
     0
171
     2
172
     0
173
     0
174
     0
175
     0
176
     0
177
     0
178
     0
  0
DIMSTYLE
  2
AM_ANSI
 70
     0
  3

  4
mm
  5

  6

  7

 40
1.0
 41
0.12
 42
0.05
 43
0.5
 44
0.1
 45
0.0
 46
0.0
 47
0.1
 48
0.1
140
0.12
141
0.0
142
0.0
143
25.3999999999999986
144
1.0
145
0.0
146
0.71
147
0.06
 71
     0
 72
     0
 73
     1
 74
     1
 75
     0
 76
     0
 77
     0
 78
     7
170
     0
171
     2
172
     0
173
     0
174
     0
175
     0
176
   256
177
   256
178
     2
  0
ENDTAB
  0
ENDSEC
  0
SECTION
  2
BLOCKS
  0
BLOCK
  8
0
  2
$MODEL_SPACE
 70
     0
 10
0.0
 20
0.0
 30
0.0
  3
$MODEL_SPACE
  1

  0
ENDBLK
  5
72
  8
0
  0
BLOCK
 67
     1
  8
0
  2
$PAPER_SPACE
 70
     0
 10
0.0
 20
0.0
 30
0.0
  3
$PAPER_SPACE
  1

  0
ENDBLK
  5
6E
 67
     1
  8
0
  0
BLOCK
  8
0
  2
AIR_FLOW_ARROW
 70
     0
 10
0.0
 20
0.0
 30
0.0
  3
AIR_FLOW_ARROW
  1

  0
INSERT
  5
7D
  8
OUTLINE
  6
CONTINUOUS
  2
*U5
 10
0.0
 20
0.0
 30
0.0
1001
ACAD
1002
{
1000
R14_HATCH_DATA
1000
7D
1011
1.0
1021
-9.0462570338707873E+74
1031
-1.3998404734869563E+101
1021
0.0
1031
0.0
1011
0.0
1021
-9.0462570338707873E+74
1031
-1.3998404734869563E+101
1021
1.0
1031
0.0
1011
0.0
1021
-9.0462570338707873E+74
1031
-1.3998404734869563E+101
1021
0.0
1031
1.0
1040
0.0
1010
0.0
1020
0.0
1030
1.0
1000
SOLID
1070
     1
1070
     0
1071
        1
1071
        1
1071
        3
1070
     1
1040
0.0
1040
-5.8677570360447362
1040
-1.171875
1040
1.1634929639552629
1070
     1
1040
-1.171875
1040
1.1634929639552629
1040
1.171875
1040
1.1634929639552629
1070
     1
1040
1.171875
1040
1.1634929639552629
1040
0.0
1040
-5.8677570360447362
1071
        0
1070
     0
1070
     1
1071
        1
1040
0.0
1040
0.0
1040
0.0
1002
}
  0
LINE
  5
7F
  8
SKETCH_GEOMETRY__ANSI_
 10
1.171875
 20
1.1634929639552629
 30
0.0
 11
0.0
 21
-5.8677570360447362
 31
0.0
  0
LINE
  5
81
  8
SKETCH_GEOMETRY__ANSI_
 10
0.0
 20
-5.8677570360447362
 30
0.0
 11
-1.171875
 21
1.1634929639552629
 31
0.0
  0
LINE
  5
82
  8
SKETCH_GEOMETRY__ANSI_
 10
-1.171875
 20
1.1634929639552629
 30
0.0
 11
1.171875
 21
1.1634929639552629
 31
0.0
  0
LINE
  5
83
  8
OUTLINE
 10
0.0
 20
1.157503906667898
 30
0.0
 11
0.0
 21
5.8677570360447362
 31
0.0
  0
ENDBLK
  5
84
  8
0
  0
BLOCK
  8
0
  2
FILLED-1
 70
     0
 10
0.0
 20
0.0
 30
0.0
  3
FILLED-1
  1

  0
LINE
  5
128
  8
0
 62
     0
 10
-1.0
 20
0.0
 30
0.0
 11
0.0
 21
0.0
 31
0.0
  0
POLYLINE
  5
12A
  8
0
 62
     0
 66
     1
 10
0.0
 20
0.0
 30
0.0
 70
   128
  0
VERTEX
  5
12B
  8
0
 62
     0
 10
-1.0
 20
-0.1
 30
0.0
  0
VERTEX
  5
12C
  8
0
 62
     0
 10
0.0
 20
0.0
 30
0.0
  0
VERTEX
  5
12E
  8
0
 62
     0
 10
-1.0
 20
0.1
 30
0.0
  0
VERTEX
  5
12F
  8
0
 62
     0
 10
-1.0
 20
-0.1
 30
0.0
  0
SEQEND
  5
12D
  8
0
 62
     0
  0
SOLID
  5
130
  8
0
 62
     0
 10
-1.0
 20
-0.1
 30
0.0
 11
0.0
 21
0.0
 31
0.0
 12
-1.0
 22
0.1
 32
0.0
 13
-1.0
 23
-0.1
 33
0.0
  0
LINE
  5
131
  8
0
 62
     0
 10
-1.0
 20
-0.1
 30
0.0
 11
0.0
 21
0.0
 31
0.0
  0
LINE
  5
132
  8
0
 62
     0
 10
0.0
 20
0.0
 30
0.0
 11
-1.0
 21
0.1
 31
0.0
  0
LINE
  5
133
  8
0
 62
     0
 10
-1.0
 20
0.1
 30
0.0
 11
-1.0
 21
-0.1
 31
0.0
  0
ENDBLK
  5
127
  8
0
  0
BLOCK
  8
0
  2
_CLOSED
 70
     0
 10
0.0
 20
0.0
 30
0.0
  3
_CLOSED
  1

  0
LINE
  5
13C
  8
0
  6
BYBLOCK
 62
     0
 10
-1.0
 20
0.1666666666666666
 30
0.0
 11
0.0
 21
0.0
 31
0.0
  0
LINE
  5
13D
  8
0
  6
BYBLOCK
 62
     0
 10
0.0
 20
0.0
 30
0.0
 11
-1.0
 21
-0.1666666666666666
 31
0.0
  0
LINE
  5
13E
  8
0
  6
BYBLOCK
 62
     0
 10
-1.0
 20
0.1666666666666666
 30
0.0
 11
-1.0
 21
-0.1666666666666666
 31
0.0
  0
LINE
  5
13F
  8
0
  6
BYBLOCK
 62
     0
 10
0.0
 20
0.0
 30
0.0
 11
-1.0
 21
0.0
 31
0.0
  0
ENDBLK
  5
141
  8
0
  0
BLOCK
  8
0
  2
DATUMFILLED45
 70
     0
 10
0.0
 20
0.0
 30
0.0
  3
DATUMFILLED45
  1

  0
POLYLINE
  5
146
  8
0
 62
     0
 66
     1
 10
0.0
 20
0.0
 30
0.0
 70
   128
  0
VERTEX
  5
147
  8
0
 62
     0
 10
0.0
 20
1.0
 30
0.0
  0
VERTEX
  5
148
  8
0
 62
     0
 10
0.0
 20
-1.0
 30
0.0
  0
VERTEX
  5
14A
  8
0
 62
     0
 10
-1.0
 20
0.0
 30
0.0
  0
VERTEX
  5
14B
  8
0
 62
     0
 10
0.0
 20
1.0
 30
0.0
  0
SEQEND
  5
149
  8
0
 62
     0
  0
SOLID
  5
14C
  8
0
 62
     0
 10
0.0
 20
1.0
 30
0.0
 11
0.0
 21
-1.0
 31
0.0
 12
-1.0
 22
0.0
 32
0.0
 13
0.0
 23
1.0
 33
0.0
  0
ENDBLK
  5
145
  8
0
  0
BLOCK
  8
0
  2
*U5
 70
     1
 10
0.0
 20
0.0
 30
0.0
  3
*U5
  1

  0
SOLID
  5
28E6
  8
OUTLINE
  6
CONTINUOUS
 10
1.171875
 20
1.1634929639552629
 30
0.0
 11
-1.171875
 21
1.1634929639552629
 31
0.0
 12
0.0
 22
-5.8677570360447362
 32
0.0
 13
0.0
 23
-5.8677570360447362
 33
0.0
210
0.0
220
0.0
230
-1.0
  0
LINE
  5
28E7
  8
OUTLINE
  6
CONTINUOUS
 10
1.171875
 20
1.1634929639552629
 30
0.0
 11
0.0
 21
-5.8677570360447362
 31
0.0
  0
LINE
  5
28E8
  8
OUTLINE
  6
CONTINUOUS
 10
0.0
 20
-5.8677570360447362
 30
0.0
 11
-1.171875
 21
1.1634929639552629
 31
0.0
  0
ENDBLK
  5
28EA
  8
0
  0
BLOCK
  8
0
  2
*U6
 70
     1
 10
0.0
 20
0.0
 30
0.0
  3
*U6
  1

  0
TEXT
  5
28F0
  8
0
 62
     7
 10
4220.6350484778558894
 20
906.4045486107073657
 30
0.0
 40
32.3999999999999986
  1
Water
  7
TITLE3
  0
TEXT
  5
28F1
  8
0
 62
     7
 10
4220.6350484778558894
 20
852.4045486107074794
 30
0.0
 40
32.3999999999999986
  1
IN
  7
TITLE3
  0
ENDBLK
  5
28F3
  8
0
  0
BLOCK
  8
0
  2
*U7
 70
     1
 10
0.0
 20
0.0
 30
0.0
  3
*U7
  1

  0
TEXT
  5
28F5
  8
0
 62
     7
 10
4216.8631895720191096
 20
1456.8365997856330978
 30
0.0
 40
32.3999999999999986
  1
Water
  7
TITLE3
  0
TEXT
  5
28F6
  8
0
 62
     7
 10
4216.8631895720191096
 20
1402.8365997856330978
 30
0.0
 40
32.3999999999999986
  1
OUT
  7
TITLE3
  0
ENDBLK
  5
28F8
  8
0
  0
BLOCK
  8
0
  2
*U8
 70
     1
 10
0.0
 20
0.0
 30
0.0
  3
*U8
  1

  0
TEXT
  5
28FA
  8
DIMENSION
 10
2865.2415695544491427
 20
4415.2736471150774378
 30
0.0
 40
32.3999999999999986
  1
1000 O/D
  7
TITLE3
  0
ENDBLK
  5
28FC
  8
0
  0
BLOCK
  8
0
  2
*U9
 70
     1
 10
0.0
 20
0.0
 30
0.0
  3
*U9
  1

  0
TEXT
  5
28FE
  8
DIMENSION
 10
1205.7907007398930546
 20
1205.5716494084629176
 30
0.0
 40
32.3999999999999986
  1
1199 O/D
 50
90.0
  7
TITLE3
  0
ENDBLK
  5
2900
  8
0
  0
BLOCK
  8
0
  2
*U10
 70
     1
 10
0.0
 20
0.0
 30
0.0
  3
*U10
  1

  0
TEXT
  5
2902
  8
DIMENSION
 10
1614.250750521611053
 20
2063.8879091634839824
 30
0.0
 40
32.3999999999999986
  1
771 O/D
  7
TITLE3
  0
ENDBLK
  5
2904
  8
0
  0
BLOCK
  8
0
  2
*U11
 70
     1
 10
0.0
 20
0.0
 30
0.0
  3
*U11
  1

  0
TEXT
  5
2906
  8
DIMENSION
 10
2858.5217262992068754
 20
2063.8879090171258213
 30
0.0
 40
32.3999999999999986
  1
935 O/D
  7
TITLE3
  0
ENDBLK
  5
2908
  8
0
  0
BLOCK
  8
0
  2
*U12
 70
     1
 10
0.0
 20
0.0
 30
0.0
  3
*U12
  1

  0
TEXT
  5
290A
  8
DIMENSION
 10
2358.3523163223289885
 20
624.0284189504900496
 30
0.0
 40
32.3999999999999986
  1
45
  7
TITLE3
  0
ENDBLK
  5
290C
  8
0
  0
BLOCK
  8
0
  2
*U13
 70
     1
 10
0.0
 20
0.0
 30
0.0
  3
*U13
  1

  0
TEXT
  5
290E
  8
DIMENSION
 10
3531.4512906261429634
 20
624.0284189504900496
 30
0.0
 40
32.3999999999999986
  1
45
  7
TITLE3
  0
ENDBLK
  5
2910
  8
0
  0
BLOCK
  8
0
  2
*U14
 70
     1
 10
0.0
 20
0.0
 30
0.0
  3
*U14
  1

  0
TEXT
  5
2912
  8
DIMENSION
 10
4640.6715675920058857
 20
1475.9243054310009029
 30
0.0
 40
32.3999999999999986
  1
147 O/D
  7
TITLE3
  0
ENDBLK
  5
2914
  8
0
  0
BLOCK
  8
0
  2
*U15
 70
     1
 10
0.0
 20
0.0
 30
0.0
  3
*U15
  1

  0
TEXT
  5
2916
  8
DIMENSION
 10
4106.5727545890504189
 20
2063.8879090171258213
 30
0.0
 40
32.3999999999999986
  1
804 O/D
  7
TITLE3
  0
ENDBLK
  5
2918
  8
0
  0
BLOCK
  8
0
  2
*U16
 70
     1
 10
0.0
 20
0.0
 30
0.0
  3
*U16
  1

  0
TEXT
  5
291A
  8
DIMENSION
 10
4718.7650650355817561
 20
660.4553277023504734
 30
0.0
 40
32.3999999999999986
  1
180 O/D
  7
TITLE3
  0
ENDBLK
  5
291C
  8
0
  0
BLOCK
  8
0
  2
*U17
 70
     1
 10
0.0
 20
0.0
 30
0.0
  3
*U17
  1

  0
TEXT
  5
291E
  8
DIMENSION
 10
4676.3448393125263465
 20
1072.9846543131220642
 30
0.0
 40
32.3999999999999986
  1
550 O/D
 50
90.0
  7
TITLE3
  0
ENDBLK
  5
2920
  8
0
  0
ENDSEC
  0
SECTION
  2
ENTITIES
  0
LINE
  5
165
  8
VISIBLE
 10
3496.4244570851069511
 20
4230.6939502689992878
 30
0.0
 11
3496.4244570851069511
 21
4153.6939502689983783
 31
0.0
  0
LINE
  5
167
  8
VISIBLE
 10
3496.4244570851069511
 20
4153.6939502689983783
 30
0.0
 11
3494.9244570851069511
 21
4152.1939502689983783
 31
0.0
  0
LINE
  5
168
  8
VISIBLE
 10
3496.4244570851069511
 20
4230.6939502689992878
 30
0.0
 11
3494.9244570851069511
 21
4232.1939502689992878
 31
0.0
  0
LINE
  5
16D
  8
VISIBLE
 10
3494.9244570851069511
 20
4152.1939502689983783
 30
0.0
 11
3438.7244570851048593
 21
4152.1939502689983783
 31
0.0
  0
LINE
  5
16E
  8
VISIBLE
 10
3494.9244570851069511
 20
4232.1939502689992878
 30
0.0
 11
3438.7244570851062235
 21
4232.1939502689992878
 31
0.0
  0
LINE
  5
1A6
  8
VISIBLE
 10
2504.0244570851068602
 20
4339.593950268997105
 30
0.0
 11
3438.7244570851062235
 21
4339.5939502689980145
 31
0.0
  0
LINE
  5
1A7
  8
VISIBLE
 10
3438.7244570851062235
 20
4339.5939502689980145
 30
0.0
 11
3438.7244570851048593
 21
3568.7939502689969231
 31
0.0
  0
LINE
  5
1A8
  8
VISIBLE
 10
3446.3244570851211392
 20
3568.7939502689969231
 30
0.0
 11
2496.4244570851078606
 21
3568.7939502689969231
 31
0.0
  0
LINE
  5
1A9
  8
VISIBLE
 10
2504.0244570851091339
 20
3568.7939502689969231
 30
0.0
 11
2504.0244570851068602
 21
4339.593950268997105
 31
0.0
  0
LINE
  5
B1F
  8
VISIBLE
 10
2496.4244570851078606
 20
3611.5091797668678737
 30
0.0
 11
2496.4244570851078606
 21
3568.7939502689969231
 31
0.0
  0
LINE
  5
B22
  8
VISIBLE
 10
2504.0244570851091339
 20
3618.6508436848430392
 30
0.0
 11
2496.4244570851078606
 21
3611.5091797668678737
 31
0.0
  0
LINE
  5
B28
  8
VISIBLE
 10
3446.3244570851211392
 20
3568.7939502689969231
 30
0.0
 11
3446.3244570851061326
 21
3611.5091797671348104
 31
0.0
  0
LINE
  5
B2C
  8
VISIBLE
 10
3446.3244570851061326
 20
3611.5091797671348104
 30
0.0
 11
3438.7244570851062235
 21
3618.6508436851067927
 31
0.0
  0
LINE
  5
B37
  8
VISIBLE
 10
2656.613573631950203
 20
4372.1103323398911016
 30
0.0
 11
2591.7329883883439834
 21
4372.1103323398956491
 31
0.0
  0
LINE
  5
B3E
  8
VISIBLE
 10
2656.613573631950203
 20
4372.1103323398911016
 30
0.0
 11
2658.4315211783100494
 21
4339.5939502689980145
 31
0.0
  0
LINE
  5
B3F
  8
VISIBLE
 10
2591.7329883883439834
 20
4372.1103323398956491
 30
0.0
 11
2589.9150403945868675
 21
4339.5939502689980145
 31
0.0
  0
LINE
  5
BE9
  8
VISIBLE
 10
1344.1383009281710201
 20
1890.6359358634460932
 30
0.0
 11
1344.1383009281710201
 21
786.785935863445161
 31
0.0
  0
LINE
  5
BEA
  8
VISIBLE
 10
1397.3383009281710656
 20
1865.6359358634449563
 30
0.0
 11
1397.3383009281710656
 21
787.13593586344507
 31
0.0
  0
LINE
  5
C0E
  8
VISIBLE
 10
2112.5383009281731574
 20
1890.6359358634449563
 30
0.0
 11
2112.5383009281717932
 21
766.5223043240615652
 31
0.0
  0
LINE
  5
C10
  8
VISIBLE
 10
2014.5383009281720206
 20
1865.6359358634449563
 30
0.0
 11
2014.5383009281720206
 21
786.7859358634547107
 31
0.0
  0
LINE
  5
C37
  8
VISIBLE
 10
1344.1383009281710201
 20
1890.6359358634460932
 30
0.0
 11
2112.5383009281731574
 21
1890.6359358634449563
 31
0.0
  0
LINE
  5
C38
  8
VISIBLE
 10
2014.5383009281720206
 20
1865.6359358634449563
 30
0.0
 11
1397.3383009281710656
 21
1865.6359358634449563
 31
0.0
  0
LINE
  5
C6F
  8
VISIBLE
 10
1918.3520632678789752
 20
1890.6359358634460932
 30
0.0
 11
1918.3520632678789752
 21
1905.8670247766910961
 31
0.0
  0
LINE
  5
C70
  8
VISIBLE
 10
1929.8520632678801121
 20
1890.6359358634460932
 30
0.0
 11
1929.8520632678801121
 21
1905.8670247766910961
 31
0.0
  0
ARC
  5
C71
  8
VISIBLE
 10
1924.1020632678801121
 20
1902.8359358634459113
 30
0.0
 40
6.4999999999999973
 50
27.7957724960257799
 51
152.2042275039709978
  0
LINE
  5
CA0
  8
VISIBLE
 10
1477.8245385886559689
 20
1890.6359358634449563
 30
0.0
 11
1477.8245385886559689
 21
1905.8670247766910961
 31
0.0
  0
LINE
  5
CA1
  8
VISIBLE
 10
1489.3245385886559689
 20
1890.6359358634449563
 30
0.0
 11
1489.3245385886559689
 21
1905.8670247766910961
 31
0.0
  0
ARC
  5
CA2
  8
VISIBLE
 10
1483.5745385886559689
 20
1902.8359358634450018
 30
0.0
 40
6.4999999999999929
 50
27.7957724960257799
 51
152.2042275039746073
  0
LINE
  5
CE4
  8
VISIBLE
 10
1395.3383009281710656
 20
739.8359358634459113
 30
0.0
 11
2061.3383009281728846
 21
739.835935863455461
 31
0.0
  0
LINE
  5
CE5
  8
VISIBLE
 10
1344.1383009281710201
 20
786.785935863445161
 30
0.0
 11
2112.5383009281731574
 21
786.7859358634561886
 31
0.0
  0
LINE
  5
CEF
  8
VISIBLE
 10
1347.3383009281799332
 20
722.5359358629748385
 30
0.0
 11
1347.3383009281769773
 21
714.2859358634452747
 31
0.0
  0
LINE
  5
CF0
  8
VISIBLE
 10
1345.3383009281799332
 20
722.5359358629748385
 30
0.0
 11
1347.3383009281799332
 21
722.5359358629748385
 31
0.0
  0
LINE
  5
CF1
  8
VISIBLE
 10
1345.3383009281769773
 20
714.2859358634453883
 30
0.0
 11
1345.3383009281799332
 21
722.5359358629748385
 31
0.0
  0
POLYLINE
  8
VISIBLE
  5
2921
  66
     1
 10
0.000000
 20
0.000000
 30
0.000000
  70
     8
  0
VERTEX
  8
VISIBLE
  5
2922
 10
1349.09
 20
710.536
 30
0.000000
  70
    32
  0
VERTEX
  8
VISIBLE
  5
2923
 10
1349.04
 20
710.536
 30
0.000000
  70
    32
  0
VERTEX
  8
VISIBLE
  5
2924
 10
1349.00
 20
710.537
 30
0.000000
  70
    32
  0
VERTEX
  8
VISIBLE
  5
2925
 10
1348.95
 20
710.539
 30
0.000000
  70
    32
  0
VERTEX
  8
VISIBLE
  5
2926
 10
1348.90
 20
710.541
 30
0.000000
  70
    32
  0
VERTEX
  8
VISIBLE
  5
2927
 10
1348.86
 20
710.544
 30
0.000000
  70
    32
  0
VERTEX
  8
VISIBLE
  5
2928
 10
1348.81
 20
710.548
 30
0.000000
  70
    32
  0
VERTEX
  8
VISIBLE
  5
2929
 10
1348.77
 20
710.552
 30
0.000000
  70
    32
  0
VERTEX
  8
VISIBLE
  5
292A
 10
1348.72
 20
710.557
 30
0.000000
  70
    32
  0
VERTEX
  8
VISIBLE
  5
292B
 10
1348.67
 20
710.562
 30
0.000000
  70
    32
  0
VERTEX
  8
VISIBLE
  5
292C
 10
1348.63
 20
710.568
 30
0.000000
  70
    32
  0
VERTEX
  8
VISIBLE
  5
292D
 10
1348.58
 20
710.575
 30
0.000000
  70
    32
  0
VERTEX
  8
VISIBLE
  5
292E
 10
1348.54
 20
710.582
 30
0.000000
  70
    32
  0
VERTEX
  8
VISIBLE
  5
292F
 10
1348.49
 20
710.590
 30
0.000000
  70
    32
  0
VERTEX
  8
VISIBLE
  5
2930
 10
1348.45
 20
710.599
 30
0.000000
  70
    32
  0
VERTEX
  8
VISIBLE
  5
2931
 10
1348.40
 20
710.608
 30
0.000000
  70
    32
  0
VERTEX
  8
VISIBLE
  5
2932
 10
1348.36
 20
710.618
 30
0.000000
  70
    32
  0
VERTEX
  8
VISIBLE
  5
2933
 10
1348.31
 20
710.628
 30
0.000000
  70
    32
  0
VERTEX
  8
VISIBLE
  5
2934
 10
1348.27
 20
710.639
 30
0.000000
  70
    32
  0
VERTEX
  8
VISIBLE
  5
2935
 10
1348.22
 20
710.651
 30
0.000000
  70
    32
  0
VERTEX
  8
VISIBLE
  5
2936
 10
1348.18
 20
710.663
 30
0.000000
  70
    32
  0
VERTEX
  8
VISIBLE
  5
2937
 10
1348.14
 20
710.675
 30
0.000000
  70
    32
  0
VERTEX
  8
VISIBLE
  5
2938
 10
1348.09
 20
710.688
 30
0.000000
  70
    32
  0
VERTEX
  8
VISIBLE
  5
2939
 10
1348.05
 20
710.702
 30
0.000000
  70
    32
  0
VERTEX
  8
VISIBLE
  5
293A
 10
1348.00
 20
710.716
 30
0.000000
  70
    32
  0
VERTEX
  8
VISIBLE
  5
293B
 10
1347.96
 20
710.731
 30
0.000000
  70
    32
  0
VERTEX
  8
VISIBLE
  5
293C
 10
1347.92
 20
710.747
 30
0.000000
  70
    32
  0
VERTEX
  8
VISIBLE
  5
293D
 10
1347.88
 20
710.763
 30
0.000000
  70
    32
  0
VERTEX
  8
VISIBLE
  5
293E
 10
1347.83
 20
710.779
 30
0.000000
  70
    32
  0
VERTEX
  8
VISIBLE
  5
293F
 10
1347.79
 20
710.796
 30
0.000000
  70
    32
  0
VERTEX
  8
VISIBLE
  5
2940
 10
1347.75
 20
710.814
 30
0.000000
  70
    32
  0
VERTEX
  8
VISIBLE
  5
2941
 10
1347.71
 20
710.832
 30
0.000000
  70
    32
  0
VERTEX
  8
VISIBLE
  5
2942
 10
1347.66
 20
710.850
 30
0.000000
  70
    32
  0
VERTEX
  8
VISIBLE
  5
2943
 10
1347.62
 20
710.870
 30
0.000000
  70
    32
  0
VERTEX
  8
VISIBLE
  5
2944
 10
1347.58
 20
710.889
 30
0.000000
  70
    32
  0
VERTEX
  8
VISIBLE
  5
2945
 10
1347.54
 20
710.909
 30
0.000000
  70
    32
  0
VERTEX
  8
VISIBLE
  5
2946
 10
1347.50
 20
710.930
 30
0.000000
  70
    32
  0
VERTEX
  8
VISIBLE
  5
2947
 10
1347.46
 20
710.951
 30
0.000000
  70
    32
  0
VERTEX
  8
VISIBLE
  5
2948
 10
1347.42
 20
710.973
 30
0.000000
  70
    32
  0
VERTEX
  8
VISIBLE
  5
2949
 10
1347.38
 20
710.995
 30
0.000000
  70
    32
  0
VERTEX
  8
VISIBLE
  5
294A
 10
1347.34
 20
711.017
 30
0.000000
  70
    32
  0
VERTEX
  8
VISIBLE
  5
294B
 10
1347.30
 20
711.040
 30
0.000000
  70
    32
  0
VERTEX
  8
VISIBLE
  5
294C
 10
1347.26
 20
711.064
 30
0.000000
  70
    32
  0
VERTEX
  8
VISIBLE
  5
294D
 10
1347.22
 20
711.088
 30
0.000000
  70
    32
  0
VERTEX
  8
VISIBLE
  5
294E
 10
1347.18
 20
711.112
 30
0.000000
  70
    32
  0
VERTEX
  8
VISIBLE
  5
294F
 10
1347.14
 20
711.137
 30
0.000000
  70
    32
  0
VERTEX
  8
VISIBLE
  5
2950
 10
1347.10
 20
711.163
 30
0.000000
  70
    32
  0
VERTEX
  8
VISIBLE
  5
2951
 10
1347.06
 20
711.188
 30
0.000000
  70
    32
  0
VERTEX
  8
VISIBLE
  5
2952
 10
1347.02
 20
711.215
 30
0.000000
  70
    32
  0
VERTEX
  8
VISIBLE
  5
2953
 10
1346.99
 20
711.241
 30
0.000000
  70
    32
  0
VERTEX
  8
VISIBLE
  5
2954
 10
1346.95
 20
711.268
 30
0.000000
  70
    32
  0
VERTEX
  8
VISIBLE
  5
2955
 10
1346.91
 20
711.296
 30
0.000000
  70
    32
  0
VERTEX
  8
VISIBLE
  5
2956
 10
1346.88
 20
711.324
 30
0.000000
  70
    32
  0
VERTEX
  8
VISIBLE
  5
2957
 10
1346.84
 20
711.352
 30
0.000000
  70
    32
  0
VERTEX
  8
VISIBLE
  5
2958
 10
1346.80
 20
711.381
 30
0.000000
  70
    32
  0
VERTEX
  8
VISIBLE
  5
2959
 10
1346.77
 20
711.410
 30
0.000000
  70
    32
  0
VERTEX
  8
VISIBLE
  5
295A
 10
1346.73
 20
711.440
 30
0.000000
  70
    32
  0
VERTEX
  8
VISIBLE
  5
295B
 10
1346.70
 20
711.470
 30
0.000000
  70
    32
  0
VERTEX
  8
VISIBLE
  5
295C
 10
1346.66
 20
711.500
 30
0.000000
  70
    32
  0
VERTEX
  8
VISIBLE
  5
295D
 10
1346.63
 20
711.531
 30
0.000000
  70
    32
  0
VERTEX
  8
VISIBLE
  5
295E
 10
1346.59
 20
711.562
 30
0.000000
  70
    32
  0
VERTEX
  8
VISIBLE
  5
295F
 10
1346.56
 20
711.594
 30
0.000000
  70
    32
  0
VERTEX
  8
VISIBLE
  5
2960
 10
1346.53
 20
711.626
 30
0.000000
  70
    32
  0
VERTEX
  8
VISIBLE
  5
2961
 10
1346.49
 20
711.658
 30
0.000000
  70
    32
  0
VERTEX
  8
VISIBLE
  5
2962
 10
1346.46
 20
711.691
 30
0.000000
  70
    32
  0
VERTEX
  8
VISIBLE
  5
2963
 10
1346.43
 20
711.724
 30
0.000000
  70
    32
  0
VERTEX
  8
VISIBLE
  5
2964
 10
1346.40
 20
711.757
 30
0.000000
  70
    32
  0
VERTEX
  8
VISIBLE
  5
2965
 10
1346.36
 20
711.791
 30
0.000000
  70
    32
  0
VERTEX
  8
VISIBLE
  5
2966
 10
1346.33
 20
711.825
 30
0.000000
  70
    32
  0
VERTEX
  8
VISIBLE
  5
2967
 10
1346.30
 20
711.860
 30
0.000000
  70
    32
  0
VERTEX
  8
VISIBLE
  5
2968
 10
1346.27
 20
711.895
 30
0.000000
  70
    32
  0
VERTEX
  8
VISIBLE
  5
2969
 10
1346.24
 20
711.930
 30
0.000000
  70
    32
  0
VERTEX
  8
VISIBLE
  5
296A
 10
1346.21
 20
711.965
 30
0.000000
  70
    32
  0
VERTEX
  8
VISIBLE
  5
296B
 10
1346.18
 20
712.001
 30
0.000000
  70
    32
  0
VERTEX
  8
VISIBLE
  5
296C
 10
1346.15
 20
712.037
 30
0.000000
  70
    32
  0
VERTEX
  8
VISIBLE
  5
296D
 10
1346.13
 20
712.074
 30
0.000000
  70
    32
  0
VERTEX
  8
VISIBLE
  5
296E
 10
1346.10
 20
712.110
 30
0.000000
  70
    32
  0
VERTEX
  8
VISIBLE
  5
296F
 10
1346.07
 20
712.147
 30
0.000000
  70
    32
  0
VERTEX
  8
VISIBLE
  5
2970
 10
1346.04
 20
712.185
 30
0.000000
  70
    32
  0
VERTEX
  8
VISIBLE
  5
2971
 10
1346.02
 20
712.222
 30
0.000000
  70
    32
  0
VERTEX
  8
VISIBLE
  5
2972
 10
1345.99
 20
712.260
 30
0.000000
  70
    32
  0
VERTEX
  8
VISIBLE
  5
2973
 10
1345.96
 20
712.299
 30
0.000000
  70
    32
  0
VERTEX
  8
VISIBLE
  5
2974
 10
1345.94
 20
712.337
 30
0.000000
  70
    32
  0
VERTEX
  8
VISIBLE
  5
2975
 10
1345.91
 20
712.376
 30
0.000000
  70
    32
  0
VERTEX
  8
VISIBLE
  5
2976
 10
1345.89
 20
712.415
 30
0.000000
  70
    32
  0
VERTEX
  8
VISIBLE
  5
2977
 10
1345.87
 20
712.454
 30
0.000000
  70
    32
  0
VERTEX
  8
VISIBLE
  5
2978
 10
1345.84
 20
712.494
 30
0.000000
  70
    32
  0
VERTEX
  8
VISIBLE
  5
2979
 10
1345.82
 20
712.534
 30
0.000000
  70
    32
  0
VERTEX
  8
VISIBLE
  5
297A
 10
1345.80
 20
712.574
 30
0.000000
  70
    32
  0
VERTEX
  8
VISIBLE
  5
297B
 10
1345.78
 20
712.614
 30
0.000000
  70
    32
  0
VERTEX
  8
VISIBLE
  5
297C
 10
1345.75
 20
712.655
 30
0.000000
  70
    32
  0
VERTEX
  8
VISIBLE
  5
297D
 10
1345.73
 20
712.696
 30
0.000000
  70
    32
  0
VERTEX
  8
VISIBLE
  5
297E
 10
1345.71
 20
712.737
 30
0.000000
  70
    32
  0
VERTEX
  8
VISIBLE
  5
297F
 10
1345.69
 20
712.778
 30
0.000000
  70
    32
  0
VERTEX
  8
VISIBLE
  5
2980
 10
1345.67
 20
712.819
 30
0.000000
  70
    32
  0
VERTEX
  8
VISIBLE
  5
2981
 10
1345.65
 20
712.861
 30
0.000000
  70
    32
  0
VERTEX
  8
VISIBLE
  5
2982
 10
1345.63
 20
712.903
 30
0.000000
  70
    32
  0
VERTEX
  8
VISIBLE
  5
2983
 10
1345.62
 20
712.945
 30
0.000000
  70
    32
  0
VERTEX
  8
VISIBLE
  5
2984
 10
1345.60
 20
712.988
 30
0.000000
  70
    32
  0
VERTEX
  8
VISIBLE
  5
2985
 10
1345.58
 20
713.030
 30
0.000000
  70
    32
  0
VERTEX
  8
VISIBLE
  5
2986
 10
1345.57
 20
713.073
 30
0.000000
  70
    32
  0
VERTEX
  8
VISIBLE
  5
2987
 10
1345.55
 20
713.116
 30
0.000000
  70
    32
  0
VERTEX
  8
VISIBLE
  5
2988
 10
1345.53
 20
713.159
 30
0.000000
  70
    32
  0
VERTEX
  8
VISIBLE
  5
2989
 10
1345.52
 20
713.203
 30
0.000000
  70
    32
  0
VERTEX
  8
VISIBLE
  5
298A
 10
1345.50
 20
713.246
 30
0.000000
  70
    32
  0
VERTEX
  8
VISIBLE
  5
298B
 10
1345.49
 20
713.290
 30
0.000000
  70
    32
  0
VERTEX
  8
VISIBLE
  5
298C
 10
1345.48
 20
713.334
 30
0.000000
  70
    32
  0
VERTEX
  8
VISIBLE
  5
298D
 10
1345.46
 20
713.378
 30
0.000000
  70
    32
  0
VERTEX
  8
VISIBLE
  5
298E
 10
1345.45
 20
713.422
 30
0.000000
  70
    32
  0
VERTEX
  8
VISIBLE
  5
298F
 10
1345.44
 20
713.466
 30
0.000000
  70
    32
  0
VERTEX
  8
VISIBLE
  5
2990
 10
1345.43
 20
713.511
 30
0.000000
  70
    32
  0
VERTEX
  8
VISIBLE
  5
2991
 10
1345.42
 20
713.555
 30
0.000000
  70
    32
  0
VERTEX
  8
VISIBLE
  5
2992
 10
1345.41
 20
713.600
 30
0.000000
  70
    32
  0
VERTEX
  8
VISIBLE
  5
2993
 10
1345.40
 20
713.645
 30
0.000000
  70
    32
  0
VERTEX
  8
VISIBLE
  5
2994
 10
1345.39
 20
713.690
 30
0.000000
  70
    32
  0
VERTEX
  8
VISIBLE
  5
2995
 10
1345.38
 20
713.735
 30
0.000000
  70
    32
  0
VERTEX
  8
VISIBLE
  5
2996
 10
1345.38
 20
713.781
 30
0.000000
  70
    32
  0
VERTEX
  8
VISIBLE
  5
2997
 10
1345.37
 20
713.826
 30
0.000000
  70
    32
  0
VERTEX
  8
VISIBLE
  5
2998
 10
1345.36
 20
713.872
 30
0.000000
  70
    32
  0
VERTEX
  8
VISIBLE
  5
2999
 10
1345.36
 20
713.917
 30
0.000000
  70
    32
  0
VERTEX
  8
VISIBLE
  5
299A
 10
1345.35
 20
713.963
 30
0.000000
  70
    32
  0
VERTEX
  8
VISIBLE
  5
299B
 10
1345.35
 20
714.009
 30
0.000000
  70
    32
  0
VERTEX
  8
VISIBLE
  5
299C
 10
1345.35
 20
714.055
 30
0.000000
  70
    32
  0
VERTEX
  8
VISIBLE
  5
299D
 10
1345.34
 20
714.101
 30
0.000000
  70
    32
  0
VERTEX
  8
VISIBLE
  5
299E
 10
1345.34
 20
714.147
 30
0.000000
  70
    32
  0
VERTEX
  8
VISIBLE
  5
299F
 10
1345.34
 20
714.193
 30
0.000000
  70
    32
  0
VERTEX
  8
VISIBLE
  5
29A0
 10
1345.34
 20
714.240
 30
0.000000
  70
    32
  0
VERTEX
  8
VISIBLE
  5
29A1
 10
1345.34
 20
714.286
 30
0.000000
  70
    32
  0
SEQEND
  8
VISIBLE
  5
29A2
  0
POLYLINE
  8
VISIBLE
  5
29A3
  66
     1
 10
0.000000
 20
0.000000
 30
0.000000
  70
     8
  0
VERTEX
  8
VISIBLE
  5
29A4
 10
1347.34
 20
714.286
 30
0.000000
  70
    32
  0
VERTEX
  8
VISIBLE
  5
29A5
 10
1347.34
 20
714.264
 30
0.000000
  70
    32
  0
VERTEX
  8
VISIBLE
  5
29A6
 10
1347.34
 20
714.243
 30
0.000000
  70
    32
  0
VERTEX
  8
VISIBLE
  5
29A7
 10
1347.34
 20
714.221
 30
0.000000
  70
    32
  0
VERTEX
  8
VISIBLE
  5
29A8
 10
1347.34
 20
714.200
 30
0.000000
  70
    32
  0
VERTEX
  8
VISIBLE
  5
29A9
 10
1347.34
 20
714.178
 30
0.000000
  70
    32
  0
VERTEX
  8
VISIBLE
  5
29AA
 10
1347.34
 20
714.157
 30
0.000000
  70
    32
  0
VERTEX
  8
VISIBLE
  5
29AB
 10
1347.35
 20
714.135
 30
0.000000
  70
    32
  0
VERTEX
  8
VISIBLE
  5
29AC
 10
1347.35
 20
714.114
 30
0.000000
  70
    32
  0
VERTEX
  8
VISIBLE
  5
29AD
 10
1347.35
 20
714.093
 30
0.000000
  70
    32
  0
VERTEX
  8
VISIBLE
  5
29AE
 10
1347.35
 20
714.071
 30
0.000000
  70
    32
  0
VERTEX
  8
VISIBLE
  5
29AF
 10
1347.36
 20
714.050
 30
0.000000
  70
    32
  0
VERTEX
  8
VISIBLE
  5
29B0
 10
1347.36
 20
714.029
 30
0.000000
  70
    32
  0
VERTEX
  8
VISIBLE
  5
29B1
 10
1347.36
 20
714.008
 30
0.000000
  70
    32
  0
VERTEX
  8
VISIBLE
  5
29B2
 10
1347.37
 20
713.987
 30
0.000000
  70
    32
  0
VERTEX
  8
VISIBLE
  5
29B3
 10
1347.37
 20
713.966
 30
0.000000
  70
    32
  0
VERTEX
  8
VISIBLE
  5
29B4
 10
1347.38
 20
713.945
 30
0.000000
  70
    32
  0
VERTEX
  8
VISIBLE
  5
29B5
 10
1347.38
 20
713.924
 30
0.000000
  70
    32
  0
VERTEX
  8
VISIBLE
  5
29B6
 10
1347.39
 20
713.903
 30
0.000000
  70
    32
  0
VERTEX
  8
VISIBLE
  5
29B7
 10
1347.39
 20
713.883
 30
0.000000
  70
    32
  0
VERTEX
  8
VISIBLE
  5
29B8
 10
1347.40
 20
713.862
 30
0.000000
  70
    32
  0
VERTEX
  8
VISIBLE
  5
29B9
 10
1347.40
 20
713.842
 30
0.000000
  70
    32
  0
VERTEX
  8
VISIBLE
  5
29BA
 10
1347.41
 20
713.821
 30
0.000000
  70
    32
  0
VERTEX
  8
VISIBLE
  5
29BB
 10
1347.42
 20
713.801
 30
0.000000
  70
    32
  0
VERTEX
  8
VISIBLE
  5
29BC
 10
1347.42
 20
713.780
 30
0.000000
  70
    32
  0
VERTEX
  8
VISIBLE
  5
29BD
 10
1347.43
 20
713.760
 30
0.000000
  70
    32
  0
VERTEX
  8
VISIBLE
  5
29BE
 10
1347.44
 20
713.740
 30
0.000000
  70
    32
  0
VERTEX
  8
VISIBLE
  5
29BF
 10
1347.44
 20
713.720
 30
0.000000
  70
    32
  0
VERTEX
  8
VISIBLE
  5
29C0
 10
1347.45
 20
713.700
 30
0.000000
  70
    32
  0
VERTEX
  8
VISIBLE
  5
29C1
 10
1347.46
 20
713.680
 30
0.000000
  70
    32
  0
VERTEX
  8
VISIBLE
  5
29C2
 10
1347.47
 20
713.660
 30
0.000000
  70
    32
  0
VERTEX
  8
VISIBLE
  5
29C3
 10
1347.48
 20
713.641
 30
0.000000
  70
    32
  0
VERTEX
  8
VISIBLE
  5
29C4
 10
1347.49
 20
713.621
 30
0.000000
  70
    32
  0
VERTEX
  8
VISIBLE
  5
29C5
 10
1347.49
 20
713.602
 30
0.000000
  70
    32
  0
VERTEX
  8
VISIBLE
  5
29C6
 10
1347.50
 20
713.582
 30
0.000000
  70
    32
  0
VERTEX
  8
VISIBLE
  5
29C7
 10
1347.51
 20
713.563
 30
0.000000
  70
    32
  0
VERTEX
  8
VISIBLE
  5
29C8
 10
1347.52
 20
713.544
 30
0.000000
  70
    32
  0
VERTEX
  8
VISIBLE
  5
29C9
 10
1347.53
 20
713.525
 30
0.000000
  70
    32
  0
VERTEX
  8
VISIBLE
  5
29CA
 10
1347.54
 20
713.506
 30
0.000000
  70
    32
  0
VERTEX
  8
VISIBLE
  5
29CB
 10
1347.55
 20
713.487
 30
0.000000
  70
    32
  0
VERTEX
  8
VISIBLE
  5
29CC
 10
1347.56
 20
713.468
 30
0.000000
  70
    32
  0
VERTEX
  8
VISIBLE
  5
29CD
 10
1347.57
 20
713.450
 30
0.000000
  70
    32
  0
VERTEX
  8
VISIBLE
  5
29CE
 10
1347.58
 20
713.431
 30
0.000000
  70
    32
  0
VERTEX
  8
VISIBLE
  5
29CF
 10
1347.60
 20
713.413
 30
0.000000
  70
    32
  0
VERTEX
  8
VISIBLE
  5
29D0
 10
1347.61
 20
713.395
 30
0.000000
  70
    32
  0
VERTEX
  8
VISIBLE
  5
29D1
 10
1347.62
 20
713.376
 30
0.000000
  70
    32
  0
VERTEX
  8
VISIBLE
  5
29D2
 10
1347.63
 20
713.358
 30
0.000000
  70
    32
  0
VERTEX
  8
VISIBLE
  5
29D3
 10
1347.64
 20
713.341
 30
0.000000
  70
    32
  0
VERTEX
  8
VISIBLE
  5
29D4
 10
1347.66
 20
713.323
 30
0.000000
  70
    32
  0
VERTEX
  8
VISIBLE
  5
29D5
 10
1347.67
 20
713.305
 30
0.000000
  70
    32
  0
VERTEX
  8
VISIBLE
  5
29D6
 10
1347.68
 20
713.288
 30
0.000000
  70
    32
  0
VERTEX
  8
VISIBLE
  5
29D7
 10
1347.69
 20
713.271
 30
0.000000
  70
    32
  0
VERTEX
  8
VISIBLE
  5
29D8
 10
1347.71
 20
713.254
 30
0.000000
  70
    32
  0
VERTEX
  8
VISIBLE
  5
29D9
 10
1347.72
 20
713.237
 30
0.000000
  70
    32
  0
VERTEX
  8
VISIBLE
  5
29DA
 10
1347.73
 20
713.220
 30
0.000000
  70
    32
  0
VERTEX
  8
VISIBLE
  5
29DB
 10
1347.75
 20
713.203
 30
0.000000
  70
    32
  0
VERTEX
  8
VISIBLE
  5
29DC
 10
1347.76
 20
713.186
 30
0.000000
  70
    32
  0
VERTEX
  8
VISIBLE
  5
29DD
 10
1347.77
 20
713.170
 30
0.000000
  70
    32
  0
VERTEX
  8
VISIBLE
  5
29DE
 10
1347.79
 20
713.154
 30
0.000000
  70
    32
  0
VERTEX
  8
VISIBLE
  5
29DF
 10
1347.80
 20
713.138
 30
0.000000
  70
    32
  0
VERTEX
  8
VISIBLE
  5
29E0
 10
1347.82
 20
713.122
 30
0.000000
  70
    32
  0
VERTEX
  8
VISIBLE
  5
29E1
 10
1347.83
 20
713.106
 30
0.000000
  70
    32
  0
VERTEX
  8
VISIBLE
  5
29E2
 10
1347.85
 20
713.090
 30
0.000000
  70
    32
  0
VERTEX
  8
VISIBLE
  5
29E3
 10
1347.86
 20
713.075
 30
0.000000
  70
    32
  0
VERTEX
  8
VISIBLE
  5
29E4
 10
1347.88
 20
713.060
 30
0.000000
  70
    32
  0
VERTEX
  8
VISIBLE
  5
29E5
 10
1347.89
 20
713.045
 30
0.000000
  70
    32
  0
VERTEX
  8
VISIBLE
  5
29E6
 10
1347.91
 20
713.030
 30
0.000000
  70
    32
  0
VERTEX
  8
VISIBLE
  5
29E7
 10
1347.92
 20
713.015
 30
0.000000
  70
    32
  0
VERTEX
  8
VISIBLE
  5
29E8
 10
1347.94
 20
713.000
 30
0.000000
  70
    32
  0
VERTEX
  8
VISIBLE
  5
29E9
 10
1347.96
 20
712.986
 30
0.000000
  70
    32
  0
VERTEX
  8
VISIBLE
  5
29EA
 10
1347.97
 20
712.972
 30
0.000000
  70
    32
  0
VERTEX
  8
VISIBLE
  5
29EB
 10
1347.99
 20
712.958
 30
0.000000
  70
    32
  0
VERTEX
  8
VISIBLE
  5
29EC
 10
1348.01
 20
712.944
 30
0.000000
  70
    32
  0
VERTEX
  8
VISIBLE
  5
29ED
 10
1348.02
 20
712.930
 30
0.000000
  70
    32
  0
VERTEX
  8
VISIBLE
  5
29EE
 10
1348.04
 20
712.917
 30
0.000000
  70
    32
  0
VERTEX
  8
VISIBLE
  5
29EF
 10
1348.06
 20
712.904
 30
0.000000
  70
    32
  0
VERTEX
  8
VISIBLE
  5
29F0
 10
1348.07
 20
712.891
 30
0.000000
  70
    32
  0
VERTEX
  8
VISIBLE
  5
29F1
 10
1348.09
 20
712.878
 30
0.000000
  70
    32
  0
VERTEX
  8
VISIBLE
  5
29F2
 10
1348.11
 20
712.865
 30
0.000000
  70
    32
  0
VERTEX
  8
VISIBLE
  5
29F3
 10
1348.13
 20
712.853
 30
0.000000
  70
    32
  0
VERTEX
  8
VISIBLE
  5
29F4
 10
1348.14
 20
712.840
 30
0.000000
  70
    32
  0
VERTEX
  8
VISIBLE
  5
29F5
 10
1348.16
 20
712.828
 30
0.000000
  70
    32
  0
VERTEX
  8
VISIBLE
  5
29F6
 10
1348.18
 20
712.817
 30
0.000000
  70
    32
  0
VERTEX
  8
VISIBLE
  5
29F7
 10
1348.20
 20
712.805
 30
0.000000
  70
    32
  0
VERTEX
  8
VISIBLE
  5
29F8
 10
1348.22
 20
712.794
 30
0.000000
  70
    32
  0
VERTEX
  8
VISIBLE
  5
29F9
 10
1348.23
 20
712.782
 30
0.000000
  70
    32
  0
VERTEX
  8
VISIBLE
  5
29FA
 10
1348.25
 20
712.771
 30
0.000000
  70
    32
  0
VERTEX
  8
VISIBLE
  5
29FB
 10
1348.27
 20
712.761
 30
0.000000
  70
    32
  0
VERTEX
  8
VISIBLE
  5
29FC
 10
1348.29
 20
712.750
 30
0.000000
  70
    32
  0
VERTEX
  8
VISIBLE
  5
29FD
 10
1348.31
 20
712.740
 30
0.000000
  70
    32
  0
VERTEX
  8
VISIBLE
  5
29FE
 10
1348.33
 20
712.730
 30
0.000000
  70
    32
  0
VERTEX
  8
VISIBLE
  5
29FF
 10
1348.35
 20
712.720
 30
0.000000
  70
    32
  0
VERTEX
  8
VISIBLE
  5
2A00
 10
1348.37
 20
712.710
 30
0.000000
  70
    32
  0
VERTEX
  8
VISIBLE
  5
2A01
 10
1348.38
 20
712.701
 30
0.000000
  70
    32
  0
VERTEX
  8
VISIBLE
  5
2A02
 10
1348.40
 20
712.692
 30
0.000000
  70
    32
  0
VERTEX
  8
VISIBLE
  5
2A03
 10
1348.42
 20
712.683
 30
0.000000
  70
    32
  0
VERTEX
  8
VISIBLE
  5
2A04
 10
1348.44
 20
712.674
 30
0.000000
  70
    32
  0
VERTEX
  8
VISIBLE
  5
2A05
 10
1348.46
 20
712.666
 30
0.000000
  70
    32
  0
VERTEX
  8
VISIBLE
  5
2A06
 10
1348.48
 20
712.657
 30
0.000000
  70
    32
  0
VERTEX
  8
VISIBLE
  5
2A07
 10
1348.50
 20
712.649
 30
0.000000
  70
    32
  0
VERTEX
  8
VISIBLE
  5
2A08
 10
1348.52
 20
712.642
 30
0.000000
  70
    32
  0
VERTEX
  8
VISIBLE
  5
2A09
 10
1348.54
 20
712.634
 30
0.000000
  70
    32
  0
VERTEX
  8
VISIBLE
  5
2A0A
 10
1348.56
 20
712.627
 30
0.000000
  70
    32
  0
VERTEX
  8
VISIBLE
  5
2A0B
 10
1348.58
 20
712.620
 30
0.000000
  70
    32
  0
VERTEX
  8
VISIBLE
  5
2A0C
 10
1348.60
 20
712.614
 30
0.000000
  70
    32
  0
VERTEX
  8
VISIBLE
  5
2A0D
 10
1348.62
 20
712.607
 30
0.000000
  70
    32
  0
VERTEX
  8
VISIBLE
  5
2A0E
 10
1348.64
 20
712.601
 30
0.000000
  70
    32
  0
VERTEX
  8
VISIBLE
  5
2A0F
 10
1348.66
 20
712.595
 30
0.000000
  70
    32
  0
VERTEX
  8
VISIBLE
  5
2A10
 10
1348.69
 20
712.589
 30
0.000000
  70
    32
  0
VERTEX
  8
VISIBLE
  5
2A11
 10
1348.71
 20
712.584
 30
0.000000
  70
    32
  0
VERTEX
  8
VISIBLE
  5
2A12
 10
1348.73
 20
712.579
 30
0.000000
  70
    32
  0
VERTEX
  8
VISIBLE
  5
2A13
 10
1348.75
 20
712.574
 30
0.000000
  70
    32
  0
VERTEX
  8
VISIBLE
  5
2A14
 10
1348.77
 20
712.570
 30
0.000000
  70
    32
  0
VERTEX
  8
VISIBLE
  5
2A15
 10
1348.79
 20
712.565
 30
0.000000
  70
    32
  0
VERTEX
  8
VISIBLE
  5
2A16
 10
1348.81
 20
712.561
 30
0.000000
  70
    32
  0
VERTEX
  8
VISIBLE
  5
2A17
 10
1348.83
 20
712.558
 30
0.000000
  70
    32
  0
VERTEX
  8
VISIBLE
  5
2A18
 10
1348.85
 20
712.554
 30
0.000000
  70
    32
  0
VERTEX
  8
VISIBLE
  5
2A19
 10
1348.87
 20
712.551
 30
0.000000
  70
    32
  0
VERTEX
  8
VISIBLE
  5
2A1A
 10
1348.90
 20
712.548
 30
0.000000
  70
    32
  0
VERTEX
  8
VISIBLE
  5
2A1B
 10
1348.92
 20
712.546
 30
0.000000
  70
    32
  0
VERTEX
  8
VISIBLE
  5
2A1C
 10
1348.94
 20
712.543
 30
0.000000
  70
    32
  0
VERTEX
  8
VISIBLE
  5
2A1D
 10
1348.96
 20
712.541
 30
0.000000
  70
    32
  0
VERTEX
  8
VISIBLE
  5
2A1E
 10
1348.98
 20
712.540
 30
0.000000
  70
    32
  0
VERTEX
  8
VISIBLE
  5
2A1F
 10
1349.00
 20
712.538
 30
0.000000
  70
    32
  0
VERTEX
  8
VISIBLE
  5
2A20
 10
1349.02
 20
712.537
 30
0.000000
  70
    32
  0
VERTEX
  8
VISIBLE
  5
2A21
 10
1349.05
 20
712.537
 30
0.000000
  70
    32
  0
VERTEX
  8
VISIBLE
  5
2A22
 10
1349.07
 20
712.536
 30
0.000000
  70
    32
  0
VERTEX
  8
VISIBLE
  5
2A23
 10
1349.09
 20
712.536
 30
0.000000
  70
    32
  0
SEQEND
  8
VISIBLE
  5
2A24
  0
LINE
  5
CFB
  8
VISIBLE
 10
1349.0883009281760678
 20
712.5359358634468663
 30
0.0
 11
1391.5883009281710656
 21
712.5359358634452747
 31
0.0
  0
LINE
  5
CFC
  8
VISIBLE
 10
1391.5883009281710656
 20
710.5359358634416367
 30
0.0
 11
1349.0883009281760678
 21
710.5359358634470937
 31
0.0
  0
ARC
  5
CFD
  8
VISIBLE
 10
1391.5883009281710656
 20
714.2859358634453883
 30
0.0
 40
3.7500000000002829
 50
269.9999999999968168
 51
0.0
  0
LINE
  5
CFE
  8
VISIBLE
 10
1395.3383009281710656
 20
786.7859358634458431
 30
0.0
 11
1395.3383009281710656
 21
714.2859358634453883
 31
0.0
  0
LINE
  5
D00
  8
VISIBLE
 10
1393.3383009281710656
 20
714.2859358634453883
 30
0.0
 11
1393.3383009281710656
 21
786.7859358634458431
 31
0.0
  0
ARC
  5
D01
  8
VISIBLE
 10
1391.5883009281710656
 20
714.2859358634453883
 30
0.0
 40
1.7500000000000071
 50
270.0
 51
0.0
  0
LINE
  5
D10
  8
VISIBLE
 10
2109.33830092818107
 20
722.535935863445161
 30
0.0
 11
2111.33830092818107
 21
722.535935863445161
 31
0.0
  0
LINE
  5
D11
  8
VISIBLE
 10
2109.3383009281787963
 20
714.2859358634450473
 30
0.0
 11
2109.33830092818107
 21
722.535935863445161
 31
0.0
  0
POLYLINE
  8
VISIBLE
  5
2A25
  66
     1
 10
0.000000
 20
0.000000
 30
0.000000
  70
     8
  0
VERTEX
  8
VISIBLE
  5
2A26
 10
2107.59
 20
712.536
 30
0.000000
  70
    32
  0
VERTEX
  8
VISIBLE
  5
2A27
 10
2107.61
 20
712.536
 30
0.000000
  70
    32
  0
VERTEX
  8
VISIBLE
  5
2A28
 10
2107.63
 20
712.537
 30
0.000000
  70
    32
  0
VERTEX
  8
VISIBLE
  5
2A29
 10
2107.65
 20
712.537
 30
0.000000
  70
    32
  0
VERTEX
  8
VISIBLE
  5
2A2A
 10
2107.67
 20
712.538
 30
0.000000
  70
    32
  0
VERTEX
  8
VISIBLE
  5
2A2B
 10
2107.70
 20
712.540
 30
0.000000
  70
    32
  0
VERTEX
  8
VISIBLE
  5
2A2C
 10
2107.72
 20
712.541
 30
0.000000
  70
    32
  0
VERTEX
  8
VISIBLE
  5
2A2D
 10
2107.74
 20
712.543
 30
0.000000
  70
    32
  0
VERTEX
  8
VISIBLE
  5
2A2E
 10
2107.76
 20
712.546
 30
0.000000
  70
    32
  0
VERTEX
  8
VISIBLE
  5
2A2F
 10
2107.78
 20
712.548
 30
0.000000
  70
    32
  0
VERTEX
  8
VISIBLE
  5
2A30
 10
2107.80
 20
712.551
 30
0.000000
  70
    32
  0
VERTEX
  8
VISIBLE
  5
2A31
 10
2107.82
 20
712.554
 30
0.000000
  70
    32
  0
VERTEX
  8
VISIBLE
  5
2A32
 10
2107.85
 20
712.558
 30
0.000000
  70
    32
  0
VERTEX
  8
VISIBLE
  5
2A33
 10
2107.87
 20
712.561
 30
0.000000
  70
    32
  0
VERTEX
  8
VISIBLE
  5
2A34
 10
2107.89
 20
712.565
 30
0.000000
  70
    32
  0
VERTEX
  8
VISIBLE
  5
2A35
 10
2107.91
 20
712.570
 30
0.000000
  70
    32
  0
VERTEX
  8
VISIBLE
  5
2A36
 10
2107.93
 20
712.574
 30
0.000000
  70
    32
  0
VERTEX
  8
VISIBLE
  5
2A37
 10
2107.95
 20
712.579
 30
0.000000
  70
    32
  0
VERTEX
  8
VISIBLE
  5
2A38
 10
2107.97
 20
712.584
 30
0.000000
  70
    32
  0
VERTEX
  8
VISIBLE
  5
2A39
 10
2107.99
 20
712.589
 30
0.000000
  70
    32
  0
VERTEX
  8
VISIBLE
  5
2A3A
 10
2108.01
 20
712.595
 30
0.000000
  70
    32
  0
VERTEX
  8
VISIBLE
  5
2A3B
 10
2108.03
 20
712.601
 30
0.000000
  70
    32
  0
VERTEX
  8
VISIBLE
  5
2A3C
 10
2108.05
 20
712.607
 30
0.000000
  70
    32
  0
VERTEX
  8
VISIBLE
  5
2A3D
 10
2108.07
 20
712.614
 30
0.000000
  70
    32
  0
VERTEX
  8
VISIBLE
  5
2A3E
 10
2108.09
 20
712.620
 30
0.000000
  70
    32
  0
VERTEX
  8
VISIBLE
  5
2A3F
 10
2108.11
 20
712.627
 30
0.000000
  70
    32
  0
VERTEX
  8
VISIBLE
  5
2A40
 10
2108.13
 20
712.634
 30
0.000000
  70
    32
  0
VERTEX
  8
VISIBLE
  5
2A41
 10
2108.15
 20
712.642
 30
0.000000
  70
    32
  0
VERTEX
  8
VISIBLE
  5
2A42
 10
2108.17
 20
712.649
 30
0.000000
  70
    32
  0
VERTEX
  8
VISIBLE
  5
2A43
 10
2108.19
 20
712.657
 30
0.000000
  70
    32
  0
VERTEX
  8
VISIBLE
  5
2A44
 10
2108.21
 20
712.666
 30
0.000000
  70
    32
  0
VERTEX
  8
VISIBLE
  5
2A45
 10
2108.23
 20
712.674
 30
0.000000
  70
    32
  0
VERTEX
  8
VISIBLE
  5
2A46
 10
2108.25
 20
712.683
 30
0.000000
  70
    32
  0
VERTEX
  8
VISIBLE
  5
2A47
 10
2108.27
 20
712.692
 30
0.000000
  70
    32
  0
VERTEX
  8
VISIBLE
  5
2A48
 10
2108.29
 20
712.701
 30
0.000000
  70
    32
  0
VERTEX
  8
VISIBLE
  5
2A49
 10
2108.31
 20
712.710
 30
0.000000
  70
    32
  0
VERTEX
  8
VISIBLE
  5
2A4A
 10
2108.33
 20
712.720
 30
0.000000
  70
    32
  0
VERTEX
  8
VISIBLE
  5
2A4B
 10
2108.35
 20
712.730
 30
0.000000
  70
    32
  0
VERTEX
  8
VISIBLE
  5
2A4C
 10
2108.37
 20
712.740
 30
0.000000
  70
    32
  0
VERTEX
  8
VISIBLE
  5
2A4D
 10
2108.39
 20
712.750
 30
0.000000
  70
    32
  0
VERTEX
  8
VISIBLE
  5
2A4E
 10
2108.41
 20
712.761
 30
0.000000
  70
    32
  0
VERTEX
  8
VISIBLE
  5
2A4F
 10
2108.42
 20
712.771
 30
0.000000
  70
    32
  0
VERTEX
  8
VISIBLE
  5
2A50
 10
2108.44
 20
712.782
 30
0.000000
  70
    32
  0
VERTEX
  8
VISIBLE
  5
2A51
 10
2108.46
 20
712.794
 30
0.000000
  70
    32
  0
VERTEX
  8
VISIBLE
  5
2A52
 10
2108.48
 20
712.805
 30
0.000000
  70
    32
  0
VERTEX
  8
VISIBLE
  5
2A53
 10
2108.50
 20
712.817
 30
0.000000
  70
    32
  0
VERTEX
  8
VISIBLE
  5
2A54
 10
2108.52
 20
712.828
 30
0.000000
  70
    32
  0
VERTEX
  8
VISIBLE
  5
2A55
 10
2108.53
 20
712.840
 30
0.000000
  70
    32
  0
VERTEX
  8
VISIBLE
  5
2A56
 10
2108.55
 20
712.853
 30
0.000000
  70
    32
  0
VERTEX
  8
VISIBLE
  5
2A57
 10
2108.57
 20
712.865
 30
0.000000
  70
    32
  0
VERTEX
  8
VISIBLE
  5
2A58
 10
2108.59
 20
712.878
 30
0.000000
  70
    32
  0
VERTEX
  8
VISIBLE
  5
2A59
 10
2108.60
 20
712.891
 30
0.000000
  70
    32
  0
VERTEX
  8
VISIBLE
  5
2A5A
 10
2108.62
 20
712.904
 30
0.000000
  70
    32
  0
VERTEX
  8
VISIBLE
  5
2A5B
 10
2108.64
 20
712.917
 30
0.000000
  70
    32
  0
VERTEX
  8
VISIBLE
  5
2A5C
 10
2108.65
 20
712.930
 30
0.000000
  70
    32
  0
VERTEX
  8
VISIBLE
  5
2A5D
 10
2108.67
 20
712.944
 30
0.000000
  70
    32
  0
VERTEX
  8
VISIBLE
  5
2A5E
 10
2108.69
 20
712.958
 30
0.000000
  70
    32
  0
VERTEX
  8
VISIBLE
  5
2A5F
 10
2108.70
 20
712.972
 30
0.000000
  70
    32
  0
VERTEX
  8
VISIBLE
  5
2A60
 10
2108.72
 20
712.986
 30
0.000000
  70
    32
  0
VERTEX
  8
VISIBLE
  5
2A61
 10
2108.74
 20
713.000
 30
0.000000
  70
    32
  0
VERTEX
  8
VISIBLE
  5
2A62
 10
2108.75
 20
713.015
 30
0.000000
  70
    32
  0
VERTEX
  8
VISIBLE
  5
2A63
 10
2108.77
 20
713.030
 30
0.000000
  70
    32
  0
VERTEX
  8
VISIBLE
  5
2A64
 10
2108.78
 20
713.045
 30
0.000000
  70
    32
  0
VERTEX
  8
VISIBLE
  5
2A65
 10
2108.80
 20
713.060
 30
0.000000
  70
    32
  0
VERTEX
  8
VISIBLE
  5
2A66
 10
2108.81
 20
713.075
 30
0.000000
  70
    32
  0
VERTEX
  8
VISIBLE
  5
2A67
 10
2108.83
 20
713.090
 30
0.000000
  70
    32
  0
VERTEX
  8
VISIBLE
  5
2A68
 10
2108.84
 20
713.106
 30
0.000000
  70
    32
  0
VERTEX
  8
VISIBLE
  5
2A69
 10
2108.86
 20
713.122
 30
0.000000
  70
    32
  0
VERTEX
  8
VISIBLE
  5
2A6A
 10
2108.87
 20
713.138
 30
0.000000
  70
    32
  0
VERTEX
  8
VISIBLE
  5
2A6B
 10
2108.89
 20
713.154
 30
0.000000
  70
    32
  0
VERTEX
  8
VISIBLE
  5
2A6C
 10
2108.90
 20
713.170
 30
0.000000
  70
    32
  0
VERTEX
  8
VISIBLE
  5
2A6D
 10
2108.92
 20
713.186
 30
0.000000
  70
    32
  0
VERTEX
  8
VISIBLE
  5
2A6E
 10
2108.93
 20
713.203
 30
0.000000
  70
    32
  0
VERTEX
  8
VISIBLE
  5
2A6F
 10
2108.94
 20
713.220
 30
0.000000
  70
    32
  0
VERTEX
  8
VISIBLE
  5
2A70
 10
2108.96
 20
713.237
 30
0.000000
  70
    32
  0
VERTEX
  8
VISIBLE
  5
2A71
 10
2108.97
 20
713.254
 30
0.000000
  70
    32
  0
VERTEX
  8
VISIBLE
  5
2A72
 10
2108.98
 20
713.271
 30
0.000000
  70
    32
  0
VERTEX
  8
VISIBLE
  5
2A73
 10
2109.00
 20
713.288
 30
0.000000
  70
    32
  0
VERTEX
  8
VISIBLE
  5
2A74
 10
2109.01
 20
713.305
 30
0.000000
  70
    32
  0
VERTEX
  8
VISIBLE
  5
2A75
 10
2109.02
 20
713.323
 30
0.000000
  70
    32
  0
VERTEX
  8
VISIBLE
  5
2A76
 10
2109.03
 20
713.341
 30
0.000000
  70
    32
  0
VERTEX
  8
VISIBLE
  5
2A77
 10
2109.05
 20
713.358
 30
0.000000
  70
    32
  0
VERTEX
  8
VISIBLE
  5
2A78
 10
2109.06
 20
713.376
 30
0.000000
  70
    32
  0
VERTEX
  8
VISIBLE
  5
2A79
 10
2109.07
 20
713.395
 30
0.000000
  70
    32
  0
VERTEX
  8
VISIBLE
  5
2A7A
 10
2109.08
 20
713.413
 30
0.000000
  70
    32
  0
VERTEX
  8
VISIBLE
  5
2A7B
 10
2109.09
 20
713.431
 30
0.000000
  70
    32
  0
VERTEX
  8
VISIBLE
  5
2A7C
 10
2109.10
 20
713.450
 30
0.000000
  70
    32
  0
VERTEX
  8
VISIBLE
  5
2A7D
 10
2109.11
 20
713.468
 30
0.000000
  70
    32
  0
VERTEX
  8
VISIBLE
  5
2A7E
 10
2109.12
 20
713.487
 30
0.000000
  70
    32
  0
VERTEX
  8
VISIBLE
  5
2A7F
 10
2109.13
 20
713.506
 30
0.000000
  70
    32
  0
VERTEX
  8
VISIBLE
  5
2A80
 10
2109.14
 20
713.525
 30
0.000000
  70
    32
  0
VERTEX
  8
VISIBLE
  5
2A81
 10
2109.15
 20
713.544
 30
0.000000
  70
    32
  0
VERTEX
  8
VISIBLE
  5
2A82
 10
2109.16
 20
713.563
 30
0.000000
  70
    32
  0
VERTEX
  8
VISIBLE
  5
2A83
 10
2109.17
 20
713.582
 30
0.000000
  70
    32
  0
VERTEX
  8
VISIBLE
  5
2A84
 10
2109.18
 20
713.602
 30
0.000000
  70
    32
  0
VERTEX
  8
VISIBLE
  5
2A85
 10
2109.19
 20
713.621
 30
0.000000
  70
    32
  0
VERTEX
  8
VISIBLE
  5
2A86
 10
2109.20
 20
713.641
 30
0.000000
  70
    32
  0
VERTEX
  8
VISIBLE
  5
2A87
 10
2109.21
 20
713.660
 30
0.000000
  70
    32
  0
VERTEX
  8
VISIBLE
  5
2A88
 10
2109.22
 20
713.680
 30
0.000000
  70
    32
  0
VERTEX
  8
VISIBLE
  5
2A89
 10
2109.22
 20
713.700
 30
0.000000
  70
    32
  0
VERTEX
  8
VISIBLE
  5
2A8A
 10
2109.23
 20
713.720
 30
0.000000
  70
    32
  0
VERTEX
  8
VISIBLE
  5
2A8B
 10
2109.24
 20
713.740
 30
0.000000
  70
    32
  0
VERTEX
  8
VISIBLE
  5
2A8C
 10
2109.25
 20
713.760
 30
0.000000
  70
    32
  0
VERTEX
  8
VISIBLE
  5
2A8D
 10
2109.25
 20
713.780
 30
0.000000
  70
    32
  0
VERTEX
  8
VISIBLE
  5
2A8E
 10
2109.26
 20
713.801
 30
0.000000
  70
    32
  0
VERTEX
  8
VISIBLE
  5
2A8F
 10
2109.27
 20
713.821
 30
0.000000
  70
    32
  0
VERTEX
  8
VISIBLE
  5
2A90
 10
2109.27
 20
713.842
 30
0.000000
  70
    32
  0
VERTEX
  8
VISIBLE
  5
2A91
 10
2109.28
 20
713.862
 30
0.000000
  70
    32
  0
VERTEX
  8
VISIBLE
  5
2A92
 10
2109.28
 20
713.883
 30
0.000000
  70
    32
  0
VERTEX
  8
VISIBLE
  5
2A93
 10
2109.29
 20
713.903
 30
0.000000
  70
    32
  0
VERTEX
  8
VISIBLE
  5
2A94
 10
2109.30
 20
713.924
 30
0.000000
  70
    32
  0
VERTEX
  8
VISIBLE
  5
2A95
 10
2109.30
 20
713.945
 30
0.000000
  70
    32
  0
VERTEX
  8
VISIBLE
  5
2A96
 10
2109.30
 20
713.966
 30
0.000000
  70
    32
  0
VERTEX
  8
VISIBLE
  5
2A97
 10
2109.31
 20
713.987
 30
0.000000
  70
    32
  0
VERTEX
  8
VISIBLE
  5
2A98
 10
2109.31
 20
714.008
 30
0.000000
  70
    32
  0
VERTEX
  8
VISIBLE
  5
2A99
 10
2109.32
 20
714.029
 30
0.000000
  70
    32
  0
VERTEX
  8
VISIBLE
  5
2A9A
 10
2109.32
 20
714.050
 30
0.000000
  70
    32
  0
VERTEX
  8
VISIBLE
  5
2A9B
 10
2109.32
 20
714.071
 30
0.000000
  70
    32
  0
VERTEX
  8
VISIBLE
  5
2A9C
 10
2109.33
 20
714.093
 30
0.000000
  70
    32
  0
VERTEX
  8
VISIBLE
  5
2A9D
 10
2109.33
 20
714.114
 30
0.000000
  70
    32
  0
VERTEX
  8
VISIBLE
  5
2A9E
 10
2109.33
 20
714.135
 30
0.000000
  70
    32
  0
VERTEX
  8
VISIBLE
  5
2A9F
 10
2109.33
 20
714.157
 30
0.000000
  70
    32
  0
VERTEX
  8
VISIBLE
  5
2AA0
 10
2109.33
 20
714.178
 30
0.000000
  70
    32
  0
VERTEX
  8
VISIBLE
  5
2AA1
 10
2109.34
 20
714.200
 30
0.000000
  70
    32
  0
VERTEX
  8
VISIBLE
  5
2AA2
 10
2109.34
 20
714.221
 30
0.000000
  70
    32
  0
VERTEX
  8
VISIBLE
  5
2AA3
 10
2109.34
 20
714.243
 30
0.000000
  70
    32
  0
VERTEX
  8
VISIBLE
  5
2AA4
 10
2109.34
 20
714.264
 30
0.000000
  70
    32
  0
VERTEX
  8
VISIBLE
  5
2AA5
 10
2109.34
 20
714.286
 30
0.000000
  70
    32
  0
SEQEND
  8
VISIBLE
  5
2AA6
  0
POLYLINE
  8
VISIBLE
  5
2AA7
  66
     1
 10
0.000000
 20
0.000000
 30
0.000000
  70
     8
  0
VERTEX
  8
VISIBLE
  5
2AA8
 10
2111.34
 20
714.286
 30
0.000000
  70
    32
  0
VERTEX
  8
VISIBLE
  5
2AA9
 10
2111.34
 20
714.240
 30
0.000000
  70
    32
  0
VERTEX
  8
VISIBLE
  5
2AAA
 10
2111.34
 20
714.193
 30
0.000000
  70
    32
  0
VERTEX
  8
VISIBLE
  5
2AAB
 10
2111.34
 20
714.147
 30
0.000000
  70
    32
  0
VERTEX
  8
VISIBLE
  5
2AAC
 10
2111.33
 20
714.101
 30
0.000000
  70
    32
  0
VERTEX
  8
VISIBLE
  5
2AAD
 10
2111.33
 20
714.055
 30
0.000000
  70
    32
  0
VERTEX
  8
VISIBLE
  5
2AAE
 10
2111.33
 20
714.009
 30
0.000000
  70
    32
  0
VERTEX
  8
VISIBLE
  5
2AAF
 10
2111.32
 20
713.963
 30
0.000000
  70
    32
  0
VERTEX
  8
VISIBLE
  5
2AB0
 10
2111.32
 20
713.917
 30
0.000000
  70
    32
  0
VERTEX
  8
VISIBLE
  5
2AB1
 10
2111.31
 20
713.872
 30
0.000000
  70
    32
  0
VERTEX
  8
VISIBLE
  5
2AB2
 10
2111.31
 20
713.826
 30
0.000000
  70
    32
  0
VERTEX
  8
VISIBLE
  5
2AB3
 10
2111.30
 20
713.781
 30
0.000000
  70
    32
  0
VERTEX
  8
VISIBLE
  5
2AB4
 10
2111.29
 20
713.735
 30
0.000000
  70
    32
  0
VERTEX
  8
VISIBLE
  5
2AB5
 10
2111.28
 20
713.690
 30
0.000000
  70
    32
  0
VERTEX
  8
VISIBLE
  5
2AB6
 10
2111.28
 20
713.645
 30
0.000000
  70
    32
  0
VERTEX
  8
VISIBLE
  5
2AB7
 10
2111.27
 20
713.600
 30
0.000000
  70
    32
  0
VERTEX
  8
VISIBLE
  5
2AB8
 10
2111.26
 20
713.555
 30
0.000000
  70
    32
  0
VERTEX
  8
VISIBLE
  5
2AB9
 10
2111.25
 20
713.511
 30
0.000000
  70
    32
  0
VERTEX
  8
VISIBLE
  5
2ABA
 10
2111.24
 20
713.466
 30
0.000000
  70
    32
  0
VERTEX
  8
VISIBLE
  5
2ABB
 10
2111.22
 20
713.422
 30
0.000000
  70
    32
  0
VERTEX
  8
VISIBLE
  5
2ABC
 10
2111.21
 20
713.378
 30
0.000000
  70
    32
  0
VERTEX
  8
VISIBLE
  5
2ABD
 10
2111.20
 20
713.334
 30
0.000000
  70
    32
  0
VERTEX
  8
VISIBLE
  5
2ABE
 10
2111.19
 20
713.290
 30
0.000000
  70
    32
  0
VERTEX
  8
VISIBLE
  5
2ABF
 10
2111.17
 20
713.246
 30
0.000000
  70
    32
  0
VERTEX
  8
VISIBLE
  5
2AC0
 10
2111.16
 20
713.203
 30
0.000000
  70
    32
  0
VERTEX
  8
VISIBLE
  5
2AC1
 10
2111.14
 20
713.159
 30
0.000000
  70
    32
  0
VERTEX
  8
VISIBLE
  5
2AC2
 10
2111.13
 20
713.116
 30
0.000000
  70
    32
  0
VERTEX
  8
VISIBLE
  5
2AC3
 10
2111.11
 20
713.073
 30
0.000000
  70
    32
  0
VERTEX
  8
VISIBLE
  5
2AC4
 10
2111.10
 20
713.030
 30
0.000000
  70
    32
  0
VERTEX
  8
VISIBLE
  5
2AC5
 10
2111.08
 20
712.988
 30
0.000000
  70
    32
  0
VERTEX
  8
VISIBLE
  5
2AC6
 10
2111.06
 20
712.945
 30
0.000000
  70
    32
  0
VERTEX
  8
VISIBLE
  5
2AC7
 10
2111.04
 20
712.903
 30
0.000000
  70
    32
  0
VERTEX
  8
VISIBLE
  5
2AC8
 10
2111.02
 20
712.861
 30
0.000000
  70
    32
  0
VERTEX
  8
VISIBLE
  5
2AC9
 10
2111.00
 20
712.819
 30
0.000000
  70
    32
  0
VERTEX
  8
VISIBLE
  5
2ACA
 10
2110.99
 20
712.778
 30
0.000000
  70
    32
  0
VERTEX
  8
VISIBLE
  5
2ACB
 10
2110.96
 20
712.737
 30
0.000000
  70
    32
  0
VERTEX
  8
VISIBLE
  5
2ACC
 10
2110.94
 20
712.696
 30
0.000000
  70
    32
  0
VERTEX
  8
VISIBLE
  5
2ACD
 10
2110.92
 20
712.655
 30
0.000000
  70
    32
  0
VERTEX
  8
VISIBLE
  5
2ACE
 10
2110.90
 20
712.614
 30
0.000000
  70
    32
  0
VERTEX
  8
VISIBLE
  5
2ACF
 10
2110.88
 20
712.574
 30
0.000000
  70
    32
  0
VERTEX
  8
VISIBLE
  5
2AD0
 10
2110.86
 20
712.534
 30
0.000000
  70
    32
  0
VERTEX
  8
VISIBLE
  5
2AD1
 10
2110.83
 20
712.494
 30
0.000000
  70
    32
  0
VERTEX
  8
VISIBLE
  5
2AD2
 10
2110.81
 20
712.454
 30
0.000000
  70
    32
  0
VERTEX
  8
VISIBLE
  5
2AD3
 10
2110.79
 20
712.415
 30
0.000000
  70
    32
  0
VERTEX
  8
VISIBLE
  5
2AD4
 10
2110.76
 20
712.376
 30
0.000000
  70
    32
  0
VERTEX
  8
VISIBLE
  5
2AD5
 10
2110.74
 20
712.337
 30
0.000000
  70
    32
  0
VERTEX
  8
VISIBLE
  5
2AD6
 10
2110.71
 20
712.299
 30
0.000000
  70
    32
  0
VERTEX
  8
VISIBLE
  5
2AD7
 10
2110.69
 20
712.260
 30
0.000000
  70
    32
  0
VERTEX
  8
VISIBLE
  5
2AD8
 10
2110.66
 20
712.222
 30
0.000000
  70
    32
  0
VERTEX
  8
VISIBLE
  5
2AD9
 10
2110.63
 20
712.185
 30
0.000000
  70
    32
  0
VERTEX
  8
VISIBLE
  5
2ADA
 10
2110.61
 20
712.147
 30
0.000000
  70
    32
  0
VERTEX
  8
VISIBLE
  5
2ADB
 10
2110.58
 20
712.110
 30
0.000000
  70
    32
  0
VERTEX
  8
VISIBLE
  5
2ADC
 10
2110.55
 20
712.074
 30
0.000000
  70
    32
  0
VERTEX
  8
VISIBLE
  5
2ADD
 10
2110.52
 20
712.037
 30
0.000000
  70
    32
  0
VERTEX
  8
VISIBLE
  5
2ADE
 10
2110.49
 20
712.001
 30
0.000000
  70
    32
  0
VERTEX
  8
VISIBLE
  5
2ADF
 10
2110.46
 20
711.965
 30
0.000000
  70
    32
  0
VERTEX
  8
VISIBLE
  5
2AE0
 10
2110.43
 20
711.930
 30
0.000000
  70
    32
  0
VERTEX
  8
VISIBLE
  5
2AE1
 10
2110.40
 20
711.895
 30
0.000000
  70
    32
  0
VERTEX
  8
VISIBLE
  5
2AE2
 10
2110.37
 20
711.860
 30
0.000000
  70
    32
  0
VERTEX
  8
VISIBLE
  5
2AE3
 10
2110.34
 20
711.825
 30
0.000000
  70
    32
  0
VERTEX
  8
VISIBLE
  5
2AE4
 10
2110.31
 20
711.791
 30
0.000000
  70
    32
  0
VERTEX
  8
VISIBLE
  5
2AE5
 10
2110.28
 20
711.757
 30
0.000000
  70
    32
  0
VERTEX
  8
VISIBLE
  5
2AE6
 10
2110.25
 20
711.724
 30
0.000000
  70
    32
  0
VERTEX
  8
VISIBLE
  5
2AE7
 10
2110.22
 20
711.691
 30
0.000000
  70
    32
  0
VERTEX
  8
VISIBLE
  5
2AE8
 10
2110.18
 20
711.658
 30
0.000000
  70
    32
  0
VERTEX
  8
VISIBLE
  5
2AE9
 10
2110.15
 20
711.626
 30
0.000000
  70
    32
  0
VERTEX
  8
VISIBLE
  5
2AEA
 10
2110.12
 20
711.594
 30
0.000000
  70
    32
  0
VERTEX
  8
VISIBLE
  5
2AEB
 10
2110.08
 20
711.562
 30
0.000000
  70
    32
  0
VERTEX
  8
VISIBLE
  5
2AEC
 10
2110.05
 20
711.531
 30
0.000000
  70
    32
  0
VERTEX
  8
VISIBLE
  5
2AED
 10
2110.01
 20
711.500
 30
0.000000
  70
    32
  0
VERTEX
  8
VISIBLE
  5
2AEE
 10
2109.98
 20
711.470
 30
0.000000
  70
    32
  0
VERTEX
  8
VISIBLE
  5
2AEF
 10
2109.94
 20
711.440
 30
0.000000
  70
    32
  0
VERTEX
  8
VISIBLE
  5
2AF0
 10
2109.91
 20
711.410
 30
0.000000
  70
    32
  0
VERTEX
  8
VISIBLE
  5
2AF1
 10
2109.87
 20
711.381
 30
0.000000
  70
    32
  0
VERTEX
  8
VISIBLE
  5
2AF2
 10
2109.84
 20
711.352
 30
0.000000
  70
    32
  0
VERTEX
  8
VISIBLE
  5
2AF3
 10
2109.80
 20
711.324
 30
0.000000
  70
    32
  0
VERTEX
  8
VISIBLE
  5
2AF4
 10
2109.76
 20
711.296
 30
0.000000
  70
    32
  0
VERTEX
  8
VISIBLE
  5
2AF5
 10
2109.73
 20
711.268
 30
0.000000
  70
    32
  0
VERTEX
  8
VISIBLE
  5
2AF6
 10
2109.69
 20
711.241
 30
0.000000
  70
    32
  0
VERTEX
  8
VISIBLE
  5
2AF7
 10
2109.65
 20
711.215
 30
0.000000
  70
    32
  0
VERTEX
  8
VISIBLE
  5
2AF8
 10
2109.61
 20
711.188
 30
0.000000
  70
    32
  0
VERTEX
  8
VISIBLE
  5
2AF9
 10
2109.58
 20
711.163
 30
0.000000
  70
    32
  0
VERTEX
  8
VISIBLE
  5
2AFA
 10
2109.54
 20
711.137
 30
0.000000
  70
    32
  0
VERTEX
  8
VISIBLE
  5
2AFB
 10
2109.50
 20
711.112
 30
0.000000
  70
    32
  0
VERTEX
  8
VISIBLE
  5
2AFC
 10
2109.46
 20
711.088
 30
0.000000
  70
    32
  0
VERTEX
  8
VISIBLE
  5
2AFD
 10
2109.42
 20
711.064
 30
0.000000
  70
    32
  0
VERTEX
  8
VISIBLE
  5
2AFE
 10
2109.38
 20
711.040
 30
0.000000
  70
    32
  0
VERTEX
  8
VISIBLE
  5
2AFF
 10
2109.34
 20
711.017
 30
0.000000
  70
    32
  0
VERTEX
  8
VISIBLE
  5
2B00
 10
2109.30
 20
710.995
 30
0.000000
  70
    32
  0
VERTEX
  8
VISIBLE
  5
2B01
 10
2109.26
 20
710.973
 30
0.000000
  70
    32
  0
VERTEX
  8
VISIBLE
  5
2B02
 10
2109.22
 20
710.951
 30
0.000000
  70
    32
  0
VERTEX
  8
VISIBLE
  5
2B03
 10
2109.18
 20
710.930
 30
0.000000
  70
    32
  0
VERTEX
  8
VISIBLE
  5
2B04
 10
2109.14
 20
710.909
 30
0.000000
  70
    32
  0
VERTEX
  8
VISIBLE
  5
2B05
 10
2109.10
 20
710.889
 30
0.000000
  70
    32
  0
VERTEX
  8
VISIBLE
  5
2B06
 10
2109.05
 20
710.870
 30
0.000000
  70
    32
  0
VERTEX
  8
VISIBLE
  5
2B07
 10
2109.01
 20
710.850
 30
0.000000
  70
    32
  0
VERTEX
  8
VISIBLE
  5
2B08
 10
2108.97
 20
710.832
 30
0.000000
  70
    32
  0
VERTEX
  8
VISIBLE
  5
2B09
 10
2108.93
 20
710.814
 30
0.000000
  70
    32
  0
VERTEX
  8
VISIBLE
  5
2B0A
 10
2108.89
 20
710.796
 30
0.000000
  70
    32
  0
VERTEX
  8
VISIBLE
  5
2B0B
 10
2108.84
 20
710.779
 30
0.000000
  70
    32
  0
VERTEX
  8
VISIBLE
  5
2B0C
 10
2108.80
 20
710.763
 30
0.000000
  70
    32
  0
VERTEX
  8
VISIBLE
  5
2B0D
 10
2108.76
 20
710.747
 30
0.000000
  70
    32
  0
VERTEX
  8
VISIBLE
  5
2B0E
 10
2108.71
 20
710.731
 30
0.000000
  70
    32
  0
VERTEX
  8
VISIBLE
  5
2B0F
 10
2108.67
 20
710.716
 30
0.000000
  70
    32
  0
VERTEX
  8
VISIBLE
  5
2B10
 10
2108.63
 20
710.702
 30
0.000000
  70
    32
  0
VERTEX
  8
VISIBLE
  5
2B11
 10
2108.58
 20
710.688
 30
0.000000
  70
    32
  0
VERTEX
  8
VISIBLE
  5
2B12
 10
2108.54
 20
710.675
 30
0.000000
  70
    32
  0
VERTEX
  8
VISIBLE
  5
2B13
 10
2108.50
 20
710.663
 30
0.000000
  70
    32
  0
VERTEX
  8
VISIBLE
  5
2B14
 10
2108.45
 20
710.651
 30
0.000000
  70
    32
  0
VERTEX
  8
VISIBLE
  5
2B15
 10
2108.41
 20
710.639
 30
0.000000
  70
    32
  0
VERTEX
  8
VISIBLE
  5
2B16
 10
2108.36
 20
710.628
 30
0.000000
  70
    32
  0
VERTEX
  8
VISIBLE
  5
2B17
 10
2108.32
 20
710.618
 30
0.000000
  70
    32
  0
VERTEX
  8
VISIBLE
  5
2B18
 10
2108.27
 20
710.608
 30
0.000000
  70
    32
  0
VERTEX
  8
VISIBLE
  5
2B19
 10
2108.23
 20
710.599
 30
0.000000
  70
    32
  0
VERTEX
  8
VISIBLE
  5
2B1A
 10
2108.18
 20
710.590
 30
0.000000
  70
    32
  0
VERTEX
  8
VISIBLE
  5
2B1B
 10
2108.14
 20
710.582
 30
0.000000
  70
    32
  0
VERTEX
  8
VISIBLE
  5
2B1C
 10
2108.09
 20
710.575
 30
0.000000
  70
    32
  0
VERTEX
  8
VISIBLE
  5
2B1D
 10
2108.05
 20
710.568
 30
0.000000
  70
    32
  0
VERTEX
  8
VISIBLE
  5
2B1E
 10
2108.00
 20
710.562
 30
0.000000
  70
    32
  0
VERTEX
  8
VISIBLE
  5
2B1F
 10
2107.96
 20
710.557
 30
0.000000
  70
    32
  0
VERTEX
  8
VISIBLE
  5
2B20
 10
2107.91
 20
710.552
 30
0.000000
  70
    32
  0
VERTEX
  8
VISIBLE
  5
2B21
 10
2107.87
 20
710.548
 30
0.000000
  70
    32
  0
VERTEX
  8
VISIBLE
  5
2B22
 10
2107.82
 20
710.544
 30
0.000000
  70
    32
  0
VERTEX
  8
VISIBLE
  5
2B23
 10
2107.77
 20
710.541
 30
0.000000
  70
    32
  0
VERTEX
  8
VISIBLE
  5
2B24
 10
2107.73
 20
710.539
 30
0.000000
  70
    32
  0
VERTEX
  8
VISIBLE
  5
2B25
 10
2107.68
 20
710.537
 30
0.000000
  70
    32
  0
VERTEX
  8
VISIBLE
  5
2B26
 10
2107.63
 20
710.536
 30
0.000000
  70
    32
  0
VERTEX
  8
VISIBLE
  5
2B27
 10
2107.59
 20
710.536
 30
0.000000
  70
    32
  0
SEQEND
  8
VISIBLE
  5
2B28
  0
LINE
  5
D1B
  8
VISIBLE
 10
2111.33830092818107
 20
722.535935863445161
 30
0.0
 11
2111.3383009281787963
 21
714.2859358634450473
 31
0.0
  0
LINE
  5
D1C
  8
VISIBLE
 10
2065.0883009281719751
 20
712.5359358634449336
 30
0.0
 11
2107.5883009281778868
 21
712.5359358634462978
 31
0.0
  0
LINE
  5
D1D
  8
VISIBLE
 10
2107.5883009281778868
 20
710.5359358634457294
 30
0.0
 11
2065.0883009281719751
 21
710.5359358634449336
 31
0.0
  0
ARC
  5
D1E
  8
VISIBLE
 10
2065.0883009281719751
 20
714.2859358634449336
 30
0.0
 40
3.7500000000000528
 50
180.0
 51
270.0
  0
ARC
  5
D1F
  8
VISIBLE
 10
2065.0883009281719751
 20
714.2859358634449336
 30
0.0
 40
1.750000000000044
 50
180.0
 51
270.0
  0
LINE
  5
D20
  8
VISIBLE
 10
2063.3383009281719751
 20
784.4296398499601537
 30
0.0
 11
2063.3383009281719751
 21
714.2859358634449336
 31
0.0
  0
LINE
  5
D22
  8
VISIBLE
 10
2061.3383009281728846
 20
714.2859358634449336
 30
0.0
 11
2061.3383009281728846
 21
785.157580318492478
 31
0.0
  0
LINE
  5
D23
  8
VISIBLE
 10
2112.5383009281717932
 20
766.5223043240615652
 30
0.0
 11
2056.8644308375428409
 21
786.7859358634553928
 31
0.0
  0
LINE
  5
D6C
  8
VISIBLE
 10
2011.5383009281720206
 20
791.1359358634451837
 30
0.0
 11
1400.3383009281710656
 21
791.13593586344507
 31
0.0
  0
LINE
  5
D6D
  8
VISIBLE
 10
1400.3383009281710656
 20
791.13593586344507
 30
0.0
 11
1400.3383009281710656
 21
1861.6359358634449563
 31
0.0
  0
LINE
  5
D70
  8
VISIBLE
 10
2011.5383009281720206
 20
1861.6359358634449563
 30
0.0
 11
2011.5383009281720206
 21
791.1359358634451837
 31
0.0
  0
LINE
  5
D73
  8
VISIBLE
 10
1400.3383009281710656
 20
1861.6359358634449563
 30
0.0
 11
2011.5383009281720206
 21
1861.6359358634449563
 31
0.0
  0
POLYLINE
  8
VISIBLE
  5
2B29
  66
     1
 10
0.000000
 20
0.000000
 30
0.000000
  70
     8
  0
VERTEX
  8
VISIBLE
  5
2B2A
 10
1326.22
 20
1555.44
 30
0.000000
  70
    32
  0
VERTEX
  8
VISIBLE
  5
2B2B
 10
1326.15
 20
1555.43
 30
0.000000
  70
    32
  0
VERTEX
  8
VISIBLE
  5
2B2C
 10
1326.08
 20
1555.43
 30
0.000000
  70
    32
  0
VERTEX
  8
VISIBLE
  5
2B2D
 10
1326.01
 20
1555.42
 30
0.000000
  70
    32
  0
VERTEX
  8
VISIBLE
  5
2B2E
 10
1325.94
 20
1555.42
 30
0.000000
  70
    32
  0
VERTEX
  8
VISIBLE
  5
2B2F
 10
1325.87
 20
1555.41
 30
0.000000
  70
    32
  0
VERTEX
  8
VISIBLE
  5
2B30
 10
1325.80
 20
1555.41
 30
0.000000
  70
    32
  0
VERTEX
  8
VISIBLE
  5
2B31
 10
1325.73
 20
1555.41
 30
0.000000
  70
    32
  0
VERTEX
  8
VISIBLE
  5
2B32
 10
1325.66
 20
1555.40
 30
0.000000
  70
    32
  0
VERTEX
  8
VISIBLE
  5
2B33
 10
1325.58
 20
1555.40
 30
0.000000
  70
    32
  0
VERTEX
  8
VISIBLE
  5
2B34
 10
1325.51
 20
1555.39
 30
0.000000
  70
    32
  0
VERTEX
  8
VISIBLE
  5
2B35
 10
1325.44
 20
1555.39
 30
0.000000
  70
    32
  0
VERTEX
  8
VISIBLE
  5
2B36
 10
1325.37
 20
1555.38
 30
0.000000
  70
    32
  0
VERTEX
  8
VISIBLE
  5
2B37
 10
1325.30
 20
1555.38
 30
0.000000
  70
    32
  0
VERTEX
  8
VISIBLE
  5
2B38
 10
1325.23
 20
1555.37
 30
0.000000
  70
    32
  0
VERTEX
  8
VISIBLE
  5
2B39
 10
1325.16
 20
1555.37
 30
0.000000
  70
    32
  0
VERTEX
  8
VISIBLE
  5
2B3A
 10
1325.09
 20
1555.36
 30
0.000000
  70
    32
  0
VERTEX
  8
VISIBLE
  5
2B3B
 10
1325.02
 20
1555.36
 30
0.000000
  70
    32
  0
VERTEX
  8
VISIBLE
  5
2B3C
 10
1324.95
 20
1555.36
 30
0.000000
  70
    32
  0
VERTEX
  8
VISIBLE
  5
2B3D
 10
1324.88
 20
1555.35
 30
0.000000
  70
    32
  0
VERTEX
  8
VISIBLE
  5
2B3E
 10
1324.80
 20
1555.35
 30
0.000000
  70
    32
  0
VERTEX
  8
VISIBLE
  5
2B3F
 10
1324.73
 20
1555.34
 30
0.000000
  70
    32
  0
VERTEX
  8
VISIBLE
  5
2B40
 10
1324.66
 20
1555.34
 30
0.000000
  70
    32
  0
VERTEX
  8
VISIBLE
  5
2B41
 10
1324.59
 20
1555.33
 30
0.000000
  70
    32
  0
VERTEX
  8
VISIBLE
  5
2B42
 10
1324.52
 20
1555.33
 30
0.000000
  70
    32
  0
VERTEX
  8
VISIBLE
  5
2B43
 10
1324.45
 20
1555.32
 30
0.000000
  70
    32
  0
VERTEX
  8
VISIBLE
  5
2B44
 10
1324.38
 20
1555.32
 30
0.000000
  70
    32
  0
VERTEX
  8
VISIBLE
  5
2B45
 10
1324.31
 20
1555.31
 30
0.000000
  70
    32
  0
VERTEX
  8
VISIBLE
  5
2B46
 10
1324.24
 20
1555.31
 30
0.000000
  70
    32
  0
VERTEX
  8
VISIBLE
  5
2B47
 10
1324.17
 20
1555.31
 30
0.000000
  70
    32
  0
VERTEX
  8
VISIBLE
  5
2B48
 10
1324.10
 20
1555.30
 30
0.000000
  70
    32
  0
VERTEX
  8
VISIBLE
  5
2B49
 10
1324.03
 20
1555.30
 30
0.000000
  70
    32
  0
VERTEX
  8
VISIBLE
  5
2B4A
 10
1323.95
 20
1555.29
 30
0.000000
  70
    32
  0
VERTEX
  8
VISIBLE
  5
2B4B
 10
1323.88
 20
1555.29
 30
0.000000
  70
    32
  0
VERTEX
  8
VISIBLE
  5
2B4C
 10
1323.81
 20
1555.28
 30
0.000000
  70
    32
  0
VERTEX
  8
VISIBLE
  5
2B4D
 10
1323.74
 20
1555.28
 30
0.000000
  70
    32
  0
VERTEX
  8
VISIBLE
  5
2B4E
 10
1323.67
 20
1555.27
 30
0.000000
  70
    32
  0
VERTEX
  8
VISIBLE
  5
2B4F
 10
1323.60
 20
1555.27
 30
0.000000
  70
    32
  0
VERTEX
  8
VISIBLE
  5
2B50
 10
1323.53
 20
1555.26
 30
0.000000
  70
    32
  0
VERTEX
  8
VISIBLE
  5
2B51
 10
1323.46
 20
1555.26
 30
0.000000
  70
    32
  0
VERTEX
  8
VISIBLE
  5
2B52
 10
1323.39
 20
1555.25
 30
0.000000
  70
    32
  0
VERTEX
  8
VISIBLE
  5
2B53
 10
1323.32
 20
1555.25
 30
0.000000
  70
    32
  0
VERTEX
  8
VISIBLE
  5
2B54
 10
1323.25
 20
1555.25
 30
0.000000
  70
    32
  0
VERTEX
  8
VISIBLE
  5
2B55
 10
1323.18
 20
1555.24
 30
0.000000
  70
    32
  0
VERTEX
  8
VISIBLE
  5
2B56
 10
1323.10
 20
1555.24
 30
0.000000
  70
    32
  0
VERTEX
  8
VISIBLE
  5
2B57
 10
1323.03
 20
1555.23
 30
0.000000
  70
    32
  0
VERTEX
  8
VISIBLE
  5
2B58
 10
1322.96
 20
1555.23
 30
0.000000
  70
    32
  0
VERTEX
  8
VISIBLE
  5
2B59
 10
1322.89
 20
1555.22
 30
0.000000
  70
    32
  0
VERTEX
  8
VISIBLE
  5
2B5A
 10
1322.82
 20
1555.22
 30
0.000000
  70
    32
  0
VERTEX
  8
VISIBLE
  5
2B5B
 10
1322.75
 20
1555.21
 30
0.000000
  70
    32
  0
VERTEX
  8
VISIBLE
  5
2B5C
 10
1322.68
 20
1555.21
 30
0.000000
  70
    32
  0
VERTEX
  8
VISIBLE
  5
2B5D
 10
1322.61
 20
1555.20
 30
0.000000
  70
    32
  0
VERTEX
  8
VISIBLE
  5
2B5E
 10
1322.54
 20
1555.20
 30
0.000000
  70
    32
  0
VERTEX
  8
VISIBLE
  5
2B5F
 10
1322.47
 20
1555.20
 30
0.000000
  70
    32
  0
VERTEX
  8
VISIBLE
  5
2B60
 10
1322.40
 20
1555.19
 30
0.000000
  70
    32
  0
VERTEX
  8
VISIBLE
  5
2B61
 10
1322.32
 20
1555.19
 30
0.000000
  70
    32
  0
VERTEX
  8
VISIBLE
  5
2B62
 10
1322.25
 20
1555.18
 30
0.000000
  70
    32
  0
VERTEX
  8
VISIBLE
  5
2B63
 10
1322.18
 20
1555.18
 30
0.000000
  70
    32
  0
VERTEX
  8
VISIBLE
  5
2B64
 10
1322.11
 20
1555.17
 30
0.000000
  70
    32
  0
VERTEX
  8
VISIBLE
  5
2B65
 10
1322.04
 20
1555.17
 30
0.000000
  70
    32
  0
VERTEX
  8
VISIBLE
  5
2B66
 10
1321.97
 20
1555.16
 30
0.000000
  70
    32
  0
VERTEX
  8
VISIBLE
  5
2B67
 10
1321.90
 20
1555.16
 30
0.000000
  70
    32
  0
VERTEX
  8
VISIBLE
  5
2B68
 10
1321.83
 20
1555.15
 30
0.000000
  70
    32
  0
VERTEX
  8
VISIBLE
  5
2B69
 10
1321.76
 20
1555.15
 30
0.000000
  70
    32
  0
VERTEX
  8
VISIBLE
  5
2B6A
 10
1321.69
 20
1555.15
 30
0.000000
  70
    32
  0
VERTEX
  8
VISIBLE
  5
2B6B
 10
1321.62
 20
1555.14
 30
0.000000
  70
    32
  0
VERTEX
  8
VISIBLE
  5
2B6C
 10
1321.55
 20
1555.14
 30
0.000000
  70
    32
  0
VERTEX
  8
VISIBLE
  5
2B6D
 10
1321.47
 20
1555.13
 30
0.000000
  70
    32
  0
VERTEX
  8
VISIBLE
  5
2B6E
 10
1321.40
 20
1555.13
 30
0.000000
  70
    32
  0
VERTEX
  8
VISIBLE
  5
2B6F
 10
1321.33
 20
1555.12
 30
0.000000
  70
    32
  0
VERTEX
  8
VISIBLE
  5
2B70
 10
1321.26
 20
1555.12
 30
0.000000
  70
    32
  0
VERTEX
  8
VISIBLE
  5
2B71
 10
1321.19
 20
1555.11
 30
0.000000
  70
    32
  0
VERTEX
  8
VISIBLE
  5
2B72
 10
1321.12
 20
1555.11
 30
0.000000
  70
    32
  0
VERTEX
  8
VISIBLE
  5
2B73
 10
1321.05
 20
1555.10
 30
0.000000
  70
    32
  0
VERTEX
  8
VISIBLE
  5
2B74
 10
1320.98
 20
1555.10
 30
0.000000
  70
    32
  0
VERTEX
  8
VISIBLE
  5
2B75
 10
1320.91
 20
1555.10
 30
0.000000
  70
    32
  0
VERTEX
  8
VISIBLE
  5
2B76
 10
1320.84
 20
1555.09
 30
0.000000
  70
    32
  0
VERTEX
  8
VISIBLE
  5
2B77
 10
1320.77
 20
1555.09
 30
0.000000
  70
    32
  0
VERTEX
  8
VISIBLE
  5
2B78
 10
1320.70
 20
1555.08
 30
0.000000
  70
    32
  0
VERTEX
  8
VISIBLE
  5
2B79
 10
1320.62
 20
1555.08
 30
0.000000
  70
    32
  0
VERTEX
  8
VISIBLE
  5
2B7A
 10
1320.55
 20
1555.07
 30
0.000000
  70
    32
  0
VERTEX
  8
VISIBLE
  5
2B7B
 10
1320.48
 20
1555.07
 30
0.000000
  70
    32
  0
VERTEX
  8
VISIBLE
  5
2B7C
 10
1320.41
 20
1555.06
 30
0.000000
  70
    32
  0
VERTEX
  8
VISIBLE
  5
2B7D
 10
1320.34
 20
1555.06
 30
0.000000
  70
    32
  0
VERTEX
  8
VISIBLE
  5
2B7E
 10
1320.27
 20
1555.05
 30
0.000000
  70
    32
  0
VERTEX
  8
VISIBLE
  5
2B7F
 10
1320.20
 20
1555.05
 30
0.000000
  70
    32
  0
VERTEX
  8
VISIBLE
  5
2B80
 10
1320.13
 20
1555.05
 30
0.000000
  70
    32
  0
VERTEX
  8
VISIBLE
  5
2B81
 10
1320.06
 20
1555.04
 30
0.000000
  70
    32
  0
VERTEX
  8
VISIBLE
  5
2B82
 10
1319.99
 20
1555.04
 30
0.000000
  70
    32
  0
VERTEX
  8
VISIBLE
  5
2B83
 10
1319.92
 20
1555.03
 30
0.000000
  70
    32
  0
VERTEX
  8
VISIBLE
  5
2B84
 10
1319.85
 20
1555.03
 30
0.000000
  70
    32
  0
VERTEX
  8
VISIBLE
  5
2B85
 10
1319.77
 20
1555.02
 30
0.000000
  70
    32
  0
VERTEX
  8
VISIBLE
  5
2B86
 10
1319.70
 20
1555.02
 30
0.000000
  70
    32
  0
VERTEX
  8
VISIBLE
  5
2B87
 10
1319.63
 20
1555.01
 30
0.000000
  70
    32
  0
VERTEX
  8
VISIBLE
  5
2B88
 10
1319.56
 20
1555.01
 30
0.000000
  70
    32
  0
VERTEX
  8
VISIBLE
  5
2B89
 10
1319.49
 20
1555.00
 30
0.000000
  70
    32
  0
VERTEX
  8
VISIBLE
  5
2B8A
 10
1319.42
 20
1555.00
 30
0.000000
  70
    32
  0
VERTEX
  8
VISIBLE
  5
2B8B
 10
1319.35
 20
1555.00
 30
0.000000
  70
    32
  0
VERTEX
  8
VISIBLE
  5
2B8C
 10
1319.28
 20
1554.99
 30
0.000000
  70
    32
  0
VERTEX
  8
VISIBLE
  5
2B8D
 10
1319.21
 20
1554.99
 30
0.000000
  70
    32
  0
VERTEX
  8
VISIBLE
  5
2B8E
 10
1319.14
 20
1554.98
 30
0.000000
  70
    32
  0
VERTEX
  8
VISIBLE
  5
2B8F
 10
1319.07
 20
1554.98
 30
0.000000
  70
    32
  0
VERTEX
  8
VISIBLE
  5
2B90
 10
1318.99
 20
1554.97
 30
0.000000
  70
    32
  0
VERTEX
  8
VISIBLE
  5
2B91
 10
1318.92
 20
1554.97
 30
0.000000
  70
    32
  0
VERTEX
  8
VISIBLE
  5
2B92
 10
1318.85
 20
1554.96
 30
0.000000
  70
    32
  0
VERTEX
  8
VISIBLE
  5
2B93
 10
1318.78
 20
1554.96
 30
0.000000
  70
    32
  0
VERTEX
  8
VISIBLE
  5
2B94
 10
1318.71
 20
1554.95
 30
0.000000
  70
    32
  0
VERTEX
  8
VISIBLE
  5
2B95
 10
1318.64
 20
1554.95
 30
0.000000
  70
    32
  0
VERTEX
  8
VISIBLE
  5
2B96
 10
1318.57
 20
1554.95
 30
0.000000
  70
    32
  0
VERTEX
  8
VISIBLE
  5
2B97
 10
1318.50
 20
1554.94
 30
0.000000
  70
    32
  0
VERTEX
  8
VISIBLE
  5
2B98
 10
1318.43
 20
1554.94
 30
0.000000
  70
    32
  0
VERTEX
  8
VISIBLE
  5
2B99
 10
1318.36
 20
1554.93
 30
0.000000
  70
    32
  0
VERTEX
  8
VISIBLE
  5
2B9A
 10
1318.29
 20
1554.93
 30
0.000000
  70
    32
  0
VERTEX
  8
VISIBLE
  5
2B9B
 10
1318.22
 20
1554.92
 30
0.000000
  70
    32
  0
VERTEX
  8
VISIBLE
  5
2B9C
 10
1318.14
 20
1554.92
 30
0.000000
  70
    32
  0
VERTEX
  8
VISIBLE
  5
2B9D
 10
1318.07
 20
1554.91
 30
0.000000
  70
    32
  0
VERTEX
  8
VISIBLE
  5
2B9E
 10
1318.00
 20
1554.91
 30
0.000000
  70
    32
  0
VERTEX
  8
VISIBLE
  5
2B9F
 10
1317.93
 20
1554.90
 30
0.000000
  70
    32
  0
VERTEX
  8
VISIBLE
  5
2BA0
 10
1317.86
 20
1554.90
 30
0.000000
  70
    32
  0
VERTEX
  8
VISIBLE
  5
2BA1
 10
1317.79
 20
1554.90
 30
0.000000
  70
    32
  0
VERTEX
  8
VISIBLE
  5
2BA2
 10
1317.72
 20
1554.89
 30
0.000000
  70
    32
  0
VERTEX
  8
VISIBLE
  5
2BA3
 10
1317.65
 20
1554.89
 30
0.000000
  70
    32
  0
VERTEX
  8
VISIBLE
  5
2BA4
 10
1317.58
 20
1554.88
 30
0.000000
  70
    32
  0
VERTEX
  8
VISIBLE
  5
2BA5
 10
1317.51
 20
1554.88
 30
0.000000
  70
    32
  0
VERTEX
  8
VISIBLE
  5
2BA6
 10
1317.44
 20
1554.87
 30
0.000000
  70
    32
  0
VERTEX
  8
VISIBLE
  5
2BA7
 10
1317.37
 20
1554.87
 30
0.000000
  70
    32
  0
VERTEX
  8
VISIBLE
  5
2BA8
 10
1317.29
 20
1554.86
 30
0.000000
  70
    32
  0
VERTEX
  8
VISIBLE
  5
2BA9
 10
1317.22
 20
1554.86
 30
0.000000
  70
    32
  0
VERTEX
  8
VISIBLE
  5
2BAA
 10
1317.15
 20
1554.85
 30
0.000000
  70
    32
  0
VERTEX
  8
VISIBLE
  5
2BAB
 10
1317.08
 20
1554.85
 30
0.000000
  70
    32
  0
VERTEX
  8
VISIBLE
  5
2BAC
 10
1317.01
 20
1554.84
 30
0.000000
  70
    32
  0
VERTEX
  8
VISIBLE
  5
2BAD
 10
1316.94
 20
1554.84
 30
0.000000
  70
    32
  0
VERTEX
  8
VISIBLE
  5
2BAE
 10
1316.87
 20
1554.84
 30
0.000000
  70
    32
  0
VERTEX
  8
VISIBLE
  5
2BAF
 10
1316.80
 20
1554.83
 30
0.000000
  70
    32
  0
VERTEX
  8
VISIBLE
  5
2BB0
 10
1316.73
 20
1554.83
 30
0.000000
  70
    32
  0
VERTEX
  8
VISIBLE
  5
2BB1
 10
1316.66
 20
1554.82
 30
0.000000
  70
    32
  0
VERTEX
  8
VISIBLE
  5
2BB2
 10
1316.59
 20
1554.82
 30
0.000000
  70
    32
  0
VERTEX
  8
VISIBLE
  5
2BB3
 10
1316.52
 20
1554.81
 30
0.000000
  70
    32
  0
VERTEX
  8
VISIBLE
  5
2BB4
 10
1316.44
 20
1554.81
 30
0.000000
  70
    32
  0
VERTEX
  8
VISIBLE
  5
2BB5
 10
1316.37
 20
1554.80
 30
0.000000
  70
    32
  0
VERTEX
  8
VISIBLE
  5
2BB6
 10
1316.30
 20
1554.80
 30
0.000000
  70
    32
  0
VERTEX
  8
VISIBLE
  5
2BB7
 10
1316.23
 20
1554.79
 30
0.000000
  70
    32
  0
VERTEX
  8
VISIBLE
  5
2BB8
 10
1316.16
 20
1554.79
 30
0.000000
  70
    32
  0
VERTEX
  8
VISIBLE
  5
2BB9
 10
1316.09
 20
1554.79
 30
0.000000
  70
    32
  0
VERTEX
  8
VISIBLE
  5
2BBA
 10
1316.02
 20
1554.78
 30
0.000000
  70
    32
  0
VERTEX
  8
VISIBLE
  5
2BBB
 10
1315.95
 20
1554.78
 30
0.000000
  70
    32
  0
VERTEX
  8
VISIBLE
  5
2BBC
 10
1315.88
 20
1554.77
 30
0.000000
  70
    32
  0
VERTEX
  8
VISIBLE
  5
2BBD
 10
1315.81
 20
1554.77
 30
0.000000
  70
    32
  0
VERTEX
  8
VISIBLE
  5
2BBE
 10
1315.74
 20
1554.76
 30
0.000000
  70
    32
  0
VERTEX
  8
VISIBLE
  5
2BBF
 10
1315.66
 20
1554.76
 30
0.000000
  70
    32
  0
VERTEX
  8
VISIBLE
  5
2BC0
 10
1315.59
 20
1554.75
 30
0.000000
  70
    32
  0
VERTEX
  8
VISIBLE
  5
2BC1
 10
1315.52
 20
1554.75
 30
0.000000
  70
    32
  0
VERTEX
  8
VISIBLE
  5
2BC2
 10
1315.45
 20
1554.74
 30
0.000000
  70
    32
  0
VERTEX
  8
VISIBLE
  5
2BC3
 10
1315.38
 20
1554.74
 30
0.000000
  70
    32
  0
VERTEX
  8
VISIBLE
  5
2BC4
 10
1315.31
 20
1554.74
 30
0.000000
  70
    32
  0
VERTEX
  8
VISIBLE
  5
2BC5
 10
1315.24
 20
1554.73
 30
0.000000
  70
    32
  0
VERTEX
  8
VISIBLE
  5
2BC6
 10
1315.17
 20
1554.73
 30
0.000000
  70
    32
  0
VERTEX
  8
VISIBLE
  5
2BC7
 10
1315.10
 20
1554.72
 30
0.000000
  70
    32
  0
VERTEX
  8
VISIBLE
  5
2BC8
 10
1315.03
 20
1554.72
 30
0.000000
  70
    32
  0
VERTEX
  8
VISIBLE
  5
2BC9
 10
1314.96
 20
1554.71
 30
0.000000
  70
    32
  0
VERTEX
  8
VISIBLE
  5
2BCA
 10
1314.89
 20
1554.71
 30
0.000000
  70
    32
  0
VERTEX
  8
VISIBLE
  5
2BCB
 10
1314.81
 20
1554.70
 30
0.000000
  70
    32
  0
VERTEX
  8
VISIBLE
  5
2BCC
 10
1314.74
 20
1554.70
 30
0.000000
  70
    32
  0
VERTEX
  8
VISIBLE
  5
2BCD
 10
1314.67
 20
1554.69
 30
0.000000
  70
    32
  0
VERTEX
  8
VISIBLE
  5
2BCE
 10
1314.60
 20
1554.69
 30
0.000000
  70
    32
  0
VERTEX
  8
VISIBLE
  5
2BCF
 10
1314.53
 20
1554.69
 30
0.000000
  70
    32
  0
VERTEX
  8
VISIBLE
  5
2BD0
 10
1314.46
 20
1554.68
 30
0.000000
  70
    32
  0
VERTEX
  8
VISIBLE
  5
2BD1
 10
1314.39
 20
1554.68
 30
0.000000
  70
    32
  0
VERTEX
  8
VISIBLE
  5
2BD2
 10
1314.32
 20
1554.67
 30
0.000000
  70
    32
  0
VERTEX
  8
VISIBLE
  5
2BD3
 10
1314.25
 20
1554.67
 30
0.000000
  70
    32
  0
VERTEX
  8
VISIBLE
  5
2BD4
 10
1314.18
 20
1554.66
 30
0.000000
  70
    32
  0
VERTEX
  8
VISIBLE
  5
2BD5
 10
1314.11
 20
1554.66
 30
0.000000
  70
    32
  0
VERTEX
  8
VISIBLE
  5
2BD6
 10
1314.04
 20
1554.65
 30
0.000000
  70
    32
  0
VERTEX
  8
VISIBLE
  5
2BD7
 10
1313.96
 20
1554.65
 30
0.000000
  70
    32
  0
VERTEX
  8
VISIBLE
  5
2BD8
 10
1313.89
 20
1554.64
 30
0.000000
  70
    32
  0
VERTEX
  8
VISIBLE
  5
2BD9
 10
1313.82
 20
1554.64
 30
0.000000
  70
    32
  0
VERTEX
  8
VISIBLE
  5
2BDA
 10
1313.75
 20
1554.64
 30
0.000000
  70
    32
  0
VERTEX
  8
VISIBLE
  5
2BDB
 10
1313.68
 20
1554.63
 30
0.000000
  70
    32
  0
VERTEX
  8
VISIBLE
  5
2BDC
 10
1313.61
 20
1554.63
 30
0.000000
  70
    32
  0
VERTEX
  8
VISIBLE
  5
2BDD
 10
1313.54
 20
1554.62
 30
0.000000
  70
    32
  0
VERTEX
  8
VISIBLE
  5
2BDE
 10
1313.47
 20
1554.62
 30
0.000000
  70
    32
  0
VERTEX
  8
VISIBLE
  5
2BDF
 10
1313.40
 20
1554.61
 30
0.000000
  70
    32
  0
VERTEX
  8
VISIBLE
  5
2BE0
 10
1313.33
 20
1554.61
 30
0.000000
  70
    32
  0
VERTEX
  8
VISIBLE
  5
2BE1
 10
1313.26
 20
1554.60
 30
0.000000
  70
    32
  0
VERTEX
  8
VISIBLE
  5
2BE2
 10
1313.19
 20
1554.60
 30
0.000000
  70
    32
  0
VERTEX
  8
VISIBLE
  5
2BE3
 10
1313.11
 20
1554.59
 30
0.000000
  70
    32
  0
VERTEX
  8
VISIBLE
  5
2BE4
 10
1313.04
 20
1554.59
 30
0.000000
  70
    32
  0
VERTEX
  8
VISIBLE
  5
2BE5
 10
1312.97
 20
1554.59
 30
0.000000
  70
    32
  0
VERTEX
  8
VISIBLE
  5
2BE6
 10
1312.90
 20
1554.58
 30
0.000000
  70
    32
  0
VERTEX
  8
VISIBLE
  5
2BE7
 10
1312.83
 20
1554.58
 30
0.000000
  70
    32
  0
VERTEX
  8
VISIBLE
  5
2BE8
 10
1312.76
 20
1554.57
 30
0.000000
  70
    32
  0
VERTEX
  8
VISIBLE
  5
2BE9
 10
1312.69
 20
1554.57
 30
0.000000
  70
    32
  0
VERTEX
  8
VISIBLE
  5
2BEA
 10
1312.62
 20
1554.56
 30
0.000000
  70
    32
  0
VERTEX
  8
VISIBLE
  5
2BEB
 10
1312.55
 20
1554.56
 30
0.000000
  70
    32
  0
VERTEX
  8
VISIBLE
  5
2BEC
 10
1312.48
 20
1554.55
 30
0.000000
  70
    32
  0
VERTEX
  8
VISIBLE
  5
2BED
 10
1312.41
 20
1554.55
 30
0.000000
  70
    32
  0
VERTEX
  8
VISIBLE
  5
2BEE
 10
1312.33
 20
1554.54
 30
0.000000
  70
    32
  0
VERTEX
  8
VISIBLE
  5
2BEF
 10
1312.26
 20
1554.54
 30
0.000000
  70
    32
  0
VERTEX
  8
VISIBLE
  5
2BF0
 10
1312.19
 20
1554.53
 30
0.000000
  70
    32
  0
VERTEX
  8
VISIBLE
  5
2BF1
 10
1312.12
 20
1554.53
 30
0.000000
  70
    32
  0
VERTEX
  8
VISIBLE
  5
2BF2
 10
1312.05
 20
1554.53
 30
0.000000
  70
    32
  0
VERTEX
  8
VISIBLE
  5
2BF3
 10
1311.98
 20
1554.52
 30
0.000000
  70
    32
  0
VERTEX
  8
VISIBLE
  5
2BF4
 10
1311.91
 20
1554.52
 30
0.000000
  70
    32
  0
VERTEX
  8
VISIBLE
  5
2BF5
 10
1311.84
 20
1554.51
 30
0.000000
  70
    32
  0
VERTEX
  8
VISIBLE
  5
2BF6
 10
1311.77
 20
1554.51
 30
0.000000
  70
    32
  0
VERTEX
  8
VISIBLE
  5
2BF7
 10
1311.70
 20
1554.50
 30
0.000000
  70
    32
  0
VERTEX
  8
VISIBLE
  5
2BF8
 10
1311.63
 20
1554.50
 30
0.000000
  70
    32
  0
VERTEX
  8
VISIBLE
  5
2BF9
 10
1311.56
 20
1554.49
 30
0.000000
  70
    32
  0
VERTEX
  8
VISIBLE
  5
2BFA
 10
1311.48
 20
1554.49
 30
0.000000
  70
    32
  0
VERTEX
  8
VISIBLE
  5
2BFB
 10
1311.41
 20
1554.48
 30
0.000000
  70
    32
  0
VERTEX
  8
VISIBLE
  5
2BFC
 10
1311.34
 20
1554.48
 30
0.000000
  70
    32
  0
VERTEX
  8
VISIBLE
  5
2BFD
 10
1311.27
 20
1554.48
 30
0.000000
  70
    32
  0
VERTEX
  8
VISIBLE
  5
2BFE
 10
1311.20
 20
1554.47
 30
0.000000
  70
    32
  0
VERTEX
  8
VISIBLE
  5
2BFF
 10
1311.13
 20
1554.47
 30
0.000000
  70
    32
  0
VERTEX
  8
VISIBLE
  5
2C00
 10
1311.06
 20
1554.46
 30
0.000000
  70
    32
  0
VERTEX
  8
VISIBLE
  5
2C01
 10
1310.99
 20
1554.46
 30
0.000000
  70
    32
  0
VERTEX
  8
VISIBLE
  5
2C02
 10
1310.92
 20
1554.45
 30
0.000000
  70
    32
  0
VERTEX
  8
VISIBLE
  5
2C03
 10
1310.85
 20
1554.45
 30
0.000000
  70
    32
  0
VERTEX
  8
VISIBLE
  5
2C04
 10
1310.78
 20
1554.44
 30
0.000000
  70
    32
  0
VERTEX
  8
VISIBLE
  5
2C05
 10
1310.71
 20
1554.44
 30
0.000000
  70
    32
  0
VERTEX
  8
VISIBLE
  5
2C06
 10
1310.63
 20
1554.43
 30
0.000000
  70
    32
  0
VERTEX
  8
VISIBLE
  5
2C07
 10
1310.56
 20
1554.43
 30
0.000000
  70
    32
  0
VERTEX
  8
VISIBLE
  5
2C08
 10
1310.49
 20
1554.43
 30
0.000000
  70
    32
  0
VERTEX
  8
VISIBLE
  5
2C09
 10
1310.42
 20
1554.42
 30
0.000000
  70
    32
  0
SEQEND
  8
VISIBLE
  5
2C0A
  0
LINE
  5
D88
  8
VISIBLE
 10
1310.4219188572019448
 20
1520.3509940714020559
 30
0.0
 11
1310.4219188572019448
 21
1554.4208777854751133
 31
0.0
  0
POLYLINE
  8
VISIBLE
  5
2C0B
  66
     1
 10
0.000000
 20
0.000000
 30
0.000000
  70
     8
  0
VERTEX
  8
VISIBLE
  5
2C0C
 10
1326.22
 20
1519.33
 30
0.000000
  70
    32
  0
VERTEX
  8
VISIBLE
  5
2C0D
 10
1326.15
 20
1519.34
 30
0.000000
  70
    32
  0
VERTEX
  8
VISIBLE
  5
2C0E
 10
1326.08
 20
1519.34
 30
0.000000
  70
    32
  0
VERTEX
  8
VISIBLE
  5
2C0F
 10
1326.01
 20
1519.35
 30
0.000000
  70
    32
  0
VERTEX
  8
VISIBLE
  5
2C10
 10
1325.94
 20
1519.35
 30
0.000000
  70
    32
  0
VERTEX
  8
VISIBLE
  5
2C11
 10
1325.87
 20
1519.36
 30
0.000000
  70
    32
  0
VERTEX
  8
VISIBLE
  5
2C12
 10
1325.80
 20
1519.36
 30
0.000000
  70
    32
  0
VERTEX
  8
VISIBLE
  5
2C13
 10
1325.73
 20
1519.37
 30
0.000000
  70
    32
  0
VERTEX
  8
VISIBLE
  5
2C14
 10
1325.66
 20
1519.37
 30
0.000000
  70
    32
  0
VERTEX
  8
VISIBLE
  5
2C15
 10
1325.58
 20
1519.38
 30
0.000000
  70
    32
  0
VERTEX
  8
VISIBLE
  5
2C16
 10
1325.51
 20
1519.38
 30
0.000000
  70
    32
  0
VERTEX
  8
VISIBLE
  5
2C17
 10
1325.44
 20
1519.38
 30
0.000000
  70
    32
  0
VERTEX
  8
VISIBLE
  5
2C18
 10
1325.37
 20
1519.39
 30
0.000000
  70
    32
  0
VERTEX
  8
VISIBLE
  5
2C19
 10
1325.30
 20
1519.39
 30
0.000000
  70
    32
  0
VERTEX
  8
VISIBLE
  5
2C1A
 10
1325.23
 20
1519.40
 30
0.000000
  70
    32
  0
VERTEX
  8
VISIBLE
  5
2C1B
 10
1325.16
 20
1519.40
 30
0.000000
  70
    32
  0
VERTEX
  8
VISIBLE
  5
2C1C
 10
1325.09
 20
1519.41
 30
0.000000
  70
    32
  0
VERTEX
  8
VISIBLE
  5
2C1D
 10
1325.02
 20
1519.41
 30
0.000000
  70
    32
  0
VERTEX
  8
VISIBLE
  5
2C1E
 10
1324.95
 20
1519.42
 30
0.000000
  70
    32
  0
VERTEX
  8
VISIBLE
  5
2C1F
 10
1324.88
 20
1519.42
 30
0.000000
  70
    32
  0
VERTEX
  8
VISIBLE
  5
2C20
 10
1324.80
 20
1519.43
 30
0.000000
  70
    32
  0
VERTEX
  8
VISIBLE
  5
2C21
 10
1324.73
 20
1519.43
 30
0.000000
  70
    32
  0
VERTEX
  8
VISIBLE
  5
2C22
 10
1324.66
 20
1519.43
 30
0.000000
  70
    32
  0
VERTEX
  8
VISIBLE
  5
2C23
 10
1324.59
 20
1519.44
 30
0.000000
  70
    32
  0
VERTEX
  8
VISIBLE
  5
2C24
 10
1324.52
 20
1519.44
 30
0.000000
  70
    32
  0
VERTEX
  8
VISIBLE
  5
2C25
 10
1324.45
 20
1519.45
 30
0.000000
  70
    32
  0
VERTEX
  8
VISIBLE
  5
2C26
 10
1324.38
 20
1519.45
 30
0.000000
  70
    32
  0
VERTEX
  8
VISIBLE
  5
2C27
 10
1324.31
 20
1519.46
 30
0.000000
  70
    32
  0
VERTEX
  8
VISIBLE
  5
2C28
 10
1324.24
 20
1519.46
 30
0.000000
  70
    32
  0
VERTEX
  8
VISIBLE
  5
2C29
 10
1324.17
 20
1519.47
 30
0.000000
  70
    32
  0
VERTEX
  8
VISIBLE
  5
2C2A
 10
1324.10
 20
1519.47
 30
0.000000
  70
    32
  0
VERTEX
  8
VISIBLE
  5
2C2B
 10
1324.03
 20
1519.48
 30
0.000000
  70
    32
  0
VERTEX
  8
VISIBLE
  5
2C2C
 10
1323.95
 20
1519.48
 30
0.000000
  70
    32
  0
VERTEX
  8
VISIBLE
  5
2C2D
 10
1323.88
 20
1519.49
 30
0.000000
  70
    32
  0
VERTEX
  8
VISIBLE
  5
2C2E
 10
1323.81
 20
1519.49
 30
0.000000
  70
    32
  0
VERTEX
  8
VISIBLE
  5
2C2F
 10
1323.74
 20
1519.49
 30
0.000000
  70
    32
  0
VERTEX
  8
VISIBLE
  5
2C30
 10
1323.67
 20
1519.50
 30
0.000000
  70
    32
  0
VERTEX
  8
VISIBLE
  5
2C31
 10
1323.60
 20
1519.50
 30
0.000000
  70
    32
  0
VERTEX
  8
VISIBLE
  5
2C32
 10
1323.53
 20
1519.51
 30
0.000000
  70
    32
  0
VERTEX
  8
VISIBLE
  5
2C33
 10
1323.46
 20
1519.51
 30
0.000000
  70
    32
  0
VERTEX
  8
VISIBLE
  5
2C34
 10
1323.39
 20
1519.52
 30
0.000000
  70
    32
  0
VERTEX
  8
VISIBLE
  5
2C35
 10
1323.32
 20
1519.52
 30
0.000000
  70
    32
  0
VERTEX
  8
VISIBLE
  5
2C36
 10
1323.25
 20
1519.53
 30
0.000000
  70
    32
  0
VERTEX
  8
VISIBLE
  5
2C37
 10
1323.18
 20
1519.53
 30
0.000000
  70
    32
  0
VERTEX
  8
VISIBLE
  5
2C38
 10
1323.10
 20
1519.54
 30
0.000000
  70
    32
  0
VERTEX
  8
VISIBLE
  5
2C39
 10
1323.03
 20
1519.54
 30
0.000000
  70
    32
  0
VERTEX
  8
VISIBLE
  5
2C3A
 10
1322.96
 20
1519.54
 30
0.000000
  70
    32
  0
VERTEX
  8
VISIBLE
  5
2C3B
 10
1322.89
 20
1519.55
 30
0.000000
  70
    32
  0
VERTEX
  8
VISIBLE
  5
2C3C
 10
1322.82
 20
1519.55
 30
0.000000
  70
    32
  0
VERTEX
  8
VISIBLE
  5
2C3D
 10
1322.75
 20
1519.56
 30
0.000000
  70
    32
  0
VERTEX
  8
VISIBLE
  5
2C3E
 10
1322.68
 20
1519.56
 30
0.000000
  70
    32
  0
VERTEX
  8
VISIBLE
  5
2C3F
 10
1322.61
 20
1519.57
 30
0.000000
  70
    32
  0
VERTEX
  8
VISIBLE
  5
2C40
 10
1322.54
 20
1519.57
 30
0.000000
  70
    32
  0
VERTEX
  8
VISIBLE
  5
2C41
 10
1322.47
 20
1519.58
 30
0.000000
  70
    32
  0
VERTEX
  8
VISIBLE
  5
2C42
 10
1322.40
 20
1519.58
 30
0.000000
  70
    32
  0
VERTEX
  8
VISIBLE
  5
2C43
 10
1322.32
 20
1519.59
 30
0.000000
  70
    32
  0
VERTEX
  8
VISIBLE
  5
2C44
 10
1322.25
 20
1519.59
 30
0.000000
  70
    32
  0
VERTEX
  8
VISIBLE
  5
2C45
 10
1322.18
 20
1519.59
 30
0.000000
  70
    32
  0
VERTEX
  8
VISIBLE
  5
2C46
 10
1322.11
 20
1519.60
 30
0.000000
  70
    32
  0
VERTEX
  8
VISIBLE
  5
2C47
 10
1322.04
 20
1519.60
 30
0.000000
  70
    32
  0
VERTEX
  8
VISIBLE
  5
2C48
 10
1321.97
 20
1519.61
 30
0.000000
  70
    32
  0
VERTEX
  8
VISIBLE
  5
2C49
 10
1321.90
 20
1519.61
 30
0.000000
  70
    32
  0
VERTEX
  8
VISIBLE
  5
2C4A
 10
1321.83
 20
1519.62
 30
0.000000
  70
    32
  0
VERTEX
  8
VISIBLE
  5
2C4B
 10
1321.76
 20
1519.62
 30
0.000000
  70
    32
  0
VERTEX
  8
VISIBLE
  5
2C4C
 10
1321.69
 20
1519.63
 30
0.000000
  70
    32
  0
VERTEX
  8
VISIBLE
  5
2C4D
 10
1321.62
 20
1519.63
 30
0.000000
  70
    32
  0
VERTEX
  8
VISIBLE
  5
2C4E
 10
1321.55
 20
1519.64
 30
0.000000
  70
    32
  0
VERTEX
  8
VISIBLE
  5
2C4F
 10
1321.47
 20
1519.64
 30
0.000000
  70
    32
  0
VERTEX
  8
VISIBLE
  5
2C50
 10
1321.40
 20
1519.64
 30
0.000000
  70
    32
  0
VERTEX
  8
VISIBLE
  5
2C51
 10
1321.33
 20
1519.65
 30
0.000000
  70
    32
  0
VERTEX
  8
VISIBLE
  5
2C52
 10
1321.26
 20
1519.65
 30
0.000000
  70
    32
  0
VERTEX
  8
VISIBLE
  5
2C53
 10
1321.19
 20
1519.66
 30
0.000000
  70
    32
  0
VERTEX
  8
VISIBLE
  5
2C54
 10
1321.12
 20
1519.66
 30
0.000000
  70
    32
  0
VERTEX
  8
VISIBLE
  5
2C55
 10
1321.05
 20
1519.67
 30
0.000000
  70
    32
  0
VERTEX
  8
VISIBLE
  5
2C56
 10
1320.98
 20
1519.67
 30
0.000000
  70
    32
  0
VERTEX
  8
VISIBLE
  5
2C57
 10
1320.91
 20
1519.68
 30
0.000000
  70
    32
  0
VERTEX
  8
VISIBLE
  5
2C58
 10
1320.84
 20
1519.68
 30
0.000000
  70
    32
  0
VERTEX
  8
VISIBLE
  5
2C59
 10
1320.77
 20
1519.69
 30
0.000000
  70
    32
  0
VERTEX
  8
VISIBLE
  5
2C5A
 10
1320.70
 20
1519.69
 30
0.000000
  70
    32
  0
VERTEX
  8
VISIBLE
  5
2C5B
 10
1320.62
 20
1519.69
 30
0.000000
  70
    32
  0
VERTEX
  8
VISIBLE
  5
2C5C
 10
1320.55
 20
1519.70
 30
0.000000
  70
    32
  0
VERTEX
  8
VISIBLE
  5
2C5D
 10
1320.48
 20
1519.70
 30
0.000000
  70
    32
  0
VERTEX
  8
VISIBLE
  5
2C5E
 10
1320.41
 20
1519.71
 30
0.000000
  70
    32
  0
VERTEX
  8
VISIBLE
  5
2C5F
 10
1320.34
 20
1519.71
 30
0.000000
  70
    32
  0
VERTEX
  8
VISIBLE
  5
2C60
 10
1320.27
 20
1519.72
 30
0.000000
  70
    32
  0
VERTEX
  8
VISIBLE
  5
2C61
 10
1320.20
 20
1519.72
 30
0.000000
  70
    32
  0
VERTEX
  8
VISIBLE
  5
2C62
 10
1320.13
 20
1519.73
 30
0.000000
  70
    32
  0
VERTEX
  8
VISIBLE
  5
2C63
 10
1320.06
 20
1519.73
 30
0.000000
  70
    32
  0
VERTEX
  8
VISIBLE
  5
2C64
 10
1319.99
 20
1519.74
 30
0.000000
  70
    32
  0
VERTEX
  8
VISIBLE
  5
2C65
 10
1319.92
 20
1519.74
 30
0.000000
  70
    32
  0
VERTEX
  8
VISIBLE
  5
2C66
 10
1319.85
 20
1519.74
 30
0.000000
  70
    32
  0
VERTEX
  8
VISIBLE
  5
2C67
 10
1319.77
 20
1519.75
 30
0.000000
  70
    32
  0
VERTEX
  8
VISIBLE
  5
2C68
 10
1319.70
 20
1519.75
 30
0.000000
  70
    32
  0
VERTEX
  8
VISIBLE
  5
2C69
 10
1319.63
 20
1519.76
 30
0.000000
  70
    32
  0
VERTEX
  8
VISIBLE
  5
2C6A
 10
1319.56
 20
1519.76
 30
0.000000
  70
    32
  0
VERTEX
  8
VISIBLE
  5
2C6B
 10
1319.49
 20
1519.77
 30
0.000000
  70
    32
  0
VERTEX
  8
VISIBLE
  5
2C6C
 10
1319.42
 20
1519.77
 30
0.000000
  70
    32
  0
VERTEX
  8
VISIBLE
  5
2C6D
 10
1319.35
 20
1519.78
 30
0.000000
  70
    32
  0
VERTEX
  8
VISIBLE
  5
2C6E
 10
1319.28
 20
1519.78
 30
0.000000
  70
    32
  0
VERTEX
  8
VISIBLE
  5
2C6F
 10
1319.21
 20
1519.79
 30
0.000000
  70
    32
  0
VERTEX
  8
VISIBLE
  5
2C70
 10
1319.14
 20
1519.79
 30
0.000000
  70
    32
  0
VERTEX
  8
VISIBLE
  5
2C71
 10
1319.07
 20
1519.79
 30
0.000000
  70
    32
  0
VERTEX
  8
VISIBLE
  5
2C72
 10
1318.99
 20
1519.80
 30
0.000000
  70
    32
  0
VERTEX
  8
VISIBLE
  5
2C73
 10
1318.92
 20
1519.80
 30
0.000000
  70
    32
  0
VERTEX
  8
VISIBLE
  5
2C74
 10
1318.85
 20
1519.81
 30
0.000000
  70
    32
  0
VERTEX
  8
VISIBLE
  5
2C75
 10
1318.78
 20
1519.81
 30
0.000000
  70
    32
  0
VERTEX
  8
VISIBLE
  5
2C76
 10
1318.71
 20
1519.82
 30
0.000000
  70
    32
  0
VERTEX
  8
VISIBLE
  5
2C77
 10
1318.64
 20
1519.82
 30
0.000000
  70
    32
  0
VERTEX
  8
VISIBLE
  5
2C78
 10
1318.57
 20
1519.83
 30
0.000000
  70
    32
  0
VERTEX
  8
VISIBLE
  5
2C79
 10
1318.50
 20
1519.83
 30
0.000000
  70
    32
  0
VERTEX
  8
VISIBLE
  5
2C7A
 10
1318.43
 20
1519.84
 30
0.000000
  70
    32
  0
VERTEX
  8
VISIBLE
  5
2C7B
 10
1318.36
 20
1519.84
 30
0.000000
  70
    32
  0
VERTEX
  8
VISIBLE
  5
2C7C
 10
1318.29
 20
1519.84
 30
0.000000
  70
    32
  0
VERTEX
  8
VISIBLE
  5
2C7D
 10
1318.22
 20
1519.85
 30
0.000000
  70
    32
  0
VERTEX
  8
VISIBLE
  5
2C7E
 10
1318.14
 20
1519.85
 30
0.000000
  70
    32
  0
VERTEX
  8
VISIBLE
  5
2C7F
 10
1318.07
 20
1519.86
 30
0.000000
  70
    32
  0
VERTEX
  8
VISIBLE
  5
2C80
 10
1318.00
 20
1519.86
 30
0.000000
  70
    32
  0
VERTEX
  8
VISIBLE
  5
2C81
 10
1317.93
 20
1519.87
 30
0.000000
  70
    32
  0
VERTEX
  8
VISIBLE
  5
2C82
 10
1317.86
 20
1519.87
 30
0.000000
  70
    32
  0
VERTEX
  8
VISIBLE
  5
2C83
 10
1317.79
 20
1519.88
 30
0.000000
  70
    32
  0
VERTEX
  8
VISIBLE
  5
2C84
 10
1317.72
 20
1519.88
 30
0.000000
  70
    32
  0
VERTEX
  8
VISIBLE
  5
2C85
 10
1317.65
 20
1519.89
 30
0.000000
  70
    32
  0
VERTEX
  8
VISIBLE
  5
2C86
 10
1317.58
 20
1519.89
 30
0.000000
  70
    32
  0
VERTEX
  8
VISIBLE
  5
2C87
 10
1317.51
 20
1519.90
 30
0.000000
  70
    32
  0
VERTEX
  8
VISIBLE
  5
2C88
 10
1317.44
 20
1519.90
 30
0.000000
  70
    32
  0
VERTEX
  8
VISIBLE
  5
2C89
 10
1317.37
 20
1519.90
 30
0.000000
  70
    32
  0
VERTEX
  8
VISIBLE
  5
2C8A
 10
1317.29
 20
1519.91
 30
0.000000
  70
    32
  0
VERTEX
  8
VISIBLE
  5
2C8B
 10
1317.22
 20
1519.91
 30
0.000000
  70
    32
  0
VERTEX
  8
VISIBLE
  5
2C8C
 10
1317.15
 20
1519.92
 30
0.000000
  70
    32
  0
VERTEX
  8
VISIBLE
  5
2C8D
 10
1317.08
 20
1519.92
 30
0.000000
  70
    32
  0
VERTEX
  8
VISIBLE
  5
2C8E
 10
1317.01
 20
1519.93
 30
0.000000
  70
    32
  0
VERTEX
  8
VISIBLE
  5
2C8F
 10
1316.94
 20
1519.93
 30
0.000000
  70
    32
  0
VERTEX
  8
VISIBLE
  5
2C90
 10
1316.87
 20
1519.94
 30
0.000000
  70
    32
  0
VERTEX
  8
VISIBLE
  5
2C91
 10
1316.80
 20
1519.94
 30
0.000000
  70
    32
  0
VERTEX
  8
VISIBLE
  5
2C92
 10
1316.73
 20
1519.95
 30
0.000000
  70
    32
  0
VERTEX
  8
VISIBLE
  5
2C93
 10
1316.66
 20
1519.95
 30
0.000000
  70
    32
  0
VERTEX
  8
VISIBLE
  5
2C94
 10
1316.59
 20
1519.95
 30
0.000000
  70
    32
  0
VERTEX
  8
VISIBLE
  5
2C95
 10
1316.52
 20
1519.96
 30
0.000000
  70
    32
  0
VERTEX
  8
VISIBLE
  5
2C96
 10
1316.44
 20
1519.96
 30
0.000000
  70
    32
  0
VERTEX
  8
VISIBLE
  5
2C97
 10
1316.37
 20
1519.97
 30
0.000000
  70
    32
  0
VERTEX
  8
VISIBLE
  5
2C98
 10
1316.30
 20
1519.97
 30
0.000000
  70
    32
  0
VERTEX
  8
VISIBLE
  5
2C99
 10
1316.23
 20
1519.98
 30
0.000000
  70
    32
  0
VERTEX
  8
VISIBLE
  5
2C9A
 10
1316.16
 20
1519.98
 30
0.000000
  70
    32
  0
VERTEX
  8
VISIBLE
  5
2C9B
 10
1316.09
 20
1519.99
 30
0.000000
  70
    32
  0
VERTEX
  8
VISIBLE
  5
2C9C
 10
1316.02
 20
1519.99
 30
0.000000
  70
    32
  0
VERTEX
  8
VISIBLE
  5
2C9D
 10
1315.95
 20
1520.00
 30
0.000000
  70
    32
  0
VERTEX
  8
VISIBLE
  5
2C9E
 10
1315.88
 20
1520.00
 30
0.000000
  70
    32
  0
VERTEX
  8
VISIBLE
  5
2C9F
 10
1315.81
 20
1520.00
 30
0.000000
  70
    32
  0
VERTEX
  8
VISIBLE
  5
2CA0
 10
1315.74
 20
1520.01
 30
0.000000
  70
    32
  0
VERTEX
  8
VISIBLE
  5
2CA1
 10
1315.66
 20
1520.01
 30
0.000000
  70
    32
  0
VERTEX
  8
VISIBLE
  5
2CA2
 10
1315.59
 20
1520.02
 30
0.000000
  70
    32
  0
VERTEX
  8
VISIBLE
  5
2CA3
 10
1315.52
 20
1520.02
 30
0.000000
  70
    32
  0
VERTEX
  8
VISIBLE
  5
2CA4
 10
1315.45
 20
1520.03
 30
0.000000
  70
    32
  0
VERTEX
  8
VISIBLE
  5
2CA5
 10
1315.38
 20
1520.03
 30
0.000000
  70
    32
  0
VERTEX
  8
VISIBLE
  5
2CA6
 10
1315.31
 20
1520.04
 30
0.000000
  70
    32
  0
VERTEX
  8
VISIBLE
  5
2CA7
 10
1315.24
 20
1520.04
 30
0.000000
  70
    32
  0
VERTEX
  8
VISIBLE
  5
2CA8
 10
1315.17
 20
1520.05
 30
0.000000
  70
    32
  0
VERTEX
  8
VISIBLE
  5
2CA9
 10
1315.10
 20
1520.05
 30
0.000000
  70
    32
  0
VERTEX
  8
VISIBLE
  5
2CAA
 10
1315.03
 20
1520.05
 30
0.000000
  70
    32
  0
VERTEX
  8
VISIBLE
  5
2CAB
 10
1314.96
 20
1520.06
 30
0.000000
  70
    32
  0
VERTEX
  8
VISIBLE
  5
2CAC
 10
1314.89
 20
1520.06
 30
0.000000
  70
    32
  0
VERTEX
  8
VISIBLE
  5
2CAD
 10
1314.81
 20
1520.07
 30
0.000000
  70
    32
  0
VERTEX
  8
VISIBLE
  5
2CAE
 10
1314.74
 20
1520.07
 30
0.000000
  70
    32
  0
VERTEX
  8
VISIBLE
  5
2CAF
 10
1314.67
 20
1520.08
 30
0.000000
  70
    32
  0
VERTEX
  8
VISIBLE
  5
2CB0
 10
1314.60
 20
1520.08
 30
0.000000
  70
    32
  0
VERTEX
  8
VISIBLE
  5
2CB1
 10
1314.53
 20
1520.09
 30
0.000000
  70
    32
  0
VERTEX
  8
VISIBLE
  5
2CB2
 10
1314.46
 20
1520.09
 30
0.000000
  70
    32
  0
VERTEX
  8
VISIBLE
  5
2CB3
 10
1314.39
 20
1520.10
 30
0.000000
  70
    32
  0
VERTEX
  8
VISIBLE
  5
2CB4
 10
1314.32
 20
1520.10
 30
0.000000
  70
    32
  0
VERTEX
  8
VISIBLE
  5
2CB5
 10
1314.25
 20
1520.10
 30
0.000000
  70
    32
  0
VERTEX
  8
VISIBLE
  5
2CB6
 10
1314.18
 20
1520.11
 30
0.000000
  70
    32
  0
VERTEX
  8
VISIBLE
  5
2CB7
 10
1314.11
 20
1520.11
 30
0.000000
  70
    32
  0
VERTEX
  8
VISIBLE
  5
2CB8
 10
1314.04
 20
1520.12
 30
0.000000
  70
    32
  0
VERTEX
  8
VISIBLE
  5
2CB9
 10
1313.96
 20
1520.12
 30
0.000000
  70
    32
  0
VERTEX
  8
VISIBLE
  5
2CBA
 10
1313.89
 20
1520.13
 30
0.000000
  70
    32
  0
VERTEX
  8
VISIBLE
  5
2CBB
 10
1313.82
 20
1520.13
 30
0.000000
  70
    32
  0
VERTEX
  8
VISIBLE
  5
2CBC
 10
1313.75
 20
1520.14
 30
0.000000
  70
    32
  0
VERTEX
  8
VISIBLE
  5
2CBD
 10
1313.68
 20
1520.14
 30
0.000000
  70
    32
  0
VERTEX
  8
VISIBLE
  5
2CBE
 10
1313.61
 20
1520.15
 30
0.000000
  70
    32
  0
VERTEX
  8
VISIBLE
  5
2CBF
 10
1313.54
 20
1520.15
 30
0.000000
  70
    32
  0
VERTEX
  8
VISIBLE
  5
2CC0
 10
1313.47
 20
1520.15
 30
0.000000
  70
    32
  0
VERTEX
  8
VISIBLE
  5
2CC1
 10
1313.40
 20
1520.16
 30
0.000000
  70
    32
  0
VERTEX
  8
VISIBLE
  5
2CC2
 10
1313.33
 20
1520.16
 30
0.000000
  70
    32
  0
VERTEX
  8
VISIBLE
  5
2CC3
 10
1313.26
 20
1520.17
 30
0.000000
  70
    32
  0
VERTEX
  8
VISIBLE
  5
2CC4
 10
1313.19
 20
1520.17
 30
0.000000
  70
    32
  0
VERTEX
  8
VISIBLE
  5
2CC5
 10
1313.11
 20
1520.18
 30
0.000000
  70
    32
  0
VERTEX
  8
VISIBLE
  5
2CC6
 10
1313.04
 20
1520.18
 30
0.000000
  70
    32
  0
VERTEX
  8
VISIBLE
  5
2CC7
 10
1312.97
 20
1520.19
 30
0.000000
  70
    32
  0
VERTEX
  8
VISIBLE
  5
2CC8
 10
1312.90
 20
1520.19
 30
0.000000
  70
    32
  0
VERTEX
  8
VISIBLE
  5
2CC9
 10
1312.83
 20
1520.20
 30
0.000000
  70
    32
  0
VERTEX
  8
VISIBLE
  5
2CCA
 10
1312.76
 20
1520.20
 30
0.000000
  70
    32
  0
VERTEX
  8
VISIBLE
  5
2CCB
 10
1312.69
 20
1520.21
 30
0.000000
  70
    32
  0
VERTEX
  8
VISIBLE
  5
2CCC
 10
1312.62
 20
1520.21
 30
0.000000
  70
    32
  0
VERTEX
  8
VISIBLE
  5
2CCD
 10
1312.55
 20
1520.21
 30
0.000000
  70
    32
  0
VERTEX
  8
VISIBLE
  5
2CCE
 10
1312.48
 20
1520.22
 30
0.000000
  70
    32
  0
VERTEX
  8
VISIBLE
  5
2CCF
 10
1312.41
 20
1520.22
 30
0.000000
  70
    32
  0
VERTEX
  8
VISIBLE
  5
2CD0
 10
1312.33
 20
1520.23
 30
0.000000
  70
    32
  0
VERTEX
  8
VISIBLE
  5
2CD1
 10
1312.26
 20
1520.23
 30
0.000000
  70
    32
  0
VERTEX
  8
VISIBLE
  5
2CD2
 10
1312.19
 20
1520.24
 30
0.000000
  70
    32
  0
VERTEX
  8
VISIBLE
  5
2CD3
 10
1312.12
 20
1520.24
 30
0.000000
  70
    32
  0
VERTEX
  8
VISIBLE
  5
2CD4
 10
1312.05
 20
1520.25
 30
0.000000
  70
    32
  0
VERTEX
  8
VISIBLE
  5
2CD5
 10
1311.98
 20
1520.25
 30
0.000000
  70
    32
  0
VERTEX
  8
VISIBLE
  5
2CD6
 10
1311.91
 20
1520.26
 30
0.000000
  70
    32
  0
VERTEX
  8
VISIBLE
  5
2CD7
 10
1311.84
 20
1520.26
 30
0.000000
  70
    32
  0
VERTEX
  8
VISIBLE
  5
2CD8
 10
1311.77
 20
1520.26
 30
0.000000
  70
    32
  0
VERTEX
  8
VISIBLE
  5
2CD9
 10
1311.70
 20
1520.27
 30
0.000000
  70
    32
  0
VERTEX
  8
VISIBLE
  5
2CDA
 10
1311.63
 20
1520.27
 30
0.000000
  70
    32
  0
VERTEX
  8
VISIBLE
  5
2CDB
 10
1311.56
 20
1520.28
 30
0.000000
  70
    32
  0
VERTEX
  8
VISIBLE
  5
2CDC
 10
1311.48
 20
1520.28
 30
0.000000
  70
    32
  0
VERTEX
  8
VISIBLE
  5
2CDD
 10
1311.41
 20
1520.29
 30
0.000000
  70
    32
  0
VERTEX
  8
VISIBLE
  5
2CDE
 10
1311.34
 20
1520.29
 30
0.000000
  70
    32
  0
VERTEX
  8
VISIBLE
  5
2CDF
 10
1311.27
 20
1520.30
 30
0.000000
  70
    32
  0
VERTEX
  8
VISIBLE
  5
2CE0
 10
1311.20
 20
1520.30
 30
0.000000
  70
    32
  0
VERTEX
  8
VISIBLE
  5
2CE1
 10
1311.13
 20
1520.31
 30
0.000000
  70
    32
  0
VERTEX
  8
VISIBLE
  5
2CE2
 10
1311.06
 20
1520.31
 30
0.000000
  70
    32
  0
VERTEX
  8
VISIBLE
  5
2CE3
 10
1310.99
 20
1520.31
 30
0.000000
  70
    32
  0
VERTEX
  8
VISIBLE
  5
2CE4
 10
1310.92
 20
1520.32
 30
0.000000
  70
    32
  0
VERTEX
  8
VISIBLE
  5
2CE5
 10
1310.85
 20
1520.32
 30
0.000000
  70
    32
  0
VERTEX
  8
VISIBLE
  5
2CE6
 10
1310.78
 20
1520.33
 30
0.000000
  70
    32
  0
VERTEX
  8
VISIBLE
  5
2CE7
 10
1310.71
 20
1520.33
 30
0.000000
  70
    32
  0
VERTEX
  8
VISIBLE
  5
2CE8
 10
1310.63
 20
1520.34
 30
0.000000
  70
    32
  0
VERTEX
  8
VISIBLE
  5
2CE9
 10
1310.56
 20
1520.34
 30
0.000000
  70
    32
  0
VERTEX
  8
VISIBLE
  5
2CEA
 10
1310.49
 20
1520.35
 30
0.000000
  70
    32
  0
VERTEX
  8
VISIBLE
  5
2CEB
 10
1310.42
 20
1520.35
 30
0.000000
  70
    32
  0
SEQEND
  8
VISIBLE
  5
2CEC
  0
LINE
  5
D8C
  8
VISIBLE
 10
1326.2219188571721133
 20
1572.1486674958500771
 30
0.0
 11
1326.2219188572109942
 21
1502.623204231040063
 31
0.0
  0
LINE
  5
D90
  8
VISIBLE
 10
1344.1383009282060357
 20
1502.9359358433680427
 30
0.0
 11
1326.2219188572109942
 21
1502.623204231040063
 31
0.0
  0
LINE
  5
D91
  8
VISIBLE
 10
1344.1383009282060357
 20
1571.8359358835209605
 30
0.0
 11
1326.2219188571721133
 21
1572.1486674958500771
 31
0.0
  0
LINE
  5
DE0
  8
VISIBLE
 10
3438.7244570851062235
 20
769.1469760052914353
 30
0.0
 11
3438.7244570851048593
 21
1890.6359358634449563
 31
0.0
  0
LINE
  5
DFE
  8
VISIBLE
 10
2505.224457085108952
 20
1890.6359358634449563
 30
0.0
 11
2505.224457085108952
 21
769.1469760052910942
 31
0.0
  0
LINE
  5
E20
  8
VISIBLE
 10
3496.4244570851069511
 20
929.0359358634448199
 30
0.0
 11
3496.4244570851069511
 21
852.0359358634447062
 31
0.0
  0
LINE
  5
E22
  8
VISIBLE
 10
3496.4244570851069511
 20
852.0359358634447062
 30
0.0
 11
3494.9244570851069511
 21
850.5359358634448199
 31
0.0
  0
LINE
  5
E23
  8
VISIBLE
 10
3496.4244570851069511
 20
929.0359358634448199
 30
0.0
 11
3494.9244570851069511
 21
930.5359358634449336
 31
0.0
  0
LINE
  5
E3A
  8
VISIBLE
 10
3494.9244570851069511
 20
850.5359358634445925
 30
0.0
 11
3438.7244570851062235
 21
850.5359358634448199
 31
0.0
  0
LINE
  5
E3B
  8
VISIBLE
 10
3494.9244570851069511
 20
930.5359358634450473
 30
0.0
 11
3438.7244570851062235
 21
930.5359358634450473
 31
0.0
  0
LINE
  5
E70
  8
VISIBLE
 10
2505.224457085108952
 20
1890.6359358634449563
 30
0.0
 11
3438.7244570851048593
 21
1890.6359358634449563
 31
0.0
  0
LINE
  5
142C
  8
VISIBLE
 10
2536.4244570851078606
 20
722.5359358634449336
 30
0.0
 11
3407.5244570851191384
 21
722.535935863445161
 31
0.0
  0
LINE
  5
1438
  8
VISIBLE
 10
3419.5244570851191384
 20
710.535935863445161
 30
0.0
 11
3407.5244570851191384
 21
722.535935863445161
 31
0.0
  0
LINE
  5
1440
  8
VISIBLE
 10
2536.4244570851078606
 20
722.5359358634449336
 30
0.0
 11
2524.4244570851078606
 21
710.5359358634449336
 31
0.0
  0
LINE
  5
1442
  8
VISIBLE
 10
2506.4244570851078606
 20
769.1469760052909805
 30
0.0
 11
2506.4244570851078606
 21
710.5359358634449336
 31
0.0
  0
LINE
  5
1443
  8
VISIBLE
 10
2496.4244570851078606
 20
783.7609676750900007
 30
0.0
 11
2496.4244570851078606
 21
769.1469760052909805
 31
0.0
  0
LINE
  5
1444
  8
VISIBLE
 10
2505.224457085108952
 20
786.770744936355868
 30
0.0
 11
2496.4244570851078606
 21
783.7609676750900007
 31
0.0
  0
LINE
  5
1447
  8
VISIBLE
 10
3437.5244570851082244
 20
710.5359358634450473
 30
0.0
 11
3437.5244570851082244
 21
769.1469760052913216
 31
0.0
  0
LINE
  5
1448
  8
VISIBLE
 10
3446.424957085108872
 20
769.1469760052913216
 30
0.0
 11
3446.4249570850961391
 21
783.7609676751867482
 31
0.0
  0
LINE
  5
1449
  8
VISIBLE
 10
3446.4249570850961391
 20
783.7609676751867482
 30
0.0
 11
3441.9124684334710764
 21
785.6803808381622503
 31
0.0
  0
LINE
  5
144B
  8
VISIBLE
 10
3437.5244570851082244
 20
710.5359358634450473
 30
0.0
 11
2506.4244570851078606
 21
710.5359358634449336
 31
0.0
  0
LINE
  5
144D
  8
VISIBLE
 10
3438.7244570851062235
 20
785.6803808381621366
 30
0.0
 11
3441.9124684334710764
 21
785.6803808381622503
 31
0.0
  0
LINE
  5
144E
  8
VISIBLE
 10
3446.424957085108872
 20
769.1469760052913216
 30
0.0
 11
2496.4244570851078606
 21
769.1469760052909805
 31
0.0
  0
LINE
  5
14CA
  8
VISIBLE
 10
4564.6060235892546189
 20
787.1359358634448427
 30
0.0
 11
4562.4560235892540732
 21
787.1359358634865657
 31
0.0
  0
LINE
  5
14CB
  8
VISIBLE
 10
3796.206023589275901
 20
787.13593586344507
 30
0.0
 11
4562.4560235892540732
 21
787.1359358634451837
 31
0.0
  0
LINE
  5
14CF
  8
VISIBLE
 10
4564.6060235892546189
 20
787.1359358634451837
 30
0.0
 11
4564.6060235892546189
 21
1890.6359358634460932
 31
0.0
  0
LINE
  5
14E6
  8
VISIBLE
 10
3796.206023589275901
 20
766.5223043240605421
 30
0.0
 11
3796.206023589275901
 21
1890.6359358634449563
 31
0.0
  0
LINE
  5
1543
  8
VISIBLE
 10
3796.206023589275901
 20
1890.6359358634449563
 30
0.0
 11
4564.6060235892546189
 21
1890.6359358634460932
 31
0.0
  0
LINE
  5
1632
  8
VISIBLE
 10
4513.4060235892811761
 20
739.8359358634543241
 30
0.0
 11
3847.4060235892798119
 21
739.8359358634568252
 31
0.0
  0
LINE
  5
163F
  8
VISIBLE
 10
4561.4060235892748096
 20
714.2859358634450473
 30
0.0
 11
4561.4060235892720812
 21
722.5359358629751796
 31
0.0
  0
LINE
  5
1642
  8
VISIBLE
 10
4563.4060235892729906
 20
722.5359358629751796
 30
0.0
 11
4563.4060235892748096
 21
714.2859358634450473
 31
0.0
  0
LINE
  5
1643
  8
VISIBLE
 10
4561.4060235892720812
 20
722.5359358629751796
 30
0.0
 11
4563.4060235892729906
 21
722.5359358629751796
 31
0.0
  0
POLYLINE
  8
VISIBLE
  5
2CED
  66
     1
 10
0.000000
 20
0.000000
 30
0.000000
  70
     8
  0
VERTEX
  8
VISIBLE
  5
2CEE
 10
4563.41
 20
714.286
 30
0.000000
  70
    32
  0
VERTEX
  8
VISIBLE
  5
2CEF
 10
4563.41
 20
714.240
 30
0.000000
  70
    32
  0
VERTEX
  8
VISIBLE
  5
2CF0
 10
4563.40
 20
714.193
 30
0.000000
  70
    32
  0
VERTEX
  8
VISIBLE
  5
2CF1
 10
4563.40
 20
714.147
 30
0.000000
  70
    32
  0
VERTEX
  8
VISIBLE
  5
2CF2
 10
4563.40
 20
714.101
 30
0.000000
  70
    32
  0
VERTEX
  8
VISIBLE
  5
2CF3
 10
4563.40
 20
714.055
 30
0.000000
  70
    32
  0
VERTEX
  8
VISIBLE
  5
2CF4
 10
4563.39
 20
714.009
 30
0.000000
  70
    32
  0
VERTEX
  8
VISIBLE
  5
2CF5
 10
4563.39
 20
713.963
 30
0.000000
  70
    32
  0
VERTEX
  8
VISIBLE
  5
2CF6
 10
4563.39
 20
713.917
 30
0.000000
  70
    32
  0
VERTEX
  8
VISIBLE
  5
2CF7
 10
4563.38
 20
713.872
 30
0.000000
  70
    32
  0
VERTEX
  8
VISIBLE
  5
2CF8
 10
4563.37
 20
713.826
 30
0.000000
  70
    32
  0
VERTEX
  8
VISIBLE
  5
2CF9
 10
4563.37
 20
713.781
 30
0.000000
  70
    32
  0
VERTEX
  8
VISIBLE
  5
2CFA
 10
4563.36
 20
713.735
 30
0.000000
  70
    32
  0
VERTEX
  8
VISIBLE
  5
2CFB
 10
4563.35
 20
713.690
 30
0.000000
  70
    32
  0
VERTEX
  8
VISIBLE
  5
2CFC
 10
4563.34
 20
713.645
 30
0.000000
  70
    32
  0
VERTEX
  8
VISIBLE
  5
2CFD
 10
4563.33
 20
713.600
 30
0.000000
  70
    32
  0
VERTEX
  8
VISIBLE
  5
2CFE
 10
4563.32
 20
713.555
 30
0.000000
  70
    32
  0
VERTEX
  8
VISIBLE
  5
2CFF
 10
4563.31
 20
713.511
 30
0.000000
  70
    32
  0
VERTEX
  8
VISIBLE
  5
2D00
 10
4563.30
 20
713.466
 30
0.000000
  70
    32
  0
VERTEX
  8
VISIBLE
  5
2D01
 10
4563.29
 20
713.422
 30
0.000000
  70
    32
  0
VERTEX
  8
VISIBLE
  5
2D02
 10
4563.28
 20
713.378
 30
0.000000
  70
    32
  0
VERTEX
  8
VISIBLE
  5
2D03
 10
4563.27
 20
713.334
 30
0.000000
  70
    32
  0
VERTEX
  8
VISIBLE
  5
2D04
 10
4563.25
 20
713.290
 30
0.000000
  70
    32
  0
VERTEX
  8
VISIBLE
  5
2D05
 10
4563.24
 20
713.246
 30
0.000000
  70
    32
  0
VERTEX
  8
VISIBLE
  5
2D06
 10
4563.23
 20
713.203
 30
0.000000
  70
    32
  0
VERTEX
  8
VISIBLE
  5
2D07
 10
4563.21
 20
713.159
 30
0.000000
  70
    32
  0
VERTEX
  8
VISIBLE
  5
2D08
 10
4563.20
 20
713.116
 30
0.000000
  70
    32
  0
VERTEX
  8
VISIBLE
  5
2D09
 10
4563.18
 20
713.073
 30
0.000000
  70
    32
  0
VERTEX
  8
VISIBLE
  5
2D0A
 10
4563.16
 20
713.030
 30
0.000000
  70
    32
  0
VERTEX
  8
VISIBLE
  5
2D0B
 10
4563.15
 20
712.988
 30
0.000000
  70
    32
  0
VERTEX
  8
VISIBLE
  5
2D0C
 10
4563.13
 20
712.945
 30
0.000000
  70
    32
  0
VERTEX
  8
VISIBLE
  5
2D0D
 10
4563.11
 20
712.903
 30
0.000000
  70
    32
  0
VERTEX
  8
VISIBLE
  5
2D0E
 10
4563.09
 20
712.861
 30
0.000000
  70
    32
  0
VERTEX
  8
VISIBLE
  5
2D0F
 10
4563.07
 20
712.819
 30
0.000000
  70
    32
  0
VERTEX
  8
VISIBLE
  5
2D10
 10
4563.05
 20
712.778
 30
0.000000
  70
    32
  0
VERTEX
  8
VISIBLE
  5
2D11
 10
4563.03
 20
712.737
 30
0.000000
  70
    32
  0
VERTEX
  8
VISIBLE
  5
2D12
 10
4563.01
 20
712.696
 30
0.000000
  70
    32
  0
VERTEX
  8
VISIBLE
  5
2D13
 10
4562.99
 20
712.655
 30
0.000000
  70
    32
  0
VERTEX
  8
VISIBLE
  5
2D14
 10
4562.97
 20
712.614
 30
0.000000
  70
    32
  0
VERTEX
  8
VISIBLE
  5
2D15
 10
4562.95
 20
712.574
 30
0.000000
  70
    32
  0
VERTEX
  8
VISIBLE
  5
2D16
 10
4562.92
 20
712.534
 30
0.000000
  70
    32
  0
VERTEX
  8
VISIBLE
  5
2D17
 10
4562.90
 20
712.494
 30
0.000000
  70
    32
  0
VERTEX
  8
VISIBLE
  5
2D18
 10
4562.88
 20
712.454
 30
0.000000
  70
    32
  0
VERTEX
  8
VISIBLE
  5
2D19
 10
4562.85
 20
712.415
 30
0.000000
  70
    32
  0
VERTEX
  8
VISIBLE
  5
2D1A
 10
4562.83
 20
712.376
 30
0.000000
  70
    32
  0
VERTEX
  8
VISIBLE
  5
2D1B
 10
4562.80
 20
712.337
 30
0.000000
  70
    32
  0
VERTEX
  8
VISIBLE
  5
2D1C
 10
4562.78
 20
712.299
 30
0.000000
  70
    32
  0
VERTEX
  8
VISIBLE
  5
2D1D
 10
4562.75
 20
712.260
 30
0.000000
  70
    32
  0
VERTEX
  8
VISIBLE
  5
2D1E
 10
4562.73
 20
712.222
 30
0.000000
  70
    32
  0
VERTEX
  8
VISIBLE
  5
2D1F
 10
4562.70
 20
712.185
 30
0.000000
  70
    32
  0
VERTEX
  8
VISIBLE
  5
2D20
 10
4562.67
 20
712.147
 30
0.000000
  70
    32
  0
VERTEX
  8
VISIBLE
  5
2D21
 10
4562.65
 20
712.110
 30
0.000000
  70
    32
  0
VERTEX
  8
VISIBLE
  5
2D22
 10
4562.62
 20
712.074
 30
0.000000
  70
    32
  0
VERTEX
  8
VISIBLE
  5
2D23
 10
4562.59
 20
712.037
 30
0.000000
  70
    32
  0
VERTEX
  8
VISIBLE
  5
2D24
 10
4562.56
 20
712.001
 30
0.000000
  70
    32
  0
VERTEX
  8
VISIBLE
  5
2D25
 10
4562.53
 20
711.965
 30
0.000000
  70
    32
  0
VERTEX
  8
VISIBLE
  5
2D26
 10
4562.50
 20
711.930
 30
0.000000
  70
    32
  0
VERTEX
  8
VISIBLE
  5
2D27
 10
4562.47
 20
711.895
 30
0.000000
  70
    32
  0
VERTEX
  8
VISIBLE
  5
2D28
 10
4562.44
 20
711.860
 30
0.000000
  70
    32
  0
VERTEX
  8
VISIBLE
  5
2D29
 10
4562.41
 20
711.825
 30
0.000000
  70
    32
  0
VERTEX
  8
VISIBLE
  5
2D2A
 10
4562.38
 20
711.791
 30
0.000000
  70
    32
  0
VERTEX
  8
VISIBLE
  5
2D2B
 10
4562.35
 20
711.757
 30
0.000000
  70
    32
  0
VERTEX
  8
VISIBLE
  5
2D2C
 10
4562.32
 20
711.724
 30
0.000000
  70
    32
  0
VERTEX
  8
VISIBLE
  5
2D2D
 10
4562.28
 20
711.691
 30
0.000000
  70
    32
  0
VERTEX
  8
VISIBLE
  5
2D2E
 10
4562.25
 20
711.658
 30
0.000000
  70
    32
  0
VERTEX
  8
VISIBLE
  5
2D2F
 10
4562.22
 20
711.626
 30
0.000000
  70
    32
  0
VERTEX
  8
VISIBLE
  5
2D30
 10
4562.18
 20
711.594
 30
0.000000
  70
    32
  0
VERTEX
  8
VISIBLE
  5
2D31
 10
4562.15
 20
711.562
 30
0.000000
  70
    32
  0
VERTEX
  8
VISIBLE
  5
2D32
 10
4562.12
 20
711.531
 30
0.000000
  70
    32
  0
VERTEX
  8
VISIBLE
  5
2D33
 10
4562.08
 20
711.500
 30
0.000000
  70
    32
  0
VERTEX
  8
VISIBLE
  5
2D34
 10
4562.05
 20
711.470
 30
0.000000
  70
    32
  0
VERTEX
  8
VISIBLE
  5
2D35
 10
4562.01
 20
711.440
 30
0.000000
  70
    32
  0
VERTEX
  8
VISIBLE
  5
2D36
 10
4561.98
 20
711.410
 30
0.000000
  70
    32
  0
VERTEX
  8
VISIBLE
  5
2D37
 10
4561.94
 20
711.381
 30
0.000000
  70
    32
  0
VERTEX
  8
VISIBLE
  5
2D38
 10
4561.90
 20
711.352
 30
0.000000
  70
    32
  0
VERTEX
  8
VISIBLE
  5
2D39
 10
4561.87
 20
711.324
 30
0.000000
  70
    32
  0
VERTEX
  8
VISIBLE
  5
2D3A
 10
4561.83
 20
711.296
 30
0.000000
  70
    32
  0
VERTEX
  8
VISIBLE
  5
2D3B
 10
4561.79
 20
711.268
 30
0.000000
  70
    32
  0
VERTEX
  8
VISIBLE
  5
2D3C
 10
4561.76
 20
711.241
 30
0.000000
  70
    32
  0
VERTEX
  8
VISIBLE
  5
2D3D
 10
4561.72
 20
711.215
 30
0.000000
  70
    32
  0
VERTEX
  8
VISIBLE
  5
2D3E
 10
4561.68
 20
711.188
 30
0.000000
  70
    32
  0
VERTEX
  8
VISIBLE
  5
2D3F
 10
4561.64
 20
711.163
 30
0.000000
  70
    32
  0
VERTEX
  8
VISIBLE
  5
2D40
 10
4561.60
 20
711.137
 30
0.000000
  70
    32
  0
VERTEX
  8
VISIBLE
  5
2D41
 10
4561.57
 20
711.112
 30
0.000000
  70
    32
  0
VERTEX
  8
VISIBLE
  5
2D42
 10
4561.53
 20
711.088
 30
0.000000
  70
    32
  0
VERTEX
  8
VISIBLE
  5
2D43
 10
4561.49
 20
711.064
 30
0.000000
  70
    32
  0
VERTEX
  8
VISIBLE
  5
2D44
 10
4561.45
 20
711.040
 30
0.000000
  70
    32
  0
VERTEX
  8
VISIBLE
  5
2D45
 10
4561.41
 20
711.017
 30
0.000000
  70
    32
  0
VERTEX
  8
VISIBLE
  5
2D46
 10
4561.37
 20
710.995
 30
0.000000
  70
    32
  0
VERTEX
  8
VISIBLE
  5
2D47
 10
4561.33
 20
710.973
 30
0.000000
  70
    32
  0
VERTEX
  8
VISIBLE
  5
2D48
 10
4561.29
 20
710.951
 30
0.000000
  70
    32
  0
VERTEX
  8
VISIBLE
  5
2D49
 10
4561.25
 20
710.930
 30
0.000000
  70
    32
  0
VERTEX
  8
VISIBLE
  5
2D4A
 10
4561.21
 20
710.909
 30
0.000000
  70
    32
  0
VERTEX
  8
VISIBLE
  5
2D4B
 10
4561.16
 20
710.889
 30
0.000000
  70
    32
  0
VERTEX
  8
VISIBLE
  5
2D4C
 10
4561.12
 20
710.870
 30
0.000000
  70
    32
  0
VERTEX
  8
VISIBLE
  5
2D4D
 10
4561.08
 20
710.850
 30
0.000000
  70
    32
  0
VERTEX
  8
VISIBLE
  5
2D4E
 10
4561.04
 20
710.832
 30
0.000000
  70
    32
  0
VERTEX
  8
VISIBLE
  5
2D4F
 10
4561.00
 20
710.814
 30
0.000000
  70
    32
  0
VERTEX
  8
VISIBLE
  5
2D50
 10
4560.95
 20
710.796
 30
0.000000
  70
    32
  0
VERTEX
  8
VISIBLE
  5
2D51
 10
4560.91
 20
710.779
 30
0.000000
  70
    32
  0
VERTEX
  8
VISIBLE
  5
2D52
 10
4560.87
 20
710.763
 30
0.000000
  70
    32
  0
VERTEX
  8
VISIBLE
  5
2D53
 10
4560.83
 20
710.747
 30
0.000000
  70
    32
  0
VERTEX
  8
VISIBLE
  5
2D54
 10
4560.78
 20
710.731
 30
0.000000
  70
    32
  0
VERTEX
  8
VISIBLE
  5
2D55
 10
4560.74
 20
710.716
 30
0.000000
  70
    32
  0
VERTEX
  8
VISIBLE
  5
2D56
 10
4560.70
 20
710.702
 30
0.000000
  70
    32
  0
VERTEX
  8
VISIBLE
  5
2D57
 10
4560.65
 20
710.688
 30
0.000000
  70
    32
  0
VERTEX
  8
VISIBLE
  5
2D58
 10
4560.61
 20
710.675
 30
0.000000
  70
    32
  0
VERTEX
  8
VISIBLE
  5
2D59
 10
4560.56
 20
710.663
 30
0.000000
  70
    32
  0
VERTEX
  8
VISIBLE
  5
2D5A
 10
4560.52
 20
710.651
 30
0.000000
  70
    32
  0
VERTEX
  8
VISIBLE
  5
2D5B
 10
4560.48
 20
710.639
 30
0.000000
  70
    32
  0
VERTEX
  8
VISIBLE
  5
2D5C
 10
4560.43
 20
710.628
 30
0.000000
  70
    32
  0
VERTEX
  8
VISIBLE
  5
2D5D
 10
4560.39
 20
710.618
 30
0.000000
  70
    32
  0
VERTEX
  8
VISIBLE
  5
2D5E
 10
4560.34
 20
710.608
 30
0.000000
  70
    32
  0
VERTEX
  8
VISIBLE
  5
2D5F
 10
4560.30
 20
710.599
 30
0.000000
  70
    32
  0
VERTEX
  8
VISIBLE
  5
2D60
 10
4560.25
 20
710.590
 30
0.000000
  70
    32
  0
VERTEX
  8
VISIBLE
  5
2D61
 10
4560.21
 20
710.582
 30
0.000000
  70
    32
  0
VERTEX
  8
VISIBLE
  5
2D62
 10
4560.16
 20
710.575
 30
0.000000
  70
    32
  0
VERTEX
  8
VISIBLE
  5
2D63
 10
4560.12
 20
710.568
 30
0.000000
  70
    32
  0
VERTEX
  8
VISIBLE
  5
2D64
 10
4560.07
 20
710.562
 30
0.000000
  70
    32
  0
VERTEX
  8
VISIBLE
  5
2D65
 10
4560.02
 20
710.557
 30
0.000000
  70
    32
  0
VERTEX
  8
VISIBLE
  5
2D66
 10
4559.98
 20
710.552
 30
0.000000
  70
    32
  0
VERTEX
  8
VISIBLE
  5
2D67
 10
4559.93
 20
710.548
 30
0.000000
  70
    32
  0
VERTEX
  8
VISIBLE
  5
2D68
 10
4559.89
 20
710.544
 30
0.000000
  70
    32
  0
VERTEX
  8
VISIBLE
  5
2D69
 10
4559.84
 20
710.541
 30
0.000000
  70
    32
  0
VERTEX
  8
VISIBLE
  5
2D6A
 10
4559.79
 20
710.539
 30
0.000000
  70
    32
  0
VERTEX
  8
VISIBLE
  5
2D6B
 10
4559.75
 20
710.537
 30
0.000000
  70
    32
  0
VERTEX
  8
VISIBLE
  5
2D6C
 10
4559.70
 20
710.536
 30
0.000000
  70
    32
  0
VERTEX
  8
VISIBLE
  5
2D6D
 10
4559.66
 20
710.536
 30
0.000000
  70
    32
  0
SEQEND
  8
VISIBLE
  5
2D6E
  0
POLYLINE
  8
VISIBLE
  5
2D6F
  66
     1
 10
0.000000
 20
0.000000
 30
0.000000
  70
     8
  0
VERTEX
  8
VISIBLE
  5
2D70
 10
4559.66
 20
712.536
 30
0.000000
  70
    32
  0
VERTEX
  8
VISIBLE
  5
2D71
 10
4559.68
 20
712.536
 30
0.000000
  70
    32
  0
VERTEX
  8
VISIBLE
  5
2D72
 10
4559.70
 20
712.537
 30
0.000000
  70
    32
  0
VERTEX
  8
VISIBLE
  5
2D73
 10
4559.72
 20
712.537
 30
0.000000
  70
    32
  0
VERTEX
  8
VISIBLE
  5
2D74
 10
4559.74
 20
712.538
 30
0.000000
  70
    32
  0
VERTEX
  8
VISIBLE
  5
2D75
 10
4559.76
 20
712.540
 30
0.000000
  70
    32
  0
VERTEX
  8
VISIBLE
  5
2D76
 10
4559.79
 20
712.541
 30
0.000000
  70
    32
  0
VERTEX
  8
VISIBLE
  5
2D77
 10
4559.81
 20
712.543
 30
0.000000
  70
    32
  0
VERTEX
  8
VISIBLE
  5
2D78
 10
4559.83
 20
712.546
 30
0.000000
  70
    32
  0
VERTEX
  8
VISIBLE
  5
2D79
 10
4559.85
 20
712.548
 30
0.000000
  70
    32
  0
VERTEX
  8
VISIBLE
  5
2D7A
 10
4559.87
 20
712.551
 30
0.000000
  70
    32
  0
VERTEX
  8
VISIBLE
  5
2D7B
 10
4559.89
 20
712.554
 30
0.000000
  70
    32
  0
VERTEX
  8
VISIBLE
  5
2D7C
 10
4559.91
 20
712.558
 30
0.000000
  70
    32
  0
VERTEX
  8
VISIBLE
  5
2D7D
 10
4559.93
 20
712.561
 30
0.000000
  70
    32
  0
VERTEX
  8
VISIBLE
  5
2D7E
 10
4559.96
 20
712.565
 30
0.000000
  70
    32
  0
VERTEX
  8
VISIBLE
  5
2D7F
 10
4559.98
 20
712.570
 30
0.000000
  70
    32
  0
VERTEX
  8
VISIBLE
  5
2D80
 10
4560.00
 20
712.574
 30
0.000000
  70
    32
  0
VERTEX
  8
VISIBLE
  5
2D81
 10
4560.02
 20
712.579
 30
0.000000
  70
    32
  0
VERTEX
  8
VISIBLE
  5
2D82
 10
4560.04
 20
712.584
 30
0.000000
  70
    32
  0
VERTEX
  8
VISIBLE
  5
2D83
 10
4560.06
 20
712.589
 30
0.000000
  70
    32
  0
VERTEX
  8
VISIBLE
  5
2D84
 10
4560.08
 20
712.595
 30
0.000000
  70
    32
  0
VERTEX
  8
VISIBLE
  5
2D85
 10
4560.10
 20
712.601
 30
0.000000
  70
    32
  0
VERTEX
  8
VISIBLE
  5
2D86
 10
4560.12
 20
712.607
 30
0.000000
  70
    32
  0
VERTEX
  8
VISIBLE
  5
2D87
 10
4560.14
 20
712.614
 30
0.000000
  70
    32
  0
VERTEX
  8
VISIBLE
  5
2D88
 10
4560.16
 20
712.620
 30
0.000000
  70
    32
  0
VERTEX
  8
VISIBLE
  5
2D89
 10
4560.18
 20
712.627
 30
0.000000
  70
    32
  0
VERTEX
  8
VISIBLE
  5
2D8A
 10
4560.20
 20
712.634
 30
0.000000
  70
    32
  0
VERTEX
  8
VISIBLE
  5
2D8B
 10
4560.22
 20
712.642
 30
0.000000
  70
    32
  0
VERTEX
  8
VISIBLE
  5
2D8C
 10
4560.24
 20
712.649
 30
0.000000
  70
    32
  0
VERTEX
  8
VISIBLE
  5
2D8D
 10
4560.26
 20
712.657
 30
0.000000
  70
    32
  0
VERTEX
  8
VISIBLE
  5
2D8E
 10
4560.28
 20
712.666
 30
0.000000
  70
    32
  0
VERTEX
  8
VISIBLE
  5
2D8F
 10
4560.30
 20
712.674
 30
0.000000
  70
    32
  0
VERTEX
  8
VISIBLE
  5
2D90
 10
4560.32
 20
712.683
 30
0.000000
  70
    32
  0
VERTEX
  8
VISIBLE
  5
2D91
 10
4560.34
 20
712.692
 30
0.000000
  70
    32
  0
VERTEX
  8
VISIBLE
  5
2D92
 10
4560.36
 20
712.701
 30
0.000000
  70
    32
  0
VERTEX
  8
VISIBLE
  5
2D93
 10
4560.38
 20
712.710
 30
0.000000
  70
    32
  0
VERTEX
  8
VISIBLE
  5
2D94
 10
4560.40
 20
712.720
 30
0.000000
  70
    32
  0
VERTEX
  8
VISIBLE
  5
2D95
 10
4560.42
 20
712.730
 30
0.000000
  70
    32
  0
VERTEX
  8
VISIBLE
  5
2D96
 10
4560.44
 20
712.740
 30
0.000000
  70
    32
  0
VERTEX
  8
VISIBLE
  5
2D97
 10
4560.46
 20
712.750
 30
0.000000
  70
    32
  0
VERTEX
  8
VISIBLE
  5
2D98
 10
4560.47
 20
712.761
 30
0.000000
  70
    32
  0
VERTEX
  8
VISIBLE
  5
2D99
 10
4560.49
 20
712.771
 30
0.000000
  70
    32
  0
VERTEX
  8
VISIBLE
  5
2D9A
 10
4560.51
 20
712.782
 30
0.000000
  70
    32
  0
VERTEX
  8
VISIBLE
  5
2D9B
 10
4560.53
 20
712.794
 30
0.000000
  70
    32
  0
VERTEX
  8
VISIBLE
  5
2D9C
 10
4560.55
 20
712.805
 30
0.000000
  70
    32
  0
VERTEX
  8
VISIBLE
  5
2D9D
 10
4560.57
 20
712.817
 30
0.000000
  70
    32
  0
VERTEX
  8
VISIBLE
  5
2D9E
 10
4560.58
 20
712.828
 30
0.000000
  70
    32
  0
VERTEX
  8
VISIBLE
  5
2D9F
 10
4560.60
 20
712.840
 30
0.000000
  70
    32
  0
VERTEX
  8
VISIBLE
  5
2DA0
 10
4560.62
 20
712.853
 30
0.000000
  70
    32
  0
VERTEX
  8
VISIBLE
  5
2DA1
 10
4560.64
 20
712.865
 30
0.000000
  70
    32
  0
VERTEX
  8
VISIBLE
  5
2DA2
 10
4560.65
 20
712.878
 30
0.000000
  70
    32
  0
VERTEX
  8
VISIBLE
  5
2DA3
 10
4560.67
 20
712.891
 30
0.000000
  70
    32
  0
VERTEX
  8
VISIBLE
  5
2DA4
 10
4560.69
 20
712.904
 30
0.000000
  70
    32
  0
VERTEX
  8
VISIBLE
  5
2DA5
 10
4560.71
 20
712.917
 30
0.000000
  70
    32
  0
VERTEX
  8
VISIBLE
  5
2DA6
 10
4560.72
 20
712.930
 30
0.000000
  70
    32
  0
VERTEX
  8
VISIBLE
  5
2DA7
 10
4560.74
 20
712.944
 30
0.000000
  70
    32
  0
VERTEX
  8
VISIBLE
  5
2DA8
 10
4560.76
 20
712.958
 30
0.000000
  70
    32
  0
VERTEX
  8
VISIBLE
  5
2DA9
 10
4560.77
 20
712.972
 30
0.000000
  70
    32
  0
VERTEX
  8
VISIBLE
  5
2DAA
 10
4560.79
 20
712.986
 30
0.000000
  70
    32
  0
VERTEX
  8
VISIBLE
  5
2DAB
 10
4560.80
 20
713.000
 30
0.000000
  70
    32
  0
VERTEX
  8
VISIBLE
  5
2DAC
 10
4560.82
 20
713.015
 30
0.000000
  70
    32
  0
VERTEX
  8
VISIBLE
  5
2DAD
 10
4560.84
 20
713.030
 30
0.000000
  70
    32
  0
VERTEX
  8
VISIBLE
  5
2DAE
 10
4560.85
 20
713.045
 30
0.000000
  70
    32
  0
VERTEX
  8
VISIBLE
  5
2DAF
 10
4560.87
 20
713.060
 30
0.000000
  70
    32
  0
VERTEX
  8
VISIBLE
  5
2DB0
 10
4560.88
 20
713.075
 30
0.000000
  70
    32
  0
VERTEX
  8
VISIBLE
  5
2DB1
 10
4560.90
 20
713.090
 30
0.000000
  70
    32
  0
VERTEX
  8
VISIBLE
  5
2DB2
 10
4560.91
 20
713.106
 30
0.000000
  70
    32
  0
VERTEX
  8
VISIBLE
  5
2DB3
 10
4560.93
 20
713.122
 30
0.000000
  70
    32
  0
VERTEX
  8
VISIBLE
  5
2DB4
 10
4560.94
 20
713.138
 30
0.000000
  70
    32
  0
VERTEX
  8
VISIBLE
  5
2DB5
 10
4560.96
 20
713.154
 30
0.000000
  70
    32
  0
VERTEX
  8
VISIBLE
  5
2DB6
 10
4560.97
 20
713.170
 30
0.000000
  70
    32
  0
VERTEX
  8
VISIBLE
  5
2DB7
 10
4560.98
 20
713.186
 30
0.000000
  70
    32
  0
VERTEX
  8
VISIBLE
  5
2DB8
 10
4561.00
 20
713.203
 30
0.000000
  70
    32
  0
VERTEX
  8
VISIBLE
  5
2DB9
 10
4561.01
 20
713.220
 30
0.000000
  70
    32
  0
VERTEX
  8
VISIBLE
  5
2DBA
 10
4561.03
 20
713.237
 30
0.000000
  70
    32
  0
VERTEX
  8
VISIBLE
  5
2DBB
 10
4561.04
 20
713.254
 30
0.000000
  70
    32
  0
VERTEX
  8
VISIBLE
  5
2DBC
 10
4561.05
 20
713.271
 30
0.000000
  70
    32
  0
VERTEX
  8
VISIBLE
  5
2DBD
 10
4561.06
 20
713.288
 30
0.000000
  70
    32
  0
VERTEX
  8
VISIBLE
  5
2DBE
 10
4561.08
 20
713.305
 30
0.000000
  70
    32
  0
VERTEX
  8
VISIBLE
  5
2DBF
 10
4561.09
 20
713.323
 30
0.000000
  70
    32
  0
VERTEX
  8
VISIBLE
  5
2DC0
 10
4561.10
 20
713.341
 30
0.000000
  70
    32
  0
VERTEX
  8
VISIBLE
  5
2DC1
 10
4561.11
 20
713.358
 30
0.000000
  70
    32
  0
VERTEX
  8
VISIBLE
  5
2DC2
 10
4561.13
 20
713.376
 30
0.000000
  70
    32
  0
VERTEX
  8
VISIBLE
  5
2DC3
 10
4561.14
 20
713.395
 30
0.000000
  70
    32
  0
VERTEX
  8
VISIBLE
  5
2DC4
 10
4561.15
 20
713.413
 30
0.000000
  70
    32
  0
VERTEX
  8
VISIBLE
  5
2DC5
 10
4561.16
 20
713.431
 30
0.000000
  70
    32
  0
VERTEX
  8
VISIBLE
  5
2DC6
 10
4561.17
 20
713.450
 30
0.000000
  70
    32
  0
VERTEX
  8
VISIBLE
  5
2DC7
 10
4561.18
 20
713.468
 30
0.000000
  70
    32
  0
VERTEX
  8
VISIBLE
  5
2DC8
 10
4561.19
 20
713.487
 30
0.000000
  70
    32
  0
VERTEX
  8
VISIBLE
  5
2DC9
 10
4561.20
 20
713.506
 30
0.000000
  70
    32
  0
VERTEX
  8
VISIBLE
  5
2DCA
 10
4561.21
 20
713.525
 30
0.000000
  70
    32
  0
VERTEX
  8
VISIBLE
  5
2DCB
 10
4561.22
 20
713.544
 30
0.000000
  70
    32
  0
VERTEX
  8
VISIBLE
  5
2DCC
 10
4561.23
 20
713.563
 30
0.000000
  70
    32
  0
VERTEX
  8
VISIBLE
  5
2DCD
 10
4561.24
 20
713.582
 30
0.000000
  70
    32
  0
VERTEX
  8
VISIBLE
  5
2DCE
 10
4561.25
 20
713.602
 30
0.000000
  70
    32
  0
VERTEX
  8
VISIBLE
  5
2DCF
 10
4561.26
 20
713.621
 30
0.000000
  70
    32
  0
VERTEX
  8
VISIBLE
  5
2DD0
 10
4561.27
 20
713.641
 30
0.000000
  70
    32
  0
VERTEX
  8
VISIBLE
  5
2DD1
 10
4561.28
 20
713.660
 30
0.000000
  70
    32
  0
VERTEX
  8
VISIBLE
  5
2DD2
 10
4561.28
 20
713.680
 30
0.000000
  70
    32
  0
VERTEX
  8
VISIBLE
  5
2DD3
 10
4561.29
 20
713.700
 30
0.000000
  70
    32
  0
VERTEX
  8
VISIBLE
  5
2DD4
 10
4561.30
 20
713.720
 30
0.000000
  70
    32
  0
VERTEX
  8
VISIBLE
  5
2DD5
 10
4561.31
 20
713.740
 30
0.000000
  70
    32
  0
VERTEX
  8
VISIBLE
  5
2DD6
 10
4561.31
 20
713.760
 30
0.000000
  70
    32
  0
VERTEX
  8
VISIBLE
  5
2DD7
 10
4561.32
 20
713.780
 30
0.000000
  70
    32
  0
VERTEX
  8
VISIBLE
  5
2DD8
 10
4561.33
 20
713.801
 30
0.000000
  70
    32
  0
VERTEX
  8
VISIBLE
  5
2DD9
 10
4561.33
 20
713.821
 30
0.000000
  70
    32
  0
VERTEX
  8
VISIBLE
  5
2DDA
 10
4561.34
 20
713.842
 30
0.000000
  70
    32
  0
VERTEX
  8
VISIBLE
  5
2DDB
 10
4561.35
 20
713.862
 30
0.000000
  70
    32
  0
VERTEX
  8
VISIBLE
  5
2DDC
 10
4561.35
 20
713.883
 30
0.000000
  70
    32
  0
VERTEX
  8
VISIBLE
  5
2DDD
 10
4561.36
 20
713.903
 30
0.000000
  70
    32
  0
VERTEX
  8
VISIBLE
  5
2DDE
 10
4561.36
 20
713.924
 30
0.000000
  70
    32
  0
VERTEX
  8
VISIBLE
  5
2DDF
 10
4561.37
 20
713.945
 30
0.000000
  70
    32
  0
VERTEX
  8
VISIBLE
  5
2DE0
 10
4561.37
 20
713.966
 30
0.000000
  70
    32
  0
VERTEX
  8
VISIBLE
  5
2DE1
 10
4561.38
 20
713.987
 30
0.000000
  70
    32
  0
VERTEX
  8
VISIBLE
  5
2DE2
 10
4561.38
 20
714.008
 30
0.000000
  70
    32
  0
VERTEX
  8
VISIBLE
  5
2DE3
 10
4561.38
 20
714.029
 30
0.000000
  70
    32
  0
VERTEX
  8
VISIBLE
  5
2DE4
 10
4561.39
 20
714.050
 30
0.000000
  70
    32
  0
VERTEX
  8
VISIBLE
  5
2DE5
 10
4561.39
 20
714.071
 30
0.000000
  70
    32
  0
VERTEX
  8
VISIBLE
  5
2DE6
 10
4561.39
 20
714.093
 30
0.000000
  70
    32
  0
VERTEX
  8
VISIBLE
  5
2DE7
 10
4561.40
 20
714.114
 30
0.000000
  70
    32
  0
VERTEX
  8
VISIBLE
  5
2DE8
 10
4561.40
 20
714.135
 30
0.000000
  70
    32
  0
VERTEX
  8
VISIBLE
  5
2DE9
 10
4561.40
 20
714.157
 30
0.000000
  70
    32
  0
VERTEX
  8
VISIBLE
  5
2DEA
 10
4561.40
 20
714.178
 30
0.000000
  70
    32
  0
VERTEX
  8
VISIBLE
  5
2DEB
 10
4561.40
 20
714.200
 30
0.000000
  70
    32
  0
VERTEX
  8
VISIBLE
  5
2DEC
 10
4561.40
 20
714.221
 30
0.000000
  70
    32
  0
VERTEX
  8
VISIBLE
  5
2DED
 10
4561.41
 20
714.243
 30
0.000000
  70
    32
  0
VERTEX
  8
VISIBLE
  5
2DEE
 10
4561.41
 20
714.264
 30
0.000000
  70
    32
  0
VERTEX
  8
VISIBLE
  5
2DEF
 10
4561.41
 20
714.286
 30
0.000000
  70
    32
  0
SEQEND
  8
VISIBLE
  5
2DF0
  0
LINE
  5
1648
  8
VISIBLE
 10
4517.1560235892811761
 20
712.5359358634506179
 30
0.0
 11
4559.6560235892748096
 21
712.5359358634425462
 31
0.0
  0
ARC
  5
164C
  8
VISIBLE
 10
4517.1560235892811761
 20
714.2859358634453883
 30
0.0
 40
1.7499999999999709
 50
180.0
 51
270.0
  0
LINE
  5
164D
  8
VISIBLE
 10
4515.4060235892820856
 20
787.1359358634454111
 30
0.0
 11
4515.4060235892811761
 21
714.2859358634453883
 31
0.0
  0
LINE
  5
164F
  8
VISIBLE
 10
4513.4060235892802666
 20
714.2859358634453883
 30
0.0
 11
4513.4060235892820856
 21
787.1359358634454111
 31
0.0
  0
ARC
  5
1650
  8
VISIBLE
 10
4517.1560235892811761
 20
714.2859358634453883
 30
0.0
 40
3.750000000000373
 50
180.0
 51
270.0
  0
LINE
  5
1651
  8
VISIBLE
 10
4559.6560235892748096
 20
710.5359358634447062
 30
0.0
 11
4517.1560235892811761
 21
710.5359358634447062
 31
0.0
  0
POLYLINE
  8
VISIBLE
  5
2DF1
  66
     1
 10
0.000000
 20
0.000000
 30
0.000000
  70
     8
  0
VERTEX
  8
VISIBLE
  5
2DF2
 10
3799.41
 20
714.286
 30
0.000000
  70
    32
  0
VERTEX
  8
VISIBLE
  5
2DF3
 10
3799.41
 20
714.264
 30
0.000000
  70
    32
  0
VERTEX
  8
VISIBLE
  5
2DF4
 10
3799.41
 20
714.243
 30
0.000000
  70
    32
  0
VERTEX
  8
VISIBLE
  5
2DF5
 10
3799.41
 20
714.221
 30
0.000000
  70
    32
  0
VERTEX
  8
VISIBLE
  5
2DF6
 10
3799.41
 20
714.200
 30
0.000000
  70
    32
  0
VERTEX
  8
VISIBLE
  5
2DF7
 10
3799.41
 20
714.178
 30
0.000000
  70
    32
  0
VERTEX
  8
VISIBLE
  5
2DF8
 10
3799.41
 20
714.157
 30
0.000000
  70
    32
  0
VERTEX
  8
VISIBLE
  5
2DF9
 10
3799.41
 20
714.135
 30
0.000000
  70
    32
  0
VERTEX
  8
VISIBLE
  5
2DFA
 10
3799.42
 20
714.114
 30
0.000000
  70
    32
  0
VERTEX
  8
VISIBLE
  5
2DFB
 10
3799.42
 20
714.093
 30
0.000000
  70
    32
  0
VERTEX
  8
VISIBLE
  5
2DFC
 10
3799.42
 20
714.071
 30
0.000000
  70
    32
  0
VERTEX
  8
VISIBLE
  5
2DFD
 10
3799.42
 20
714.050
 30
0.000000
  70
    32
  0
VERTEX
  8
VISIBLE
  5
2DFE
 10
3799.43
 20
714.029
 30
0.000000
  70
    32
  0
VERTEX
  8
VISIBLE
  5
2DFF
 10
3799.43
 20
714.008
 30
0.000000
  70
    32
  0
VERTEX
  8
VISIBLE
  5
2E00
 10
3799.44
 20
713.987
 30
0.000000
  70
    32
  0
VERTEX
  8
VISIBLE
  5
2E01
 10
3799.44
 20
713.966
 30
0.000000
  70
    32
  0
VERTEX
  8
VISIBLE
  5
2E02
 10
3799.44
 20
713.945
 30
0.000000
  70
    32
  0
VERTEX
  8
VISIBLE
  5
2E03
 10
3799.45
 20
713.924
 30
0.000000
  70
    32
  0
VERTEX
  8
VISIBLE
  5
2E04
 10
3799.45
 20
713.903
 30
0.000000
  70
    32
  0
VERTEX
  8
VISIBLE
  5
2E05
 10
3799.46
 20
713.883
 30
0.000000
  70
    32
  0
VERTEX
  8
VISIBLE
  5
2E06
 10
3799.47
 20
713.862
 30
0.000000
  70
    32
  0
VERTEX
  8
VISIBLE
  5
2E07
 10
3799.47
 20
713.842
 30
0.000000
  70
    32
  0
VERTEX
  8
VISIBLE
  5
2E08
 10
3799.48
 20
713.821
 30
0.000000
  70
    32
  0
VERTEX
  8
VISIBLE
  5
2E09
 10
3799.48
 20
713.801
 30
0.000000
  70
    32
  0
VERTEX
  8
VISIBLE
  5
2E0A
 10
3799.49
 20
713.780
 30
0.000000
  70
    32
  0
VERTEX
  8
VISIBLE
  5
2E0B
 10
3799.50
 20
713.760
 30
0.000000
  70
    32
  0
VERTEX
  8
VISIBLE
  5
2E0C
 10
3799.50
 20
713.740
 30
0.000000
  70
    32
  0
VERTEX
  8
VISIBLE
  5
2E0D
 10
3799.51
 20
713.720
 30
0.000000
  70
    32
  0
VERTEX
  8
VISIBLE
  5
2E0E
 10
3799.52
 20
713.700
 30
0.000000
  70
    32
  0
VERTEX
  8
VISIBLE
  5
2E0F
 10
3799.53
 20
713.680
 30
0.000000
  70
    32
  0
VERTEX
  8
VISIBLE
  5
2E10
 10
3799.54
 20
713.660
 30
0.000000
  70
    32
  0
VERTEX
  8
VISIBLE
  5
2E11
 10
3799.54
 20
713.641
 30
0.000000
  70
    32
  0
VERTEX
  8
VISIBLE
  5
2E12
 10
3799.55
 20
713.621
 30
0.000000
  70
    32
  0
VERTEX
  8
VISIBLE
  5
2E13
 10
3799.56
 20
713.602
 30
0.000000
  70
    32
  0
VERTEX
  8
VISIBLE
  5
2E14
 10
3799.57
 20
713.582
 30
0.000000
  70
    32
  0
VERTEX
  8
VISIBLE
  5
2E15
 10
3799.58
 20
713.563
 30
0.000000
  70
    32
  0
VERTEX
  8
VISIBLE
  5
2E16
 10
3799.59
 20
713.544
 30
0.000000
  70
    32
  0
VERTEX
  8
VISIBLE
  5
2E17
 10
3799.60
 20
713.525
 30
0.000000
  70
    32
  0
VERTEX
  8
VISIBLE
  5
2E18
 10
3799.61
 20
713.506
 30
0.000000
  70
    32
  0
VERTEX
  8
VISIBLE
  5
2E19
 10
3799.62
 20
713.487
 30
0.000000
  70
    32
  0
VERTEX
  8
VISIBLE
  5
2E1A
 10
3799.63
 20
713.468
 30
0.000000
  70
    32
  0
VERTEX
  8
VISIBLE
  5
2E1B
 10
3799.64
 20
713.450
 30
0.000000
  70
    32
  0
VERTEX
  8
VISIBLE
  5
2E1C
 10
3799.65
 20
713.431
 30
0.000000
  70
    32
  0
VERTEX
  8
VISIBLE
  5
2E1D
 10
3799.66
 20
713.413
 30
0.000000
  70
    32
  0
VERTEX
  8
VISIBLE
  5
2E1E
 10
3799.68
 20
713.395
 30
0.000000
  70
    32
  0
VERTEX
  8
VISIBLE
  5
2E1F
 10
3799.69
 20
713.376
 30
0.000000
  70
    32
  0
VERTEX
  8
VISIBLE
  5
2E20
 10
3799.70
 20
713.358
 30
0.000000
  70
    32
  0
VERTEX
  8
VISIBLE
  5
2E21
 10
3799.71
 20
713.341
 30
0.000000
  70
    32
  0
VERTEX
  8
VISIBLE
  5
2E22
 10
3799.72
 20
713.323
 30
0.000000
  70
    32
  0
VERTEX
  8
VISIBLE
  5
2E23
 10
3799.74
 20
713.305
 30
0.000000
  70
    32
  0
VERTEX
  8
VISIBLE
  5
2E24
 10
3799.75
 20
713.288
 30
0.000000
  70
    32
  0
VERTEX
  8
VISIBLE
  5
2E25
 10
3799.76
 20
713.271
 30
0.000000
  70
    32
  0
VERTEX
  8
VISIBLE
  5
2E26
 10
3799.77
 20
713.254
 30
0.000000
  70
    32
  0
VERTEX
  8
VISIBLE
  5
2E27
 10
3799.79
 20
713.237
 30
0.000000
  70
    32
  0
VERTEX
  8
VISIBLE
  5
2E28
 10
3799.80
 20
713.220
 30
0.000000
  70
    32
  0
VERTEX
  8
VISIBLE
  5
2E29
 10
3799.81
 20
713.203
 30
0.000000
  70
    32
  0
VERTEX
  8
VISIBLE
  5
2E2A
 10
3799.83
 20
713.186
 30
0.000000
  70
    32
  0
VERTEX
  8
VISIBLE
  5
2E2B
 10
3799.84
 20
713.170
 30
0.000000
  70
    32
  0
VERTEX
  8
VISIBLE
  5
2E2C
 10
3799.86
 20
713.154
 30
0.000000
  70
    32
  0
VERTEX
  8
VISIBLE
  5
2E2D
 10
3799.87
 20
713.138
 30
0.000000
  70
    32
  0
VERTEX
  8
VISIBLE
  5
2E2E
 10
3799.89
 20
713.122
 30
0.000000
  70
    32
  0
VERTEX
  8
VISIBLE
  5
2E2F
 10
3799.90
 20
713.106
 30
0.000000
  70
    32
  0
VERTEX
  8
VISIBLE
  5
2E30
 10
3799.91
 20
713.090
 30
0.000000
  70
    32
  0
VERTEX
  8
VISIBLE
  5
2E31
 10
3799.93
 20
713.075
 30
0.000000
  70
    32
  0
VERTEX
  8
VISIBLE
  5
2E32
 10
3799.95
 20
713.060
 30
0.000000
  70
    32
  0
VERTEX
  8
VISIBLE
  5
2E33
 10
3799.96
 20
713.045
 30
0.000000
  70
    32
  0
VERTEX
  8
VISIBLE
  5
2E34
 10
3799.98
 20
713.030
 30
0.000000
  70
    32
  0
VERTEX
  8
VISIBLE
  5
2E35
 10
3799.99
 20
713.015
 30
0.000000
  70
    32
  0
VERTEX
  8
VISIBLE
  5
2E36
 10
3800.01
 20
713.000
 30
0.000000
  70
    32
  0
VERTEX
  8
VISIBLE
  5
2E37
 10
3800.02
 20
712.986
 30
0.000000
  70
    32
  0
VERTEX
  8
VISIBLE
  5
2E38
 10
3800.04
 20
712.972
 30
0.000000
  70
    32
  0
VERTEX
  8
VISIBLE
  5
2E39
 10
3800.06
 20
712.958
 30
0.000000
  70
    32
  0
VERTEX
  8
VISIBLE
  5
2E3A
 10
3800.07
 20
712.944
 30
0.000000
  70
    32
  0
VERTEX
  8
VISIBLE
  5
2E3B
 10
3800.09
 20
712.930
 30
0.000000
  70
    32
  0
VERTEX
  8
VISIBLE
  5
2E3C
 10
3800.11
 20
712.917
 30
0.000000
  70
    32
  0
VERTEX
  8
VISIBLE
  5
2E3D
 10
3800.12
 20
712.904
 30
0.000000
  70
    32
  0
VERTEX
  8
VISIBLE
  5
2E3E
 10
3800.14
 20
712.891
 30
0.000000
  70
    32
  0
VERTEX
  8
VISIBLE
  5
2E3F
 10
3800.16
 20
712.878
 30
0.000000
  70
    32
  0
VERTEX
  8
VISIBLE
  5
2E40
 10
3800.18
 20
712.865
 30
0.000000
  70
    32
  0
VERTEX
  8
VISIBLE
  5
2E41
 10
3800.19
 20
712.853
 30
0.000000
  70
    32
  0
VERTEX
  8
VISIBLE
  5
2E42
 10
3800.21
 20
712.840
 30
0.000000
  70
    32
  0
VERTEX
  8
VISIBLE
  5
2E43
 10
3800.23
 20
712.828
 30
0.000000
  70
    32
  0
VERTEX
  8
VISIBLE
  5
2E44
 10
3800.25
 20
712.817
 30
0.000000
  70
    32
  0
VERTEX
  8
VISIBLE
  5
2E45
 10
3800.26
 20
712.805
 30
0.000000
  70
    32
  0
VERTEX
  8
VISIBLE
  5
2E46
 10
3800.28
 20
712.794
 30
0.000000
  70
    32
  0
VERTEX
  8
VISIBLE
  5
2E47
 10
3800.30
 20
712.782
 30
0.000000
  70
    32
  0
VERTEX
  8
VISIBLE
  5
2E48
 10
3800.32
 20
712.771
 30
0.000000
  70
    32
  0
VERTEX
  8
VISIBLE
  5
2E49
 10
3800.34
 20
712.761
 30
0.000000
  70
    32
  0
VERTEX
  8
VISIBLE
  5
2E4A
 10
3800.36
 20
712.750
 30
0.000000
  70
    32
  0
VERTEX
  8
VISIBLE
  5
2E4B
 10
3800.38
 20
712.740
 30
0.000000
  70
    32
  0
VERTEX
  8
VISIBLE
  5
2E4C
 10
3800.39
 20
712.730
 30
0.000000
  70
    32
  0
VERTEX
  8
VISIBLE
  5
2E4D
 10
3800.41
 20
712.720
 30
0.000000
  70
    32
  0
VERTEX
  8
VISIBLE
  5
2E4E
 10
3800.43
 20
712.710
 30
0.000000
  70
    32
  0
VERTEX
  8
VISIBLE
  5
2E4F
 10
3800.45
 20
712.701
 30
0.000000
  70
    32
  0
VERTEX
  8
VISIBLE
  5
2E50
 10
3800.47
 20
712.692
 30
0.000000
  70
    32
  0
VERTEX
  8
VISIBLE
  5
2E51
 10
3800.49
 20
712.683
 30
0.000000
  70
    32
  0
VERTEX
  8
VISIBLE
  5
2E52
 10
3800.51
 20
712.674
 30
0.000000
  70
    32
  0
VERTEX
  8
VISIBLE
  5
2E53
 10
3800.53
 20
712.666
 30
0.000000
  70
    32
  0
VERTEX
  8
VISIBLE
  5
2E54
 10
3800.55
 20
712.657
 30
0.000000
  70
    32
  0
VERTEX
  8
VISIBLE
  5
2E55
 10
3800.57
 20
712.649
 30
0.000000
  70
    32
  0
VERTEX
  8
VISIBLE
  5
2E56
 10
3800.59
 20
712.642
 30
0.000000
  70
    32
  0
VERTEX
  8
VISIBLE
  5
2E57
 10
3800.61
 20
712.634
 30
0.000000
  70
    32
  0
VERTEX
  8
VISIBLE
  5
2E58
 10
3800.63
 20
712.627
 30
0.000000
  70
    32
  0
VERTEX
  8
VISIBLE
  5
2E59
 10
3800.65
 20
712.620
 30
0.000000
  70
    32
  0
VERTEX
  8
VISIBLE
  5
2E5A
 10
3800.67
 20
712.614
 30
0.000000
  70
    32
  0
VERTEX
  8
VISIBLE
  5
2E5B
 10
3800.69
 20
712.607
 30
0.000000
  70
    32
  0
VERTEX
  8
VISIBLE
  5
2E5C
 10
3800.71
 20
712.601
 30
0.000000
  70
    32
  0
VERTEX
  8
VISIBLE
  5
2E5D
 10
3800.73
 20
712.595
 30
0.000000
  70
    32
  0
VERTEX
  8
VISIBLE
  5
2E5E
 10
3800.75
 20
712.589
 30
0.000000
  70
    32
  0
VERTEX
  8
VISIBLE
  5
2E5F
 10
3800.77
 20
712.584
 30
0.000000
  70
    32
  0
VERTEX
  8
VISIBLE
  5
2E60
 10
3800.79
 20
712.579
 30
0.000000
  70
    32
  0
VERTEX
  8
VISIBLE
  5
2E61
 10
3800.82
 20
712.574
 30
0.000000
  70
    32
  0
VERTEX
  8
VISIBLE
  5
2E62
 10
3800.84
 20
712.570
 30
0.000000
  70
    32
  0
VERTEX
  8
VISIBLE
  5
2E63
 10
3800.86
 20
712.565
 30
0.000000
  70
    32
  0
VERTEX
  8
VISIBLE
  5
2E64
 10
3800.88
 20
712.561
 30
0.000000
  70
    32
  0
VERTEX
  8
VISIBLE
  5
2E65
 10
3800.90
 20
712.558
 30
0.000000
  70
    32
  0
VERTEX
  8
VISIBLE
  5
2E66
 10
3800.92
 20
712.554
 30
0.000000
  70
    32
  0
VERTEX
  8
VISIBLE
  5
2E67
 10
3800.94
 20
712.551
 30
0.000000
  70
    32
  0
VERTEX
  8
VISIBLE
  5
2E68
 10
3800.96
 20
712.548
 30
0.000000
  70
    32
  0
VERTEX
  8
VISIBLE
  5
2E69
 10
3800.98
 20
712.546
 30
0.000000
  70
    32
  0
VERTEX
  8
VISIBLE
  5
2E6A
 10
3801.01
 20
712.543
 30
0.000000
  70
    32
  0
VERTEX
  8
VISIBLE
  5
2E6B
 10
3801.03
 20
712.541
 30
0.000000
  70
    32
  0
VERTEX
  8
VISIBLE
  5
2E6C
 10
3801.05
 20
712.540
 30
0.000000
  70
    32
  0
VERTEX
  8
VISIBLE
  5
2E6D
 10
3801.07
 20
712.538
 30
0.000000
  70
    32
  0
VERTEX
  8
VISIBLE
  5
2E6E
 10
3801.09
 20
712.537
 30
0.000000
  70
    32
  0
VERTEX
  8
VISIBLE
  5
2E6F
 10
3801.11
 20
712.537
 30
0.000000
  70
    32
  0
VERTEX
  8
VISIBLE
  5
2E70
 10
3801.13
 20
712.536
 30
0.000000
  70
    32
  0
VERTEX
  8
VISIBLE
  5
2E71
 10
3801.16
 20
712.536
 30
0.000000
  70
    32
  0
SEQEND
  8
VISIBLE
  5
2E72
  0
POLYLINE
  8
VISIBLE
  5
2E73
  66
     1
 10
0.000000
 20
0.000000
 30
0.000000
  70
     8
  0
VERTEX
  8
VISIBLE
  5
2E74
 10
3801.16
 20
710.536
 30
0.000000
  70
    32
  0
VERTEX
  8
VISIBLE
  5
2E75
 10
3801.11
 20
710.536
 30
0.000000
  70
    32
  0
VERTEX
  8
VISIBLE
  5
2E76
 10
3801.06
 20
710.537
 30
0.000000
  70
    32
  0
VERTEX
  8
VISIBLE
  5
2E77
 10
3801.02
 20
710.539
 30
0.000000
  70
    32
  0
VERTEX
  8
VISIBLE
  5
2E78
 10
3800.97
 20
710.541
 30
0.000000
  70
    32
  0
VERTEX
  8
VISIBLE
  5
2E79
 10
3800.93
 20
710.544
 30
0.000000
  70
    32
  0
VERTEX
  8
VISIBLE
  5
2E7A
 10
3800.88
 20
710.548
 30
0.000000
  70
    32
  0
VERTEX
  8
VISIBLE
  5
2E7B
 10
3800.83
 20
710.552
 30
0.000000
  70
    32
  0
VERTEX
  8
VISIBLE
  5
2E7C
 10
3800.79
 20
710.557
 30
0.000000
  70
    32
  0
VERTEX
  8
VISIBLE
  5
2E7D
 10
3800.74
 20
710.562
 30
0.000000
  70
    32
  0
VERTEX
  8
VISIBLE
  5
2E7E
 10
3800.70
 20
710.568
 30
0.000000
  70
    32
  0
VERTEX
  8
VISIBLE
  5
2E7F
 10
3800.65
 20
710.575
 30
0.000000
  70
    32
  0
VERTEX
  8
VISIBLE
  5
2E80
 10
3800.61
 20
710.582
 30
0.000000
  70
    32
  0
VERTEX
  8
VISIBLE
  5
2E81
 10
3800.56
 20
710.590
 30
0.000000
  70
    32
  0
VERTEX
  8
VISIBLE
  5
2E82
 10
3800.52
 20
710.599
 30
0.000000
  70
    32
  0
VERTEX
  8
VISIBLE
  5
2E83
 10
3800.47
 20
710.608
 30
0.000000
  70
    32
  0
VERTEX
  8
VISIBLE
  5
2E84
 10
3800.43
 20
710.618
 30
0.000000
  70
    32
  0
VERTEX
  8
VISIBLE
  5
2E85
 10
3800.38
 20
710.628
 30
0.000000
  70
    32
  0
VERTEX
  8
VISIBLE
  5
2E86
 10
3800.34
 20
710.639
 30
0.000000
  70
    32
  0
VERTEX
  8
VISIBLE
  5
2E87
 10
3800.29
 20
710.651
 30
0.000000
  70
    32
  0
VERTEX
  8
VISIBLE
  5
2E88
 10
3800.25
 20
710.663
 30
0.000000
  70
    32
  0
VERTEX
  8
VISIBLE
  5
2E89
 10
3800.20
 20
710.675
 30
0.000000
  70
    32
  0
VERTEX
  8
VISIBLE
  5
2E8A
 10
3800.16
 20
710.688
 30
0.000000
  70
    32
  0
VERTEX
  8
VISIBLE
  5
2E8B
 10
3800.12
 20
710.702
 30
0.000000
  70
    32
  0
VERTEX
  8
VISIBLE
  5
2E8C
 10
3800.07
 20
710.716
 30
0.000000
  70
    32
  0
VERTEX
  8
VISIBLE
  5
2E8D
 10
3800.03
 20
710.731
 30
0.000000
  70
    32
  0
VERTEX
  8
VISIBLE
  5
2E8E
 10
3799.99
 20
710.747
 30
0.000000
  70
    32
  0
VERTEX
  8
VISIBLE
  5
2E8F
 10
3799.94
 20
710.763
 30
0.000000
  70
    32
  0
VERTEX
  8
VISIBLE
  5
2E90
 10
3799.90
 20
710.779
 30
0.000000
  70
    32
  0
VERTEX
  8
VISIBLE
  5
2E91
 10
3799.86
 20
710.796
 30
0.000000
  70
    32
  0
VERTEX
  8
VISIBLE
  5
2E92
 10
3799.82
 20
710.814
 30
0.000000
  70
    32
  0
VERTEX
  8
VISIBLE
  5
2E93
 10
3799.77
 20
710.832
 30
0.000000
  70
    32
  0
VERTEX
  8
VISIBLE
  5
2E94
 10
3799.73
 20
710.850
 30
0.000000
  70
    32
  0
VERTEX
  8
VISIBLE
  5
2E95
 10
3799.69
 20
710.870
 30
0.000000
  70
    32
  0
VERTEX
  8
VISIBLE
  5
2E96
 10
3799.65
 20
710.889
 30
0.000000
  70
    32
  0
VERTEX
  8
VISIBLE
  5
2E97
 10
3799.61
 20
710.909
 30
0.000000
  70
    32
  0
VERTEX
  8
VISIBLE
  5
2E98
 10
3799.57
 20
710.930
 30
0.000000
  70
    32
  0
VERTEX
  8
VISIBLE
  5
2E99
 10
3799.52
 20
710.951
 30
0.000000
  70
    32
  0
VERTEX
  8
VISIBLE
  5
2E9A
 10
3799.48
 20
710.973
 30
0.000000
  70
    32
  0
VERTEX
  8
VISIBLE
  5
2E9B
 10
3799.44
 20
710.995
 30
0.000000
  70
    32
  0
VERTEX
  8
VISIBLE
  5
2E9C
 10
3799.40
 20
711.017
 30
0.000000
  70
    32
  0
VERTEX
  8
VISIBLE
  5
2E9D
 10
3799.36
 20
711.040
 30
0.000000
  70
    32
  0
VERTEX
  8
VISIBLE
  5
2E9E
 10
3799.32
 20
711.064
 30
0.000000
  70
    32
  0
VERTEX
  8
VISIBLE
  5
2E9F
 10
3799.28
 20
711.088
 30
0.000000
  70
    32
  0
VERTEX
  8
VISIBLE
  5
2EA0
 10
3799.25
 20
711.112
 30
0.000000
  70
    32
  0
VERTEX
  8
VISIBLE
  5
2EA1
 10
3799.21
 20
711.137
 30
0.000000
  70
    32
  0
VERTEX
  8
VISIBLE
  5
2EA2
 10
3799.17
 20
711.163
 30
0.000000
  70
    32
  0
VERTEX
  8
VISIBLE
  5
2EA3
 10
3799.13
 20
711.188
 30
0.000000
  70
    32
  0
VERTEX
  8
VISIBLE
  5
2EA4
 10
3799.09
 20
711.215
 30
0.000000
  70
    32
  0
VERTEX
  8
VISIBLE
  5
2EA5
 10
3799.05
 20
711.241
 30
0.000000
  70
    32
  0
VERTEX
  8
VISIBLE
  5
2EA6
 10
3799.02
 20
711.268
 30
0.000000
  70
    32
  0
VERTEX
  8
VISIBLE
  5
2EA7
 10
3798.98
 20
711.296
 30
0.000000
  70
    32
  0
VERTEX
  8
VISIBLE
  5
2EA8
 10
3798.94
 20
711.324
 30
0.000000
  70
    32
  0
VERTEX
  8
VISIBLE
  5
2EA9
 10
3798.91
 20
711.352
 30
0.000000
  70
    32
  0
VERTEX
  8
VISIBLE
  5
2EAA
 10
3798.87
 20
711.381
 30
0.000000
  70
    32
  0
VERTEX
  8
VISIBLE
  5
2EAB
 10
3798.84
 20
711.410
 30
0.000000
  70
    32
  0
VERTEX
  8
VISIBLE
  5
2EAC
 10
3798.80
 20
711.440
 30
0.000000
  70
    32
  0
VERTEX
  8
VISIBLE
  5
2EAD
 10
3798.76
 20
711.470
 30
0.000000
  70
    32
  0
VERTEX
  8
VISIBLE
  5
2EAE
 10
3798.73
 20
711.500
 30
0.000000
  70
    32
  0
VERTEX
  8
VISIBLE
  5
2EAF
 10
3798.70
 20
711.531
 30
0.000000
  70
    32
  0
VERTEX
  8
VISIBLE
  5
2EB0
 10
3798.66
 20
711.562
 30
0.000000
  70
    32
  0
VERTEX
  8
VISIBLE
  5
2EB1
 10
3798.63
 20
711.594
 30
0.000000
  70
    32
  0
VERTEX
  8
VISIBLE
  5
2EB2
 10
3798.59
 20
711.626
 30
0.000000
  70
    32
  0
VERTEX
  8
VISIBLE
  5
2EB3
 10
3798.56
 20
711.658
 30
0.000000
  70
    32
  0
VERTEX
  8
VISIBLE
  5
2EB4
 10
3798.53
 20
711.691
 30
0.000000
  70
    32
  0
VERTEX
  8
VISIBLE
  5
2EB5
 10
3798.50
 20
711.724
 30
0.000000
  70
    32
  0
VERTEX
  8
VISIBLE
  5
2EB6
 10
3798.46
 20
711.757
 30
0.000000
  70
    32
  0
VERTEX
  8
VISIBLE
  5
2EB7
 10
3798.43
 20
711.791
 30
0.000000
  70
    32
  0
VERTEX
  8
VISIBLE
  5
2EB8
 10
3798.40
 20
711.825
 30
0.000000
  70
    32
  0
VERTEX
  8
VISIBLE
  5
2EB9
 10
3798.37
 20
711.860
 30
0.000000
  70
    32
  0
VERTEX
  8
VISIBLE
  5
2EBA
 10
3798.34
 20
711.895
 30
0.000000
  70
    32
  0
VERTEX
  8
VISIBLE
  5
2EBB
 10
3798.31
 20
711.930
 30
0.000000
  70
    32
  0
VERTEX
  8
VISIBLE
  5
2EBC
 10
3798.28
 20
711.965
 30
0.000000
  70
    32
  0
VERTEX
  8
VISIBLE
  5
2EBD
 10
3798.25
 20
712.001
 30
0.000000
  70
    32
  0
VERTEX
  8
VISIBLE
  5
2EBE
 10
3798.22
 20
712.037
 30
0.000000
  70
    32
  0
VERTEX
  8
VISIBLE
  5
2EBF
 10
3798.19
 20
712.074
 30
0.000000
  70
    32
  0
VERTEX
  8
VISIBLE
  5
2EC0
 10
3798.17
 20
712.110
 30
0.000000
  70
    32
  0
VERTEX
  8
VISIBLE
  5
2EC1
 10
3798.14
 20
712.147
 30
0.000000
  70
    32
  0
VERTEX
  8
VISIBLE
  5
2EC2
 10
3798.11
 20
712.185
 30
0.000000
  70
    32
  0
VERTEX
  8
VISIBLE
  5
2EC3
 10
3798.08
 20
712.222
 30
0.000000
  70
    32
  0
VERTEX
  8
VISIBLE
  5
2EC4
 10
3798.06
 20
712.260
 30
0.000000
  70
    32
  0
VERTEX
  8
VISIBLE
  5
2EC5
 10
3798.03
 20
712.299
 30
0.000000
  70
    32
  0
VERTEX
  8
VISIBLE
  5
2EC6
 10
3798.01
 20
712.337
 30
0.000000
  70
    32
  0
VERTEX
  8
VISIBLE
  5
2EC7
 10
3797.98
 20
712.376
 30
0.000000
  70
    32
  0
VERTEX
  8
VISIBLE
  5
2EC8
 10
3797.96
 20
712.415
 30
0.000000
  70
    32
  0
VERTEX
  8
VISIBLE
  5
2EC9
 10
3797.93
 20
712.454
 30
0.000000
  70
    32
  0
VERTEX
  8
VISIBLE
  5
2ECA
 10
3797.91
 20
712.494
 30
0.000000
  70
    32
  0
VERTEX
  8
VISIBLE
  5
2ECB
 10
3797.89
 20
712.534
 30
0.000000
  70
    32
  0
VERTEX
  8
VISIBLE
  5
2ECC
 10
3797.86
 20
712.574
 30
0.000000
  70
    32
  0
VERTEX
  8
VISIBLE
  5
2ECD
 10
3797.84
 20
712.614
 30
0.000000
  70
    32
  0
VERTEX
  8
VISIBLE
  5
2ECE
 10
3797.82
 20
712.655
 30
0.000000
  70
    32
  0
VERTEX
  8
VISIBLE
  5
2ECF
 10
3797.80
 20
712.696
 30
0.000000
  70
    32
  0
VERTEX
  8
VISIBLE
  5
2ED0
 10
3797.78
 20
712.737
 30
0.000000
  70
    32
  0
VERTEX
  8
VISIBLE
  5
2ED1
 10
3797.76
 20
712.778
 30
0.000000
  70
    32
  0
VERTEX
  8
VISIBLE
  5
2ED2
 10
3797.74
 20
712.819
 30
0.000000
  70
    32
  0
VERTEX
  8
VISIBLE
  5
2ED3
 10
3797.72
 20
712.861
 30
0.000000
  70
    32
  0
VERTEX
  8
VISIBLE
  5
2ED4
 10
3797.70
 20
712.903
 30
0.000000
  70
    32
  0
VERTEX
  8
VISIBLE
  5
2ED5
 10
3797.68
 20
712.945
 30
0.000000
  70
    32
  0
VERTEX
  8
VISIBLE
  5
2ED6
 10
3797.67
 20
712.988
 30
0.000000
  70
    32
  0
VERTEX
  8
VISIBLE
  5
2ED7
 10
3797.65
 20
713.030
 30
0.000000
  70
    32
  0
VERTEX
  8
VISIBLE
  5
2ED8
 10
3797.63
 20
713.073
 30
0.000000
  70
    32
  0
VERTEX
  8
VISIBLE
  5
2ED9
 10
3797.62
 20
713.116
 30
0.000000
  70
    32
  0
VERTEX
  8
VISIBLE
  5
2EDA
 10
3797.60
 20
713.159
 30
0.000000
  70
    32
  0
VERTEX
  8
VISIBLE
  5
2EDB
 10
3797.59
 20
713.203
 30
0.000000
  70
    32
  0
VERTEX
  8
VISIBLE
  5
2EDC
 10
3797.57
 20
713.246
 30
0.000000
  70
    32
  0
VERTEX
  8
VISIBLE
  5
2EDD
 10
3797.56
 20
713.290
 30
0.000000
  70
    32
  0
VERTEX
  8
VISIBLE
  5
2EDE
 10
3797.55
 20
713.334
 30
0.000000
  70
    32
  0
VERTEX
  8
VISIBLE
  5
2EDF
 10
3797.53
 20
713.378
 30
0.000000
  70
    32
  0
VERTEX
  8
VISIBLE
  5
2EE0
 10
3797.52
 20
713.422
 30
0.000000
  70
    32
  0
VERTEX
  8
VISIBLE
  5
2EE1
 10
3797.51
 20
713.466
 30
0.000000
  70
    32
  0
VERTEX
  8
VISIBLE
  5
2EE2
 10
3797.50
 20
713.511
 30
0.000000
  70
    32
  0
VERTEX
  8
VISIBLE
  5
2EE3
 10
3797.49
 20
713.555
 30
0.000000
  70
    32
  0
VERTEX
  8
VISIBLE
  5
2EE4
 10
3797.48
 20
713.600
 30
0.000000
  70
    32
  0
VERTEX
  8
VISIBLE
  5
2EE5
 10
3797.47
 20
713.645
 30
0.000000
  70
    32
  0
VERTEX
  8
VISIBLE
  5
2EE6
 10
3797.46
 20
713.690
 30
0.000000
  70
    32
  0
VERTEX
  8
VISIBLE
  5
2EE7
 10
3797.45
 20
713.735
 30
0.000000
  70
    32
  0
VERTEX
  8
VISIBLE
  5
2EE8
 10
3797.45
 20
713.781
 30
0.000000
  70
    32
  0
VERTEX
  8
VISIBLE
  5
2EE9
 10
3797.44
 20
713.826
 30
0.000000
  70
    32
  0
VERTEX
  8
VISIBLE
  5
2EEA
 10
3797.43
 20
713.872
 30
0.000000
  70
    32
  0
VERTEX
  8
VISIBLE
  5
2EEB
 10
3797.43
 20
713.917
 30
0.000000
  70
    32
  0
VERTEX
  8
VISIBLE
  5
2EEC
 10
3797.42
 20
713.963
 30
0.000000
  70
    32
  0
VERTEX
  8
VISIBLE
  5
2EED
 10
3797.42
 20
714.009
 30
0.000000
  70
    32
  0
VERTEX
  8
VISIBLE
  5
2EEE
 10
3797.41
 20
714.055
 30
0.000000
  70
    32
  0
VERTEX
  8
VISIBLE
  5
2EEF
 10
3797.41
 20
714.101
 30
0.000000
  70
    32
  0
VERTEX
  8
VISIBLE
  5
2EF0
 10
3797.41
 20
714.147
 30
0.000000
  70
    32
  0
VERTEX
  8
VISIBLE
  5
2EF1
 10
3797.41
 20
714.193
 30
0.000000
  70
    32
  0
VERTEX
  8
VISIBLE
  5
2EF2
 10
3797.41
 20
714.240
 30
0.000000
  70
    32
  0
VERTEX
  8
VISIBLE
  5
2EF3
 10
3797.41
 20
714.286
 30
0.000000
  70
    32
  0
SEQEND
  8
VISIBLE
  5
2EF4
  0
LINE
  5
1664
  8
VISIBLE
 10
3799.4060235892711717
 20
722.535935863445161
 30
0.0
 11
3799.4060235892729906
 21
714.2859358634450473
 31
0.0
  0
LINE
  5
1665
  8
VISIBLE
 10
3797.4060235892711717
 20
722.535935863445161
 30
0.0
 11
3799.4060235892711717
 21
722.535935863445161
 31
0.0
  0
LINE
  5
1666
  8
VISIBLE
 10
3797.4060235892748096
 20
714.2859358634450473
 30
0.0
 11
3797.4060235892711717
 21
722.535935863445161
 31
0.0
  0
LINE
  5
1667
  8
VISIBLE
 10
3801.1560235892748096
 20
712.5359358634462978
 30
0.0
 11
3843.6560235892798119
 21
712.5359358634449336
 31
0.0
  0
LINE
  5
1668
  8
VISIBLE
 10
3843.6560235892798119
 20
710.5359358634449336
 30
0.0
 11
3801.1560235892748096
 21
710.5359358634457294
 31
0.0
  0
ARC
  5
1669
  8
VISIBLE
 10
3843.6560235892798119
 20
714.2859358634450473
 30
0.0
 40
3.7500000000000511
 50
270.0
 51
0.0
  0
ARC
  5
166A
  8
VISIBLE
 10
3843.6560235892798119
 20
714.2859358634450473
 30
0.0
 40
1.750000000000042
 50
270.0
 51
0.0
  0
LINE
  5
166B
  8
VISIBLE
 10
3845.4060235892798119
 20
714.2859358634450473
 30
0.0
 11
3845.4060235892798119
 21
784.4296398499586758
 31
0.0
  0
LINE
  5
166C
  8
VISIBLE
 10
3847.4060235892789024
 20
785.1575803184910001
 30
0.0
 11
3847.4060235892789024
 21
714.2859358634450473
 31
0.0
  0
LINE
  5
1670
  8
VISIBLE
 10
3852.8415107766941219
 20
787.1359358634451837
 30
0.0
 11
3796.206023589275901
 21
766.5223043240605421
 31
0.0
  0
POLYLINE
  8
VISIBLE
  5
2EF5
  66
     1
 10
0.000000
 20
0.000000
 30
0.000000
  70
     8
  0
VERTEX
  8
VISIBLE
  5
2EF6
 10
4582.52
 20
1555.44
 30
0.000000
  70
    32
  0
VERTEX
  8
VISIBLE
  5
2EF7
 10
4582.59
 20
1555.43
 30
0.000000
  70
    32
  0
VERTEX
  8
VISIBLE
  5
2EF8
 10
4582.66
 20
1555.43
 30
0.000000
  70
    32
  0
VERTEX
  8
VISIBLE
  5
2EF9
 10
4582.73
 20
1555.42
 30
0.000000
  70
    32
  0
VERTEX
  8
VISIBLE
  5
2EFA
 10
4582.81
 20
1555.42
 30
0.000000
  70
    32
  0
VERTEX
  8
VISIBLE
  5
2EFB
 10
4582.88
 20
1555.41
 30
0.000000
  70
    32
  0
VERTEX
  8
VISIBLE
  5
2EFC
 10
4582.95
 20
1555.41
 30
0.000000
  70
    32
  0
VERTEX
  8
VISIBLE
  5
2EFD
 10
4583.02
 20
1555.41
 30
0.000000
  70
    32
  0
VERTEX
  8
VISIBLE
  5
2EFE
 10
4583.09
 20
1555.40
 30
0.000000
  70
    32
  0
VERTEX
  8
VISIBLE
  5
2EFF
 10
4583.16
 20
1555.40
 30
0.000000
  70
    32
  0
VERTEX
  8
VISIBLE
  5
2F00
 10
4583.23
 20
1555.39
 30
0.000000
  70
    32
  0
VERTEX
  8
VISIBLE
  5
2F01
 10
4583.30
 20
1555.39
 30
0.000000
  70
    32
  0
VERTEX
  8
VISIBLE
  5
2F02
 10
4583.37
 20
1555.38
 30
0.000000
  70
    32
  0
VERTEX
  8
VISIBLE
  5
2F03
 10
4583.44
 20
1555.38
 30
0.000000
  70
    32
  0
VERTEX
  8
VISIBLE
  5
2F04
 10
4583.51
 20
1555.37
 30
0.000000
  70
    32
  0
VERTEX
  8
VISIBLE
  5
2F05
 10
4583.59
 20
1555.37
 30
0.000000
  70
    32
  0
VERTEX
  8
VISIBLE
  5
2F06
 10
4583.66
 20
1555.36
 30
0.000000
  70
    32
  0
VERTEX
  8
VISIBLE
  5
2F07
 10
4583.73
 20
1555.36
 30
0.000000
  70
    32
  0
VERTEX
  8
VISIBLE
  5
2F08
 10
4583.80
 20
1555.36
 30
0.000000
  70
    32
  0
VERTEX
  8
VISIBLE
  5
2F09
 10
4583.87
 20
1555.35
 30
0.000000
  70
    32
  0
VERTEX
  8
VISIBLE
  5
2F0A
 10
4583.94
 20
1555.35
 30
0.000000
  70
    32
  0
VERTEX
  8
VISIBLE
  5
2F0B
 10
4584.01
 20
1555.34
 30
0.000000
  70
    32
  0
VERTEX
  8
VISIBLE
  5
2F0C
 10
4584.08
 20
1555.34
 30
0.000000
  70
    32
  0
VERTEX
  8
VISIBLE
  5
2F0D
 10
4584.15
 20
1555.33
 30
0.000000
  70
    32
  0
VERTEX
  8
VISIBLE
  5
2F0E
 10
4584.22
 20
1555.33
 30
0.000000
  70
    32
  0
VERTEX
  8
VISIBLE
  5
2F0F
 10
4584.29
 20
1555.32
 30
0.000000
  70
    32
  0
VERTEX
  8
VISIBLE
  5
2F10
 10
4584.36
 20
1555.32
 30
0.000000
  70
    32
  0
VERTEX
  8
VISIBLE
  5
2F11
 10
4584.44
 20
1555.31
 30
0.000000
  70
    32
  0
VERTEX
  8
VISIBLE
  5
2F12
 10
4584.51
 20
1555.31
 30
0.000000
  70
    32
  0
VERTEX
  8
VISIBLE
  5
2F13
 10
4584.58
 20
1555.31
 30
0.000000
  70
    32
  0
VERTEX
  8
VISIBLE
  5
2F14
 10
4584.65
 20
1555.30
 30
0.000000
  70
    32
  0
VERTEX
  8
VISIBLE
  5
2F15
 10
4584.72
 20
1555.30
 30
0.000000
  70
    32
  0
VERTEX
  8
VISIBLE
  5
2F16
 10
4584.79
 20
1555.29
 30
0.000000
  70
    32
  0
VERTEX
  8
VISIBLE
  5
2F17
 10
4584.86
 20
1555.29
 30
0.000000
  70
    32
  0
VERTEX
  8
VISIBLE
  5
2F18
 10
4584.93
 20
1555.28
 30
0.000000
  70
    32
  0
VERTEX
  8
VISIBLE
  5
2F19
 10
4585.00
 20
1555.28
 30
0.000000
  70
    32
  0
VERTEX
  8
VISIBLE
  5
2F1A
 10
4585.07
 20
1555.27
 30
0.000000
  70
    32
  0
VERTEX
  8
VISIBLE
  5
2F1B
 10
4585.14
 20
1555.27
 30
0.000000
  70
    32
  0
VERTEX
  8
VISIBLE
  5
2F1C
 10
4585.21
 20
1555.26
 30
0.000000
  70
    32
  0
VERTEX
  8
VISIBLE
  5
2F1D
 10
4585.29
 20
1555.26
 30
0.000000
  70
    32
  0
VERTEX
  8
VISIBLE
  5
2F1E
 10
4585.36
 20
1555.25
 30
0.000000
  70
    32
  0
VERTEX
  8
VISIBLE
  5
2F1F
 10
4585.43
 20
1555.25
 30
0.000000
  70
    32
  0
VERTEX
  8
VISIBLE
  5
2F20
 10
4585.50
 20
1555.25
 30
0.000000
  70
    32
  0
VERTEX
  8
VISIBLE
  5
2F21
 10
4585.57
 20
1555.24
 30
0.000000
  70
    32
  0
VERTEX
  8
VISIBLE
  5
2F22
 10
4585.64
 20
1555.24
 30
0.000000
  70
    32
  0
VERTEX
  8
VISIBLE
  5
2F23
 10
4585.71
 20
1555.23
 30
0.000000
  70
    32
  0
VERTEX
  8
VISIBLE
  5
2F24
 10
4585.78
 20
1555.23
 30
0.000000
  70
    32
  0
VERTEX
  8
VISIBLE
  5
2F25
 10
4585.85
 20
1555.22
 30
0.000000
  70
    32
  0
VERTEX
  8
VISIBLE
  5
2F26
 10
4585.92
 20
1555.22
 30
0.000000
  70
    32
  0
VERTEX
  8
VISIBLE
  5
2F27
 10
4585.99
 20
1555.21
 30
0.000000
  70
    32
  0
VERTEX
  8
VISIBLE
  5
2F28
 10
4586.07
 20
1555.21
 30
0.000000
  70
    32
  0
VERTEX
  8
VISIBLE
  5
2F29
 10
4586.14
 20
1555.20
 30
0.000000
  70
    32
  0
VERTEX
  8
VISIBLE
  5
2F2A
 10
4586.21
 20
1555.20
 30
0.000000
  70
    32
  0
VERTEX
  8
VISIBLE
  5
2F2B
 10
4586.28
 20
1555.20
 30
0.000000
  70
    32
  0
VERTEX
  8
VISIBLE
  5
2F2C
 10
4586.35
 20
1555.19
 30
0.000000
  70
    32
  0
VERTEX
  8
VISIBLE
  5
2F2D
 10
4586.42
 20
1555.19
 30
0.000000
  70
    32
  0
VERTEX
  8
VISIBLE
  5
2F2E
 10
4586.49
 20
1555.18
 30
0.000000
  70
    32
  0
VERTEX
  8
VISIBLE
  5
2F2F
 10
4586.56
 20
1555.18
 30
0.000000
  70
    32
  0
VERTEX
  8
VISIBLE
  5
2F30
 10
4586.63
 20
1555.17
 30
0.000000
  70
    32
  0
VERTEX
  8
VISIBLE
  5
2F31
 10
4586.70
 20
1555.17
 30
0.000000
  70
    32
  0
VERTEX
  8
VISIBLE
  5
2F32
 10
4586.77
 20
1555.16
 30
0.000000
  70
    32
  0
VERTEX
  8
VISIBLE
  5
2F33
 10
4586.84
 20
1555.16
 30
0.000000
  70
    32
  0
VERTEX
  8
VISIBLE
  5
2F34
 10
4586.92
 20
1555.15
 30
0.000000
  70
    32
  0
VERTEX
  8
VISIBLE
  5
2F35
 10
4586.99
 20
1555.15
 30
0.000000
  70
    32
  0
VERTEX
  8
VISIBLE
  5
2F36
 10
4587.06
 20
1555.15
 30
0.000000
  70
    32
  0
VERTEX
  8
VISIBLE
  5
2F37
 10
4587.13
 20
1555.14
 30
0.000000
  70
    32
  0
VERTEX
  8
VISIBLE
  5
2F38
 10
4587.20
 20
1555.14
 30
0.000000
  70
    32
  0
VERTEX
  8
VISIBLE
  5
2F39
 10
4587.27
 20
1555.13
 30
0.000000
  70
    32
  0
VERTEX
  8
VISIBLE
  5
2F3A
 10
4587.34
 20
1555.13
 30
0.000000
  70
    32
  0
VERTEX
  8
VISIBLE
  5
2F3B
 10
4587.41
 20
1555.12
 30
0.000000
  70
    32
  0
VERTEX
  8
VISIBLE
  5
2F3C
 10
4587.48
 20
1555.12
 30
0.000000
  70
    32
  0
VERTEX
  8
VISIBLE
  5
2F3D
 10
4587.55
 20
1555.11
 30
0.000000
  70
    32
  0
VERTEX
  8
VISIBLE
  5
2F3E
 10
4587.62
 20
1555.11
 30
0.000000
  70
    32
  0
VERTEX
  8
VISIBLE
  5
2F3F
 10
4587.69
 20
1555.10
 30
0.000000
  70
    32
  0
VERTEX
  8
VISIBLE
  5
2F40
 10
4587.77
 20
1555.10
 30
0.000000
  70
    32
  0
VERTEX
  8
VISIBLE
  5
2F41
 10
4587.84
 20
1555.10
 30
0.000000
  70
    32
  0
VERTEX
  8
VISIBLE
  5
2F42
 10
4587.91
 20
1555.09
 30
0.000000
  70
    32
  0
VERTEX
  8
VISIBLE
  5
2F43
 10
4587.98
 20
1555.09
 30
0.000000
  70
    32
  0
VERTEX
  8
VISIBLE
  5
2F44
 10
4588.05
 20
1555.08
 30
0.000000
  70
    32
  0
VERTEX
  8
VISIBLE
  5
2F45
 10
4588.12
 20
1555.08
 30
0.000000
  70
    32
  0
VERTEX
  8
VISIBLE
  5
2F46
 10
4588.19
 20
1555.07
 30
0.000000
  70
    32
  0
VERTEX
  8
VISIBLE
  5
2F47
 10
4588.26
 20
1555.07
 30
0.000000
  70
    32
  0
VERTEX
  8
VISIBLE
  5
2F48
 10
4588.33
 20
1555.06
 30
0.000000
  70
    32
  0
VERTEX
  8
VISIBLE
  5
2F49
 10
4588.40
 20
1555.06
 30
0.000000
  70
    32
  0
VERTEX
  8
VISIBLE
  5
2F4A
 10
4588.47
 20
1555.05
 30
0.000000
  70
    32
  0
VERTEX
  8
VISIBLE
  5
2F4B
 10
4588.54
 20
1555.05
 30
0.000000
  70
    32
  0
VERTEX
  8
VISIBLE
  5
2F4C
 10
4588.62
 20
1555.05
 30
0.000000
  70
    32
  0
VERTEX
  8
VISIBLE
  5
2F4D
 10
4588.69
 20
1555.04
 30
0.000000
  70
    32
  0
VERTEX
  8
VISIBLE
  5
2F4E
 10
4588.76
 20
1555.04
 30
0.000000
  70
    32
  0
VERTEX
  8
VISIBLE
  5
2F4F
 10
4588.83
 20
1555.03
 30
0.000000
  70
    32
  0
VERTEX
  8
VISIBLE
  5
2F50
 10
4588.90
 20
1555.03
 30
0.000000
  70
    32
  0
VERTEX
  8
VISIBLE
  5
2F51
 10
4588.97
 20
1555.02
 30
0.000000
  70
    32
  0
VERTEX
  8
VISIBLE
  5
2F52
 10
4589.04
 20
1555.02
 30
0.000000
  70
    32
  0
VERTEX
  8
VISIBLE
  5
2F53
 10
4589.11
 20
1555.01
 30
0.000000
  70
    32
  0
VERTEX
  8
VISIBLE
  5
2F54
 10
4589.18
 20
1555.01
 30
0.000000
  70
    32
  0
VERTEX
  8
VISIBLE
  5
2F55
 10
4589.25
 20
1555.00
 30
0.000000
  70
    32
  0
VERTEX
  8
VISIBLE
  5
2F56
 10
4589.32
 20
1555.00
 30
0.000000
  70
    32
  0
VERTEX
  8
VISIBLE
  5
2F57
 10
4589.40
 20
1555.00
 30
0.000000
  70
    32
  0
VERTEX
  8
VISIBLE
  5
2F58
 10
4589.47
 20
1554.99
 30
0.000000
  70
    32
  0
VERTEX
  8
VISIBLE
  5
2F59
 10
4589.54
 20
1554.99
 30
0.000000
  70
    32
  0
VERTEX
  8
VISIBLE
  5
2F5A
 10
4589.61
 20
1554.98
 30
0.000000
  70
    32
  0
VERTEX
  8
VISIBLE
  5
2F5B
 10
4589.68
 20
1554.98
 30
0.000000
  70
    32
  0
VERTEX
  8
VISIBLE
  5
2F5C
 10
4589.75
 20
1554.97
 30
0.000000
  70
    32
  0
VERTEX
  8
VISIBLE
  5
2F5D
 10
4589.82
 20
1554.97
 30
0.000000
  70
    32
  0
VERTEX
  8
VISIBLE
  5
2F5E
 10
4589.89
 20
1554.96
 30
0.000000
  70
    32
  0
VERTEX
  8
VISIBLE
  5
2F5F
 10
4589.96
 20
1554.96
 30
0.000000
  70
    32
  0
VERTEX
  8
VISIBLE
  5
2F60
 10
4590.03
 20
1554.95
 30
0.000000
  70
    32
  0
VERTEX
  8
VISIBLE
  5
2F61
 10
4590.10
 20
1554.95
 30
0.000000
  70
    32
  0
VERTEX
  8
VISIBLE
  5
2F62
 10
4590.17
 20
1554.95
 30
0.000000
  70
    32
  0
VERTEX
  8
VISIBLE
  5
2F63
 10
4590.25
 20
1554.94
 30
0.000000
  70
    32
  0
VERTEX
  8
VISIBLE
  5
2F64
 10
4590.32
 20
1554.94
 30
0.000000
  70
    32
  0
VERTEX
  8
VISIBLE
  5
2F65
 10
4590.39
 20
1554.93
 30
0.000000
  70
    32
  0
VERTEX
  8
VISIBLE
  5
2F66
 10
4590.46
 20
1554.93
 30
0.000000
  70
    32
  0
VERTEX
  8
VISIBLE
  5
2F67
 10
4590.53
 20
1554.92
 30
0.000000
  70
    32
  0
VERTEX
  8
VISIBLE
  5
2F68
 10
4590.60
 20
1554.92
 30
0.000000
  70
    32
  0
VERTEX
  8
VISIBLE
  5
2F69
 10
4590.67
 20
1554.91
 30
0.000000
  70
    32
  0
VERTEX
  8
VISIBLE
  5
2F6A
 10
4590.74
 20
1554.91
 30
0.000000
  70
    32
  0
VERTEX
  8
VISIBLE
  5
2F6B
 10
4590.81
 20
1554.90
 30
0.000000
  70
    32
  0
VERTEX
  8
VISIBLE
  5
2F6C
 10
4590.88
 20
1554.90
 30
0.000000
  70
    32
  0
VERTEX
  8
VISIBLE
  5
2F6D
 10
4590.95
 20
1554.90
 30
0.000000
  70
    32
  0
VERTEX
  8
VISIBLE
  5
2F6E
 10
4591.02
 20
1554.89
 30
0.000000
  70
    32
  0
VERTEX
  8
VISIBLE
  5
2F6F
 10
4591.10
 20
1554.89
 30
0.000000
  70
    32
  0
VERTEX
  8
VISIBLE
  5
2F70
 10
4591.17
 20
1554.88
 30
0.000000
  70
    32
  0
VERTEX
  8
VISIBLE
  5
2F71
 10
4591.24
 20
1554.88
 30
0.000000
  70
    32
  0
VERTEX
  8
VISIBLE
  5
2F72
 10
4591.31
 20
1554.87
 30
0.000000
  70
    32
  0
VERTEX
  8
VISIBLE
  5
2F73
 10
4591.38
 20
1554.87
 30
0.000000
  70
    32
  0
VERTEX
  8
VISIBLE
  5
2F74
 10
4591.45
 20
1554.86
 30
0.000000
  70
    32
  0
VERTEX
  8
VISIBLE
  5
2F75
 10
4591.52
 20
1554.86
 30
0.000000
  70
    32
  0
VERTEX
  8
VISIBLE
  5
2F76
 10
4591.59
 20
1554.85
 30
0.000000
  70
    32
  0
VERTEX
  8
VISIBLE
  5
2F77
 10
4591.66
 20
1554.85
 30
0.000000
  70
    32
  0
VERTEX
  8
VISIBLE
  5
2F78
 10
4591.73
 20
1554.84
 30
0.000000
  70
    32
  0
VERTEX
  8
VISIBLE
  5
2F79
 10
4591.80
 20
1554.84
 30
0.000000
  70
    32
  0
VERTEX
  8
VISIBLE
  5
2F7A
 10
4591.87
 20
1554.84
 30
0.000000
  70
    32
  0
VERTEX
  8
VISIBLE
  5
2F7B
 10
4591.95
 20
1554.83
 30
0.000000
  70
    32
  0
VERTEX
  8
VISIBLE
  5
2F7C
 10
4592.02
 20
1554.83
 30
0.000000
  70
    32
  0
VERTEX
  8
VISIBLE
  5
2F7D
 10
4592.09
 20
1554.82
 30
0.000000
  70
    32
  0
VERTEX
  8
VISIBLE
  5
2F7E
 10
4592.16
 20
1554.82
 30
0.000000
  70
    32
  0
VERTEX
  8
VISIBLE
  5
2F7F
 10
4592.23
 20
1554.81
 30
0.000000
  70
    32
  0
VERTEX
  8
VISIBLE
  5
2F80
 10
4592.30
 20
1554.81
 30
0.000000
  70
    32
  0
VERTEX
  8
VISIBLE
  5
2F81
 10
4592.37
 20
1554.80
 30
0.000000
  70
    32
  0
VERTEX
  8
VISIBLE
  5
2F82
 10
4592.44
 20
1554.80
 30
0.000000
  70
    32
  0
VERTEX
  8
VISIBLE
  5
2F83
 10
4592.51
 20
1554.79
 30
0.000000
  70
    32
  0
VERTEX
  8
VISIBLE
  5
2F84
 10
4592.58
 20
1554.79
 30
0.000000
  70
    32
  0
VERTEX
  8
VISIBLE
  5
2F85
 10
4592.65
 20
1554.79
 30
0.000000
  70
    32
  0
VERTEX
  8
VISIBLE
  5
2F86
 10
4592.73
 20
1554.78
 30
0.000000
  70
    32
  0
VERTEX
  8
VISIBLE
  5
2F87
 10
4592.80
 20
1554.78
 30
0.000000
  70
    32
  0
VERTEX
  8
VISIBLE
  5
2F88
 10
4592.87
 20
1554.77
 30
0.000000
  70
    32
  0
VERTEX
  8
VISIBLE
  5
2F89
 10
4592.94
 20
1554.77
 30
0.000000
  70
    32
  0
VERTEX
  8
VISIBLE
  5
2F8A
 10
4593.01
 20
1554.76
 30
0.000000
  70
    32
  0
VERTEX
  8
VISIBLE
  5
2F8B
 10
4593.08
 20
1554.76
 30
0.000000
  70
    32
  0
VERTEX
  8
VISIBLE
  5
2F8C
 10
4593.15
 20
1554.75
 30
0.000000
  70
    32
  0
VERTEX
  8
VISIBLE
  5
2F8D
 10
4593.22
 20
1554.75
 30
0.000000
  70
    32
  0
VERTEX
  8
VISIBLE
  5
2F8E
 10
4593.29
 20
1554.74
 30
0.000000
  70
    32
  0
VERTEX
  8
VISIBLE
  5
2F8F
 10
4593.36
 20
1554.74
 30
0.000000
  70
    32
  0
VERTEX
  8
VISIBLE
  5
2F90
 10
4593.43
 20
1554.74
 30
0.000000
  70
    32
  0
VERTEX
  8
VISIBLE
  5
2F91
 10
4593.50
 20
1554.73
 30
0.000000
  70
    32
  0
VERTEX
  8
VISIBLE
  5
2F92
 10
4593.58
 20
1554.73
 30
0.000000
  70
    32
  0
VERTEX
  8
VISIBLE
  5
2F93
 10
4593.65
 20
1554.72
 30
0.000000
  70
    32
  0
VERTEX
  8
VISIBLE
  5
2F94
 10
4593.72
 20
1554.72
 30
0.000000
  70
    32
  0
VERTEX
  8
VISIBLE
  5
2F95
 10
4593.79
 20
1554.71
 30
0.000000
  70
    32
  0
VERTEX
  8
VISIBLE
  5
2F96
 10
4593.86
 20
1554.71
 30
0.000000
  70
    32
  0
VERTEX
  8
VISIBLE
  5
2F97
 10
4593.93
 20
1554.70
 30
0.000000
  70
    32
  0
VERTEX
  8
VISIBLE
  5
2F98
 10
4594.00
 20
1554.70
 30
0.000000
  70
    32
  0
VERTEX
  8
VISIBLE
  5
2F99
 10
4594.07
 20
1554.69
 30
0.000000
  70
    32
  0
VERTEX
  8
VISIBLE
  5
2F9A
 10
4594.14
 20
1554.69
 30
0.000000
  70
    32
  0
VERTEX
  8
VISIBLE
  5
2F9B
 10
4594.21
 20
1554.69
 30
0.000000
  70
    32
  0
VERTEX
  8
VISIBLE
  5
2F9C
 10
4594.28
 20
1554.68
 30
0.000000
  70
    32
  0
VERTEX
  8
VISIBLE
  5
2F9D
 10
4594.35
 20
1554.68
 30
0.000000
  70
    32
  0
VERTEX
  8
VISIBLE
  5
2F9E
 10
4594.43
 20
1554.67
 30
0.000000
  70
    32
  0
VERTEX
  8
VISIBLE
  5
2F9F
 10
4594.50
 20
1554.67
 30
0.000000
  70
    32
  0
VERTEX
  8
VISIBLE
  5
2FA0
 10
4594.57
 20
1554.66
 30
0.000000
  70
    32
  0
VERTEX
  8
VISIBLE
  5
2FA1
 10
4594.64
 20
1554.66
 30
0.000000
  70
    32
  0
VERTEX
  8
VISIBLE
  5
2FA2
 10
4594.71
 20
1554.65
 30
0.000000
  70
    32
  0
VERTEX
  8
VISIBLE
  5
2FA3
 10
4594.78
 20
1554.65
 30
0.000000
  70
    32
  0
VERTEX
  8
VISIBLE
  5
2FA4
 10
4594.85
 20
1554.64
 30
0.000000
  70
    32
  0
VERTEX
  8
VISIBLE
  5
2FA5
 10
4594.92
 20
1554.64
 30
0.000000
  70
    32
  0
VERTEX
  8
VISIBLE
  5
2FA6
 10
4594.99
 20
1554.64
 30
0.000000
  70
    32
  0
VERTEX
  8
VISIBLE
  5
2FA7
 10
4595.06
 20
1554.63
 30
0.000000
  70
    32
  0
VERTEX
  8
VISIBLE
  5
2FA8
 10
4595.13
 20
1554.63
 30
0.000000
  70
    32
  0
VERTEX
  8
VISIBLE
  5
2FA9
 10
4595.20
 20
1554.62
 30
0.000000
  70
    32
  0
VERTEX
  8
VISIBLE
  5
2FAA
 10
4595.28
 20
1554.62
 30
0.000000
  70
    32
  0
VERTEX
  8
VISIBLE
  5
2FAB
 10
4595.35
 20
1554.61
 30
0.000000
  70
    32
  0
VERTEX
  8
VISIBLE
  5
2FAC
 10
4595.42
 20
1554.61
 30
0.000000
  70
    32
  0
VERTEX
  8
VISIBLE
  5
2FAD
 10
4595.49
 20
1554.60
 30
0.000000
  70
    32
  0
VERTEX
  8
VISIBLE
  5
2FAE
 10
4595.56
 20
1554.60
 30
0.000000
  70
    32
  0
VERTEX
  8
VISIBLE
  5
2FAF
 10
4595.63
 20
1554.59
 30
0.000000
  70
    32
  0
VERTEX
  8
VISIBLE
  5
2FB0
 10
4595.70
 20
1554.59
 30
0.000000
  70
    32
  0
VERTEX
  8
VISIBLE
  5
2FB1
 10
4595.77
 20
1554.59
 30
0.000000
  70
    32
  0
VERTEX
  8
VISIBLE
  5
2FB2
 10
4595.84
 20
1554.58
 30
0.000000
  70
    32
  0
VERTEX
  8
VISIBLE
  5
2FB3
 10
4595.91
 20
1554.58
 30
0.000000
  70
    32
  0
VERTEX
  8
VISIBLE
  5
2FB4
 10
4595.98
 20
1554.57
 30
0.000000
  70
    32
  0
VERTEX
  8
VISIBLE
  5
2FB5
 10
4596.06
 20
1554.57
 30
0.000000
  70
    32
  0
VERTEX
  8
VISIBLE
  5
2FB6
 10
4596.13
 20
1554.56
 30
0.000000
  70
    32
  0
VERTEX
  8
VISIBLE
  5
2FB7
 10
4596.20
 20
1554.56
 30
0.000000
  70
    32
  0
VERTEX
  8
VISIBLE
  5
2FB8
 10
4596.27
 20
1554.55
 30
0.000000
  70
    32
  0
VERTEX
  8
VISIBLE
  5
2FB9
 10
4596.34
 20
1554.55
 30
0.000000
  70
    32
  0
VERTEX
  8
VISIBLE
  5
2FBA
 10
4596.41
 20
1554.54
 30
0.000000
  70
    32
  0
VERTEX
  8
VISIBLE
  5
2FBB
 10
4596.48
 20
1554.54
 30
0.000000
  70
    32
  0
VERTEX
  8
VISIBLE
  5
2FBC
 10
4596.55
 20
1554.53
 30
0.000000
  70
    32
  0
VERTEX
  8
VISIBLE
  5
2FBD
 10
4596.62
 20
1554.53
 30
0.000000
  70
    32
  0
VERTEX
  8
VISIBLE
  5
2FBE
 10
4596.69
 20
1554.53
 30
0.000000
  70
    32
  0
VERTEX
  8
VISIBLE
  5
2FBF
 10
4596.76
 20
1554.52
 30
0.000000
  70
    32
  0
VERTEX
  8
VISIBLE
  5
2FC0
 10
4596.83
 20
1554.52
 30
0.000000
  70
    32
  0
VERTEX
  8
VISIBLE
  5
2FC1
 10
4596.91
 20
1554.51
 30
0.000000
  70
    32
  0
VERTEX
  8
VISIBLE
  5
2FC2
 10
4596.98
 20
1554.51
 30
0.000000
  70
    32
  0
VERTEX
  8
VISIBLE
  5
2FC3
 10
4597.05
 20
1554.50
 30
0.000000
  70
    32
  0
VERTEX
  8
VISIBLE
  5
2FC4
 10
4597.12
 20
1554.50
 30
0.000000
  70
    32
  0
VERTEX
  8
VISIBLE
  5
2FC5
 10
4597.19
 20
1554.49
 30
0.000000
  70
    32
  0
VERTEX
  8
VISIBLE
  5
2FC6
 10
4597.26
 20
1554.49
 30
0.000000
  70
    32
  0
VERTEX
  8
VISIBLE
  5
2FC7
 10
4597.33
 20
1554.48
 30
0.000000
  70
    32
  0
VERTEX
  8
VISIBLE
  5
2FC8
 10
4597.40
 20
1554.48
 30
0.000000
  70
    32
  0
VERTEX
  8
VISIBLE
  5
2FC9
 10
4597.47
 20
1554.48
 30
0.000000
  70
    32
  0
VERTEX
  8
VISIBLE
  5
2FCA
 10
4597.54
 20
1554.47
 30
0.000000
  70
    32
  0
VERTEX
  8
VISIBLE
  5
2FCB
 10
4597.61
 20
1554.47
 30
0.000000
  70
    32
  0
VERTEX
  8
VISIBLE
  5
2FCC
 10
4597.68
 20
1554.46
 30
0.000000
  70
    32
  0
VERTEX
  8
VISIBLE
  5
2FCD
 10
4597.76
 20
1554.46
 30
0.000000
  70
    32
  0
VERTEX
  8
VISIBLE
  5
2FCE
 10
4597.83
 20
1554.45
 30
0.000000
  70
    32
  0
VERTEX
  8
VISIBLE
  5
2FCF
 10
4597.90
 20
1554.45
 30
0.000000
  70
    32
  0
VERTEX
  8
VISIBLE
  5
2FD0
 10
4597.97
 20
1554.44
 30
0.000000
  70
    32
  0
VERTEX
  8
VISIBLE
  5
2FD1
 10
4598.04
 20
1554.44
 30
0.000000
  70
    32
  0
VERTEX
  8
VISIBLE
  5
2FD2
 10
4598.11
 20
1554.43
 30
0.000000
  70
    32
  0
VERTEX
  8
VISIBLE
  5
2FD3
 10
4598.18
 20
1554.43
 30
0.000000
  70
    32
  0
VERTEX
  8
VISIBLE
  5
2FD4
 10
4598.25
 20
1554.43
 30
0.000000
  70
    32
  0
VERTEX
  8
VISIBLE
  5
2FD5
 10
4598.32
 20
1554.42
 30
0.000000
  70
    32
  0
SEQEND
  8
VISIBLE
  5
2FD6
  0
POLYLINE
  8
VISIBLE
  5
2FD7
  66
     1
 10
0.000000
 20
0.000000
 30
0.000000
  70
     8
  0
VERTEX
  8
VISIBLE
  5
2FD8
 10
4582.52
 20
1519.33
 30
0.000000
  70
    32
  0
VERTEX
  8
VISIBLE
  5
2FD9
 10
4582.59
 20
1519.34
 30
0.000000
  70
    32
  0
VERTEX
  8
VISIBLE
  5
2FDA
 10
4582.66
 20
1519.34
 30
0.000000
  70
    32
  0
VERTEX
  8
VISIBLE
  5
2FDB
 10
4582.73
 20
1519.35
 30
0.000000
  70
    32
  0
VERTEX
  8
VISIBLE
  5
2FDC
 10
4582.81
 20
1519.35
 30
0.000000
  70
    32
  0
VERTEX
  8
VISIBLE
  5
2FDD
 10
4582.88
 20
1519.36
 30
0.000000
  70
    32
  0
VERTEX
  8
VISIBLE
  5
2FDE
 10
4582.95
 20
1519.36
 30
0.000000
  70
    32
  0
VERTEX
  8
VISIBLE
  5
2FDF
 10
4583.02
 20
1519.37
 30
0.000000
  70
    32
  0
VERTEX
  8
VISIBLE
  5
2FE0
 10
4583.09
 20
1519.37
 30
0.000000
  70
    32
  0
VERTEX
  8
VISIBLE
  5
2FE1
 10
4583.16
 20
1519.38
 30
0.000000
  70
    32
  0
VERTEX
  8
VISIBLE
  5
2FE2
 10
4583.23
 20
1519.38
 30
0.000000
  70
    32
  0
VERTEX
  8
VISIBLE
  5
2FE3
 10
4583.30
 20
1519.38
 30
0.000000
  70
    32
  0
VERTEX
  8
VISIBLE
  5
2FE4
 10
4583.37
 20
1519.39
 30
0.000000
  70
    32
  0
VERTEX
  8
VISIBLE
  5
2FE5
 10
4583.44
 20
1519.39
 30
0.000000
  70
    32
  0
VERTEX
  8
VISIBLE
  5
2FE6
 10
4583.51
 20
1519.40
 30
0.000000
  70
    32
  0
VERTEX
  8
VISIBLE
  5
2FE7
 10
4583.59
 20
1519.40
 30
0.000000
  70
    32
  0
VERTEX
  8
VISIBLE
  5
2FE8
 10
4583.66
 20
1519.41
 30
0.000000
  70
    32
  0
VERTEX
  8
VISIBLE
  5
2FE9
 10
4583.73
 20
1519.41
 30
0.000000
  70
    32
  0
VERTEX
  8
VISIBLE
  5
2FEA
 10
4583.80
 20
1519.42
 30
0.000000
  70
    32
  0
VERTEX
  8
VISIBLE
  5
2FEB
 10
4583.87
 20
1519.42
 30
0.000000
  70
    32
  0
VERTEX
  8
VISIBLE
  5
2FEC
 10
4583.94
 20
1519.43
 30
0.000000
  70
    32
  0
VERTEX
  8
VISIBLE
  5
2FED
 10
4584.01
 20
1519.43
 30
0.000000
  70
    32
  0
VERTEX
  8
VISIBLE
  5
2FEE
 10
4584.08
 20
1519.43
 30
0.000000
  70
    32
  0
VERTEX
  8
VISIBLE
  5
2FEF
 10
4584.15
 20
1519.44
 30
0.000000
  70
    32
  0
VERTEX
  8
VISIBLE
  5
2FF0
 10
4584.22
 20
1519.44
 30
0.000000
  70
    32
  0
VERTEX
  8
VISIBLE
  5
2FF1
 10
4584.29
 20
1519.45
 30
0.000000
  70
    32
  0
VERTEX
  8
VISIBLE
  5
2FF2
 10
4584.36
 20
1519.45
 30
0.000000
  70
    32
  0
VERTEX
  8
VISIBLE
  5
2FF3
 10
4584.44
 20
1519.46
 30
0.000000
  70
    32
  0
VERTEX
  8
VISIBLE
  5
2FF4
 10
4584.51
 20
1519.46
 30
0.000000
  70
    32
  0
VERTEX
  8
VISIBLE
  5
2FF5
 10
4584.58
 20
1519.47
 30
0.000000
  70
    32
  0
VERTEX
  8
VISIBLE
  5
2FF6
 10
4584.65
 20
1519.47
 30
0.000000
  70
    32
  0
VERTEX
  8
VISIBLE
  5
2FF7
 10
4584.72
 20
1519.48
 30
0.000000
  70
    32
  0
VERTEX
  8
VISIBLE
  5
2FF8
 10
4584.79
 20
1519.48
 30
0.000000
  70
    32
  0
VERTEX
  8
VISIBLE
  5
2FF9
 10
4584.86
 20
1519.49
 30
0.000000
  70
    32
  0
VERTEX
  8
VISIBLE
  5
2FFA
 10
4584.93
 20
1519.49
 30
0.000000
  70
    32
  0
VERTEX
  8
VISIBLE
  5
2FFB
 10
4585.00
 20
1519.49
 30
0.000000
  70
    32
  0
VERTEX
  8
VISIBLE
  5
2FFC
 10
4585.07
 20
1519.50
 30
0.000000
  70
    32
  0
VERTEX
  8
VISIBLE
  5
2FFD
 10
4585.14
 20
1519.50
 30
0.000000
  70
    32
  0
VERTEX
  8
VISIBLE
  5
2FFE
 10
4585.21
 20
1519.51
 30
0.000000
  70
    32
  0
VERTEX
  8
VISIBLE
  5
2FFF
 10
4585.29
 20
1519.51
 30
0.000000
  70
    32
  0
VERTEX
  8
VISIBLE
  5
3000
 10
4585.36
 20
1519.52
 30
0.000000
  70
    32
  0
VERTEX
  8
VISIBLE
  5
3001
 10
4585.43
 20
1519.52
 30
0.000000
  70
    32
  0
VERTEX
  8
VISIBLE
  5
3002
 10
4585.50
 20
1519.53
 30
0.000000
  70
    32
  0
VERTEX
  8
VISIBLE
  5
3003
 10
4585.57
 20
1519.53
 30
0.000000
  70
    32
  0
VERTEX
  8
VISIBLE
  5
3004
 10
4585.64
 20
1519.54
 30
0.000000
  70
    32
  0
VERTEX
  8
VISIBLE
  5
3005
 10
4585.71
 20
1519.54
 30
0.000000
  70
    32
  0
VERTEX
  8
VISIBLE
  5
3006
 10
4585.78
 20
1519.54
 30
0.000000
  70
    32
  0
VERTEX
  8
VISIBLE
  5
3007
 10
4585.85
 20
1519.55
 30
0.000000
  70
    32
  0
VERTEX
  8
VISIBLE
  5
3008
 10
4585.92
 20
1519.55
 30
0.000000
  70
    32
  0
VERTEX
  8
VISIBLE
  5
3009
 10
4585.99
 20
1519.56
 30
0.000000
  70
    32
  0
VERTEX
  8
VISIBLE
  5
300A
 10
4586.07
 20
1519.56
 30
0.000000
  70
    32
  0
VERTEX
  8
VISIBLE
  5
300B
 10
4586.14
 20
1519.57
 30
0.000000
  70
    32
  0
VERTEX
  8
VISIBLE
  5
300C
 10
4586.21
 20
1519.57
 30
0.000000
  70
    32
  0
VERTEX
  8
VISIBLE
  5
300D
 10
4586.28
 20
1519.58
 30
0.000000
  70
    32
  0
VERTEX
  8
VISIBLE
  5
300E
 10
4586.35
 20
1519.58
 30
0.000000
  70
    32
  0
VERTEX
  8
VISIBLE
  5
300F
 10
4586.42
 20
1519.59
 30
0.000000
  70
    32
  0
VERTEX
  8
VISIBLE
  5
3010
 10
4586.49
 20
1519.59
 30
0.000000
  70
    32
  0
VERTEX
  8
VISIBLE
  5
3011
 10
4586.56
 20
1519.59
 30
0.000000
  70
    32
  0
VERTEX
  8
VISIBLE
  5
3012
 10
4586.63
 20
1519.60
 30
0.000000
  70
    32
  0
VERTEX
  8
VISIBLE
  5
3013
 10
4586.70
 20
1519.60
 30
0.000000
  70
    32
  0
VERTEX
  8
VISIBLE
  5
3014
 10
4586.77
 20
1519.61
 30
0.000000
  70
    32
  0
VERTEX
  8
VISIBLE
  5
3015
 10
4586.84
 20
1519.61
 30
0.000000
  70
    32
  0
VERTEX
  8
VISIBLE
  5
3016
 10
4586.92
 20
1519.62
 30
0.000000
  70
    32
  0
VERTEX
  8
VISIBLE
  5
3017
 10
4586.99
 20
1519.62
 30
0.000000
  70
    32
  0
VERTEX
  8
VISIBLE
  5
3018
 10
4587.06
 20
1519.63
 30
0.000000
  70
    32
  0
VERTEX
  8
VISIBLE
  5
3019
 10
4587.13
 20
1519.63
 30
0.000000
  70
    32
  0
VERTEX
  8
VISIBLE
  5
301A
 10
4587.20
 20
1519.64
 30
0.000000
  70
    32
  0
VERTEX
  8
VISIBLE
  5
301B
 10
4587.27
 20
1519.64
 30
0.000000
  70
    32
  0
VERTEX
  8
VISIBLE
  5
301C
 10
4587.34
 20
1519.64
 30
0.000000
  70
    32
  0
VERTEX
  8
VISIBLE
  5
301D
 10
4587.41
 20
1519.65
 30
0.000000
  70
    32
  0
VERTEX
  8
VISIBLE
  5
301E
 10
4587.48
 20
1519.65
 30
0.000000
  70
    32
  0
VERTEX
  8
VISIBLE
  5
301F
 10
4587.55
 20
1519.66
 30
0.000000
  70
    32
  0
VERTEX
  8
VISIBLE
  5
3020
 10
4587.62
 20
1519.66
 30
0.000000
  70
    32
  0
VERTEX
  8
VISIBLE
  5
3021
 10
4587.69
 20
1519.67
 30
0.000000
  70
    32
  0
VERTEX
  8
VISIBLE
  5
3022
 10
4587.77
 20
1519.67
 30
0.000000
  70
    32
  0
VERTEX
  8
VISIBLE
  5
3023
 10
4587.84
 20
1519.68
 30
0.000000
  70
    32
  0
VERTEX
  8
VISIBLE
  5
3024
 10
4587.91
 20
1519.68
 30
0.000000
  70
    32
  0
VERTEX
  8
VISIBLE
  5
3025
 10
4587.98
 20
1519.69
 30
0.000000
  70
    32
  0
VERTEX
  8
VISIBLE
  5
3026
 10
4588.05
 20
1519.69
 30
0.000000
  70
    32
  0
VERTEX
  8
VISIBLE
  5
3027
 10
4588.12
 20
1519.69
 30
0.000000
  70
    32
  0
VERTEX
  8
VISIBLE
  5
3028
 10
4588.19
 20
1519.70
 30
0.000000
  70
    32
  0
VERTEX
  8
VISIBLE
  5
3029
 10
4588.26
 20
1519.70
 30
0.000000
  70
    32
  0
VERTEX
  8
VISIBLE
  5
302A
 10
4588.33
 20
1519.71
 30
0.000000
  70
    32
  0
VERTEX
  8
VISIBLE
  5
302B
 10
4588.40
 20
1519.71
 30
0.000000
  70
    32
  0
VERTEX
  8
VISIBLE
  5
302C
 10
4588.47
 20
1519.72
 30
0.000000
  70
    32
  0
VERTEX
  8
VISIBLE
  5
302D
 10
4588.54
 20
1519.72
 30
0.000000
  70
    32
  0
VERTEX
  8
VISIBLE
  5
302E
 10
4588.62
 20
1519.73
 30
0.000000
  70
    32
  0
VERTEX
  8
VISIBLE
  5
302F
 10
4588.69
 20
1519.73
 30
0.000000
  70
    32
  0
VERTEX
  8
VISIBLE
  5
3030
 10
4588.76
 20
1519.74
 30
0.000000
  70
    32
  0
VERTEX
  8
VISIBLE
  5
3031
 10
4588.83
 20
1519.74
 30
0.000000
  70
    32
  0
VERTEX
  8
VISIBLE
  5
3032
 10
4588.90
 20
1519.74
 30
0.000000
  70
    32
  0
VERTEX
  8
VISIBLE
  5
3033
 10
4588.97
 20
1519.75
 30
0.000000
  70
    32
  0
VERTEX
  8
VISIBLE
  5
3034
 10
4589.04
 20
1519.75
 30
0.000000
  70
    32
  0
VERTEX
  8
VISIBLE
  5
3035
 10
4589.11
 20
1519.76
 30
0.000000
  70
    32
  0
VERTEX
  8
VISIBLE
  5
3036
 10
4589.18
 20
1519.76
 30
0.000000
  70
    32
  0
VERTEX
  8
VISIBLE
  5
3037
 10
4589.25
 20
1519.77
 30
0.000000
  70
    32
  0
VERTEX
  8
VISIBLE
  5
3038
 10
4589.32
 20
1519.77
 30
0.000000
  70
    32
  0
VERTEX
  8
VISIBLE
  5
3039
 10
4589.40
 20
1519.78
 30
0.000000
  70
    32
  0
VERTEX
  8
VISIBLE
  5
303A
 10
4589.47
 20
1519.78
 30
0.000000
  70
    32
  0
VERTEX
  8
VISIBLE
  5
303B
 10
4589.54
 20
1519.79
 30
0.000000
  70
    32
  0
VERTEX
  8
VISIBLE
  5
303C
 10
4589.61
 20
1519.79
 30
0.000000
  70
    32
  0
VERTEX
  8
VISIBLE
  5
303D
 10
4589.68
 20
1519.79
 30
0.000000
  70
    32
  0
VERTEX
  8
VISIBLE
  5
303E
 10
4589.75
 20
1519.80
 30
0.000000
  70
    32
  0
VERTEX
  8
VISIBLE
  5
303F
 10
4589.82
 20
1519.80
 30
0.000000
  70
    32
  0
VERTEX
  8
VISIBLE
  5
3040
 10
4589.89
 20
1519.81
 30
0.000000
  70
    32
  0
VERTEX
  8
VISIBLE
  5
3041
 10
4589.96
 20
1519.81
 30
0.000000
  70
    32
  0
VERTEX
  8
VISIBLE
  5
3042
 10
4590.03
 20
1519.82
 30
0.000000
  70
    32
  0
VERTEX
  8
VISIBLE
  5
3043
 10
4590.10
 20
1519.82
 30
0.000000
  70
    32
  0
VERTEX
  8
VISIBLE
  5
3044
 10
4590.17
 20
1519.83
 30
0.000000
  70
    32
  0
VERTEX
  8
VISIBLE
  5
3045
 10
4590.25
 20
1519.83
 30
0.000000
  70
    32
  0
VERTEX
  8
VISIBLE
  5
3046
 10
4590.32
 20
1519.84
 30
0.000000
  70
    32
  0
VERTEX
  8
VISIBLE
  5
3047
 10
4590.39
 20
1519.84
 30
0.000000
  70
    32
  0
VERTEX
  8
VISIBLE
  5
3048
 10
4590.46
 20
1519.84
 30
0.000000
  70
    32
  0
VERTEX
  8
VISIBLE
  5
3049
 10
4590.53
 20
1519.85
 30
0.000000
  70
    32
  0
VERTEX
  8
VISIBLE
  5
304A
 10
4590.60
 20
1519.85
 30
0.000000
  70
    32
  0
VERTEX
  8
VISIBLE
  5
304B
 10
4590.67
 20
1519.86
 30
0.000000
  70
    32
  0
VERTEX
  8
VISIBLE
  5
304C
 10
4590.74
 20
1519.86
 30
0.000000
  70
    32
  0
VERTEX
  8
VISIBLE
  5
304D
 10
4590.81
 20
1519.87
 30
0.000000
  70
    32
  0
VERTEX
  8
VISIBLE
  5
304E
 10
4590.88
 20
1519.87
 30
0.000000
  70
    32
  0
VERTEX
  8
VISIBLE
  5
304F
 10
4590.95
 20
1519.88
 30
0.000000
  70
    32
  0
VERTEX
  8
VISIBLE
  5
3050
 10
4591.02
 20
1519.88
 30
0.000000
  70
    32
  0
VERTEX
  8
VISIBLE
  5
3051
 10
4591.10
 20
1519.89
 30
0.000000
  70
    32
  0
VERTEX
  8
VISIBLE
  5
3052
 10
4591.17
 20
1519.89
 30
0.000000
  70
    32
  0
VERTEX
  8
VISIBLE
  5
3053
 10
4591.24
 20
1519.90
 30
0.000000
  70
    32
  0
VERTEX
  8
VISIBLE
  5
3054
 10
4591.31
 20
1519.90
 30
0.000000
  70
    32
  0
VERTEX
  8
VISIBLE
  5
3055
 10
4591.38
 20
1519.90
 30
0.000000
  70
    32
  0
VERTEX
  8
VISIBLE
  5
3056
 10
4591.45
 20
1519.91
 30
0.000000
  70
    32
  0
VERTEX
  8
VISIBLE
  5
3057
 10
4591.52
 20
1519.91
 30
0.000000
  70
    32
  0
VERTEX
  8
VISIBLE
  5
3058
 10
4591.59
 20
1519.92
 30
0.000000
  70
    32
  0
VERTEX
  8
VISIBLE
  5
3059
 10
4591.66
 20
1519.92
 30
0.000000
  70
    32
  0
VERTEX
  8
VISIBLE
  5
305A
 10
4591.73
 20
1519.93
 30
0.000000
  70
    32
  0
VERTEX
  8
VISIBLE
  5
305B
 10
4591.80
 20
1519.93
 30
0.000000
  70
    32
  0
VERTEX
  8
VISIBLE
  5
305C
 10
4591.87
 20
1519.94
 30
0.000000
  70
    32
  0
VERTEX
  8
VISIBLE
  5
305D
 10
4591.95
 20
1519.94
 30
0.000000
  70
    32
  0
VERTEX
  8
VISIBLE
  5
305E
 10
4592.02
 20
1519.95
 30
0.000000
  70
    32
  0
VERTEX
  8
VISIBLE
  5
305F
 10
4592.09
 20
1519.95
 30
0.000000
  70
    32
  0
VERTEX
  8
VISIBLE
  5
3060
 10
4592.16
 20
1519.95
 30
0.000000
  70
    32
  0
VERTEX
  8
VISIBLE
  5
3061
 10
4592.23
 20
1519.96
 30
0.000000
  70
    32
  0
VERTEX
  8
VISIBLE
  5
3062
 10
4592.30
 20
1519.96
 30
0.000000
  70
    32
  0
VERTEX
  8
VISIBLE
  5
3063
 10
4592.37
 20
1519.97
 30
0.000000
  70
    32
  0
VERTEX
  8
VISIBLE
  5
3064
 10
4592.44
 20
1519.97
 30
0.000000
  70
    32
  0
VERTEX
  8
VISIBLE
  5
3065
 10
4592.51
 20
1519.98
 30
0.000000
  70
    32
  0
VERTEX
  8
VISIBLE
  5
3066
 10
4592.58
 20
1519.98
 30
0.000000
  70
    32
  0
VERTEX
  8
VISIBLE
  5
3067
 10
4592.65
 20
1519.99
 30
0.000000
  70
    32
  0
VERTEX
  8
VISIBLE
  5
3068
 10
4592.73
 20
1519.99
 30
0.000000
  70
    32
  0
VERTEX
  8
VISIBLE
  5
3069
 10
4592.80
 20
1520.00
 30
0.000000
  70
    32
  0
VERTEX
  8
VISIBLE
  5
306A
 10
4592.87
 20
1520.00
 30
0.000000
  70
    32
  0
VERTEX
  8
VISIBLE
  5
306B
 10
4592.94
 20
1520.00
 30
0.000000
  70
    32
  0
VERTEX
  8
VISIBLE
  5
306C
 10
4593.01
 20
1520.01
 30
0.000000
  70
    32
  0
VERTEX
  8
VISIBLE
  5
306D
 10
4593.08
 20
1520.01
 30
0.000000
  70
    32
  0
VERTEX
  8
VISIBLE
  5
306E
 10
4593.15
 20
1520.02
 30
0.000000
  70
    32
  0
VERTEX
  8
VISIBLE
  5
306F
 10
4593.22
 20
1520.02
 30
0.000000
  70
    32
  0
VERTEX
  8
VISIBLE
  5
3070
 10
4593.29
 20
1520.03
 30
0.000000
  70
    32
  0
VERTEX
  8
VISIBLE
  5
3071
 10
4593.36
 20
1520.03
 30
0.000000
  70
    32
  0
VERTEX
  8
VISIBLE
  5
3072
 10
4593.43
 20
1520.04
 30
0.000000
  70
    32
  0
VERTEX
  8
VISIBLE
  5
3073
 10
4593.50
 20
1520.04
 30
0.000000
  70
    32
  0
VERTEX
  8
VISIBLE
  5
3074
 10
4593.58
 20
1520.05
 30
0.000000
  70
    32
  0
VERTEX
  8
VISIBLE
  5
3075
 10
4593.65
 20
1520.05
 30
0.000000
  70
    32
  0
VERTEX
  8
VISIBLE
  5
3076
 10
4593.72
 20
1520.05
 30
0.000000
  70
    32
  0
VERTEX
  8
VISIBLE
  5
3077
 10
4593.79
 20
1520.06
 30
0.000000
  70
    32
  0
VERTEX
  8
VISIBLE
  5
3078
 10
4593.86
 20
1520.06
 30
0.000000
  70
    32
  0
VERTEX
  8
VISIBLE
  5
3079
 10
4593.93
 20
1520.07
 30
0.000000
  70
    32
  0
VERTEX
  8
VISIBLE
  5
307A
 10
4594.00
 20
1520.07
 30
0.000000
  70
    32
  0
VERTEX
  8
VISIBLE
  5
307B
 10
4594.07
 20
1520.08
 30
0.000000
  70
    32
  0
VERTEX
  8
VISIBLE
  5
307C
 10
4594.14
 20
1520.08
 30
0.000000
  70
    32
  0
VERTEX
  8
VISIBLE
  5
307D
 10
4594.21
 20
1520.09
 30
0.000000
  70
    32
  0
VERTEX
  8
VISIBLE
  5
307E
 10
4594.28
 20
1520.09
 30
0.000000
  70
    32
  0
VERTEX
  8
VISIBLE
  5
307F
 10
4594.35
 20
1520.10
 30
0.000000
  70
    32
  0
VERTEX
  8
VISIBLE
  5
3080
 10
4594.43
 20
1520.10
 30
0.000000
  70
    32
  0
VERTEX
  8
VISIBLE
  5
3081
 10
4594.50
 20
1520.10
 30
0.000000
  70
    32
  0
VERTEX
  8
VISIBLE
  5
3082
 10
4594.57
 20
1520.11
 30
0.000000
  70
    32
  0
VERTEX
  8
VISIBLE
  5
3083
 10
4594.64
 20
1520.11
 30
0.000000
  70
    32
  0
VERTEX
  8
VISIBLE
  5
3084
 10
4594.71
 20
1520.12
 30
0.000000
  70
    32
  0
VERTEX
  8
VISIBLE
  5
3085
 10
4594.78
 20
1520.12
 30
0.000000
  70
    32
  0
VERTEX
  8
VISIBLE
  5
3086
 10
4594.85
 20
1520.13
 30
0.000000
  70
    32
  0
VERTEX
  8
VISIBLE
  5
3087
 10
4594.92
 20
1520.13
 30
0.000000
  70
    32
  0
VERTEX
  8
VISIBLE
  5
3088
 10
4594.99
 20
1520.14
 30
0.000000
  70
    32
  0
VERTEX
  8
VISIBLE
  5
3089
 10
4595.06
 20
1520.14
 30
0.000000
  70
    32
  0
VERTEX
  8
VISIBLE
  5
308A
 10
4595.13
 20
1520.15
 30
0.000000
  70
    32
  0
VERTEX
  8
VISIBLE
  5
308B
 10
4595.20
 20
1520.15
 30
0.000000
  70
    32
  0
VERTEX
  8
VISIBLE
  5
308C
 10
4595.28
 20
1520.15
 30
0.000000
  70
    32
  0
VERTEX
  8
VISIBLE
  5
308D
 10
4595.35
 20
1520.16
 30
0.000000
  70
    32
  0
VERTEX
  8
VISIBLE
  5
308E
 10
4595.42
 20
1520.16
 30
0.000000
  70
    32
  0
VERTEX
  8
VISIBLE
  5
308F
 10
4595.49
 20
1520.17
 30
0.000000
  70
    32
  0
VERTEX
  8
VISIBLE
  5
3090
 10
4595.56
 20
1520.17
 30
0.000000
  70
    32
  0
VERTEX
  8
VISIBLE
  5
3091
 10
4595.63
 20
1520.18
 30
0.000000
  70
    32
  0
VERTEX
  8
VISIBLE
  5
3092
 10
4595.70
 20
1520.18
 30
0.000000
  70
    32
  0
VERTEX
  8
VISIBLE
  5
3093
 10
4595.77
 20
1520.19
 30
0.000000
  70
    32
  0
VERTEX
  8
VISIBLE
  5
3094
 10
4595.84
 20
1520.19
 30
0.000000
  70
    32
  0
VERTEX
  8
VISIBLE
  5
3095
 10
4595.91
 20
1520.20
 30
0.000000
  70
    32
  0
VERTEX
  8
VISIBLE
  5
3096
 10
4595.98
 20
1520.20
 30
0.000000
  70
    32
  0
VERTEX
  8
VISIBLE
  5
3097
 10
4596.06
 20
1520.21
 30
0.000000
  70
    32
  0
VERTEX
  8
VISIBLE
  5
3098
 10
4596.13
 20
1520.21
 30
0.000000
  70
    32
  0
VERTEX
  8
VISIBLE
  5
3099
 10
4596.20
 20
1520.21
 30
0.000000
  70
    32
  0
VERTEX
  8
VISIBLE
  5
309A
 10
4596.27
 20
1520.22
 30
0.000000
  70
    32
  0
VERTEX
  8
VISIBLE
  5
309B
 10
4596.34
 20
1520.22
 30
0.000000
  70
    32
  0
VERTEX
  8
VISIBLE
  5
309C
 10
4596.41
 20
1520.23
 30
0.000000
  70
    32
  0
VERTEX
  8
VISIBLE
  5
309D
 10
4596.48
 20
1520.23
 30
0.000000
  70
    32
  0
VERTEX
  8
VISIBLE
  5
309E
 10
4596.55
 20
1520.24
 30
0.000000
  70
    32
  0
VERTEX
  8
VISIBLE
  5
309F
 10
4596.62
 20
1520.24
 30
0.000000
  70
    32
  0
VERTEX
  8
VISIBLE
  5
30A0
 10
4596.69
 20
1520.25
 30
0.000000
  70
    32
  0
VERTEX
  8
VISIBLE
  5
30A1
 10
4596.76
 20
1520.25
 30
0.000000
  70
    32
  0
VERTEX
  8
VISIBLE
  5
30A2
 10
4596.83
 20
1520.26
 30
0.000000
  70
    32
  0
VERTEX
  8
VISIBLE
  5
30A3
 10
4596.91
 20
1520.26
 30
0.000000
  70
    32
  0
VERTEX
  8
VISIBLE
  5
30A4
 10
4596.98
 20
1520.26
 30
0.000000
  70
    32
  0
VERTEX
  8
VISIBLE
  5
30A5
 10
4597.05
 20
1520.27
 30
0.000000
  70
    32
  0
VERTEX
  8
VISIBLE
  5
30A6
 10
4597.12
 20
1520.27
 30
0.000000
  70
    32
  0
VERTEX
  8
VISIBLE
  5
30A7
 10
4597.19
 20
1520.28
 30
0.000000
  70
    32
  0
VERTEX
  8
VISIBLE
  5
30A8
 10
4597.26
 20
1520.28
 30
0.000000
  70
    32
  0
VERTEX
  8
VISIBLE
  5
30A9
 10
4597.33
 20
1520.29
 30
0.000000
  70
    32
  0
VERTEX
  8
VISIBLE
  5
30AA
 10
4597.40
 20
1520.29
 30
0.000000
  70
    32
  0
VERTEX
  8
VISIBLE
  5
30AB
 10
4597.47
 20
1520.30
 30
0.000000
  70
    32
  0
VERTEX
  8
VISIBLE
  5
30AC
 10
4597.54
 20
1520.30
 30
0.000000
  70
    32
  0
VERTEX
  8
VISIBLE
  5
30AD
 10
4597.61
 20
1520.31
 30
0.000000
  70
    32
  0
VERTEX
  8
VISIBLE
  5
30AE
 10
4597.68
 20
1520.31
 30
0.000000
  70
    32
  0
VERTEX
  8
VISIBLE
  5
30AF
 10
4597.76
 20
1520.31
 30
0.000000
  70
    32
  0
VERTEX
  8
VISIBLE
  5
30B0
 10
4597.83
 20
1520.32
 30
0.000000
  70
    32
  0
VERTEX
  8
VISIBLE
  5
30B1
 10
4597.90
 20
1520.32
 30
0.000000
  70
    32
  0
VERTEX
  8
VISIBLE
  5
30B2
 10
4597.97
 20
1520.33
 30
0.000000
  70
    32
  0
VERTEX
  8
VISIBLE
  5
30B3
 10
4598.04
 20
1520.33
 30
0.000000
  70
    32
  0
VERTEX
  8
VISIBLE
  5
30B4
 10
4598.11
 20
1520.34
 30
0.000000
  70
    32
  0
VERTEX
  8
VISIBLE
  5
30B5
 10
4598.18
 20
1520.34
 30
0.000000
  70
    32
  0
VERTEX
  8
VISIBLE
  5
30B6
 10
4598.25
 20
1520.35
 30
0.000000
  70
    32
  0
VERTEX
  8
VISIBLE
  5
30B7
 10
4598.32
 20
1520.35
 30
0.000000
  70
    32
  0
SEQEND
  8
VISIBLE
  5
30B8
  0
LINE
  5
175D
  8
VISIBLE
 10
4598.3224056597809977
 20
1520.3509979999330426
 30
0.0
 11
4598.3224056598273819
 21
1554.4208750105890431
 31
0.0
  0
LINE
  5
1760
  8
VISIBLE
 10
4582.5224056597871822
 20
1502.623204231040063
 30
0.0
 11
4582.5224056598153766
 21
1572.1486674958500771
 31
0.0
  0
LINE
  5
1764
  8
VISIBLE
 10
4564.6060235887925955
 20
1571.8359358835209605
 30
0.0
 11
4582.5224056598153766
 21
1572.1486674958500771
 31
0.0
  0
LINE
  5
1765
  8
VISIBLE
 10
4564.6060235887925955
 20
1502.9359358433680427
 30
0.0
 11
4582.5224056597871822
 21
1502.623204231040063
 31
0.0
  0
LINE
  5
2313
  8
SKETCH_GEOMETRY
 10
4167.3202108713539928
 20
2430.0653923972467965
 30
0.0
 11
4913.2992743077693376
 21
2430.0653923972467965
 31
0.0
  0
LINE
  5
2314
  8
SKETCH_GEOMETRY
 10
4913.2992743077693376
 20
2430.0653923972467965
 30
0.0
 11
4913.2992743077693376
 21
2310.330985036669972
 31
0.0
  0
LINE
  5
2315
  8
SKETCH_GEOMETRY
 10
4913.2992743077693376
 20
2310.330985036669972
 30
0.0
 11
4167.3202108713539928
 21
2310.330985036669972
 31
0.0
  0
LINE
  5
2316
  8
SKETCH_GEOMETRY
 10
4167.3202108713539928
 20
2310.330985036669972
 30
0.0
 11
4167.3202108713539928
 21
2430.0653923972467965
 31
0.0
  0
LINE
  5
243D
  8
0
 10
2541.4249570851061435
 20
674.1359358634449563
 30
0.0
 11
2541.4249570851061435
 21
710.5359358634450473
 31
0.0
  0
CIRCLE
  5
2441
  8
VISIBLE
 10
3056.4244570851092249
 20
3978.6939502690038353
 30
0.0
 40
263.0000000000118803
  0
INSERT
  5
2442
  8
0
  2
*U6
 10
0.0
 20
0.0
 30
0.0
  0
INSERT
  5
2445
  8
0
  2
*U7
 10
0.0
 20
0.0
 30
0.0
  0
LINE
  5
2446
  8
VISIBLE
 10
3822.4055235892687961
 20
674.1359358634449563
 30
0.0
 11
3822.4055235892687961
 21
710.535935863445161
 31
0.0
  0
LINE
  5
2448
  8
VISIBLE
 10
4538.4055235892692508
 20
674.1359358634454111
 30
0.0
 11
4538.4055235892692508
 21
710.5359358634447062
 31
0.0
  0
LINE
  5
245E
  8
0
 62
     7
 10
3053.0092347702320694
 20
1971.05777178366111
 30
0.0
 11
3013.7092347702318875
 21
2010.3577717836581087
 31
0.0
  0
LINE
  5
245F
  8
0
 62
     7
 10
2974.4092347702321604
 20
1971.05777178366111
 30
0.0
 11
3013.7092347702318875
 21
2010.3577717836581087
 31
0.0
  0
LINE
  5
2460
  8
0
 62
     7
 10
2999.0092347702320694
 20
1915.55777178366111
 30
0.0
 11
3028.4092347702321604
 21
1915.55777178366111
 31
0.0
  0
LINE
  5
2461
  8
0
 62
     7
 10
3028.4092347702321604
 20
1915.55777178366111
 30
0.0
 11
3028.4092347702321604
 21
1971.05777178366111
 31
0.0
  0
LINE
  5
2462
  8
0
 62
     7
 10
3028.4092347702321604
 20
1971.05777178366111
 30
0.0
 11
3053.0092347702320694
 21
1971.05777178366111
 31
0.0
  0
LINE
  5
2463
  8
0
 62
     7
 10
2999.0092347702320694
 20
1915.55777178366111
 30
0.0
 11
2999.0092347702320694
 21
1971.05777178366111
 31
0.0
  0
LINE
  5
2464
  8
0
 62
     7
 10
2999.0092347702320694
 20
1971.05777178366111
 30
0.0
 11
2974.4092347702321604
 21
1971.05777178366111
 31
0.0
  0
TEXT
  5
248E
  8
0
 62
     7
 10
4736.1732431897953575
 20
587.0848207800677301
 30
0.0
 40
35.7749999999999986
  1
temperzone MWP 250KT-S1
  7
TITLE5
 72
     1
 11
5112.6625289040803182
 21
587.0848207800677301
 31
0.0
  0
TEXT
  5
248F
  8
0
 62
     7
 10
5195.1013170170663216
 20
363.1261345904869131
 30
0.0
 40
26.9999999993249986
  1
MWP250KT-S1
 41
0.9269406392694106
  7
TITLE3
 72
     5
 11
5456.1013170105416066
 21
363.1261345904869131
 31
0.0
  0
TEXT
  5
2490
  8
0
 62
     7
 10
4806.8530050945573748
 20
519.0129322177741642
 30
0.0
 40
38.0
  1
POOL WATER HEATER
  7
TITLE5
 72
     1
 11
5112.6625289040803182
 21
519.0129322177741642
 31
0.0
  0
TEXT
  5
2491
  8
0
 62
     7
 10
4785.0534862889080614
 20
399.126134589586627
 30
0.0
 40
26.9999999993249986
  1
25-10-19
 41
0.7133757961783677
  7
TITLE3
 72
     5
 11
4929.0534862853128288
 21
399.126134589586627
 31
0.0
  0
TEXT
  5
2492
  8
0
 62
     7
 10
4667.4203149544082407
 20
399.8742270661522866
 30
0.0
 40
21.5999999999999908
  1
Date
  7
SIMPLEX
  0
TEXT
  5
2493
  8
0
 62
     7
 10
5479.6013902304839576
 20
416.6791064131314215
 30
0.0
 40
21.5999999999999908
  1
Revision
 41
0.7812095035934857
  7
SIMPLEX
 72
     5
 11
5574.4179036952018578
 21
416.6791064131314215
 31
0.0
  0
LINE
  5
2494
  8
0
 62
     7
 10
5469.1435320853861413
 20
318.8843781555469832
 30
0.0
 11
5469.1435320853861413
 21
451.567924729753372
 31
0.0
  0
LINE
  5
2495
  8
0
 62
     7
 10
4645.5176936056750492
 20
639.6193902122306554
 30
0.0
 11
4645.5176936056750492
 21
318.8843781555469832
 31
0.0
  0
LINE
  5
2496
  8
0
 62
     7
 10
5183.323627306027447
 20
318.8843781555469832
 30
0.0
 11
5183.323627306027447
 21
451.567924729753372
 31
0.0
  0
LINE
  5
2497
  8
0
 62
     7
 10
5183.323627306027447
 20
384.1074739345788203
 30
0.0
 11
4645.5176936056750492
 21
384.1074739345788203
 31
0.0
  0
LINE
  5
2498
  8
0
 62
     7
 10
5583.5192358082986175
 20
451.567924729753372
 30
0.0
 11
4645.5176936056750492
 21
451.567924729753372
 31
0.0
  0
LINE
  5
2499
  8
0
 62
     7
 10
4645.5176936056750492
 20
318.8843781555469832
 30
0.0
 11
5583.2514793477821513
 21
318.8843781555469832
 31
0.0
  0
LINE
  5
249A
  8
0
 62
     7
 10
5583.2514793477821513
 20
318.8843781555469832
 30
0.0
 11
5583.2514793477821513
 21
639.6193902122306554
 31
0.0
  0
LINE
  5
249B
  8
0
 62
     7
 10
5583.2514793477821513
 20
639.6193902122306554
 30
0.0
 11
4645.5176936056750492
 21
639.6193902122306554
 31
0.0
  0
TEXT
  5
249C
  8
0
 62
     7
 10
4668.1362142870411844
 20
343.2563738508835058
 30
0.0
 40
18.0
  1
Scale
 41
1.370174796565951
  7
SIMPLEX
 72
     5
 11
4758.5677508603948809
 21
343.2563738508835058
 31
0.0
  0
TEXT
  5
249D
  8
0
 62
     7
 10
5235.4745283349593592
 20
416.1302229481001973
 30
0.0
 40
18.0
  1
Drawing No.
  7
SIMPLEX
 72
     2
 11
5392.3316711921033857
 21
416.1302229481001973
 31
0.0
  0
LINE
  5
249E
  8
0
 62
     7
 10
1063.4424888049570654
 20
300.1261345920615895
 30
0.0
 11
5609.1013170942433135
 21
300.1261345920615895
 31
0.0
  0
LINE
  5
249F
  8
0
 62
     7
 10
5609.1013170942433135
 20
300.1261345920615895
 30
0.0
 11
5608.4815400969227994
 21
5162.0718882624605612
 31
0.0
  0
LINE
  5
24A0
  8
0
 62
     7
 10
5608.4815400969728216
 20
5162.0718878479428895
 30
0.0
 11
1063.30786711483006
 21
5161.4321418423178329
 31
0.0
  0
LINE
  5
24A1
  8
0
 62
     7
 10
1063.4372702133368875
 20
5161.4321570147039893
 30
0.0
 11
1063.4424888049570654
 21
300.1261345920615895
 31
0.0
  0
TEXT
  5
24A2
  8
0
 62
     7
 10
4806.6342454211790027
 20
341.0419001592974837
 30
0.0
 40
27.0
  1
1:1
  7
TITLE3
  0
TEXT
  5
24A3
  8
0
 62
     7
 10
4845.2182291867211461
 20
757.1988601934688177
 30
0.0
 40
32.3999999999999986
  1
available on request
  7
TITLE3
  0
TEXT
  5
24A4
  8
0
 62
     7
 10
4845.2182291867211461
 20
812.7417173363254506
 30
0.0
 40
32.3999999999999986
  1
Certified dimensions
  7
TITLE3
  0
TEXT
  5
24A5
  8
0
 62
     7
 10
4845.2182291867211461
 20
868.2845744791823108
 30
0.0
 40
32.3999999999999986
  1
without notice or obligation.
  7
TITLE3
  0
TEXT
  5
24A6
  8
0
 62
     7
 10
4845.2182291867211461
 20
923.8274316220396258
 30
0.0
 40
32.3999999999999986
  1
specifications at any time
  7
TITLE3
  0
TEXT
  5
24A7
  8
0
 62
     7
 10
4845.2182291867211461
 20
979.3702887648971682
 30
0.0
 40
32.3999999999999986
  1
the right to change 
  7
TITLE3
  0
TEXT
  5
24A8
  8
0
 62
     7
 10
4845.2182291867211461
 20
1090.4560030506108887
 30
0.0
 40
32.3999999999999986
  1
NOTE
  7
TITLE3
  0
TEXT
  5
24A9
  8
0
 62
     7
 10
4845.2182291867211461
 20
1034.9131459077539148
 30
0.0
 40
32.3999999999999986
  1
The manufacturer reserves
  7
TITLE3
  0
TEXT
  5
24BF
  8
0
 62
     7
 10
2793.6588659792050748
 20
1556.5975669300310074
 30
0.0
 40
38.0
  1
MWP250KT-S1
  7
TITLE5
 72
     1
 11
2991.8017231220619578
 21
1556.5975669300310074
 31
0.0
  0
LINE
  5
24C0
  8
VISIBLE
 10
1370.3378009281830145
 20
674.1359358634457521
 30
0.0
 11
1370.3378009281871073
 21
710.5359358634442515
 31
0.0
  0
LINE
  5
24C1
  8
VISIBLE
 10
2086.3388009281829909
 20
674.1359358634451837
 30
0.0
 11
2086.3388009281829909
 21
710.535935863445161
 31
0.0
  0
TEXT
  5
24CE
  8
0
 62
     7
 10
1508.3549630775239621
 20
1556.5975669300310074
 30
0.0
 40
38.0
  1
MWP250KT-S1
  7
TITLE5
 72
     1
 11
1706.4978202203810724
 21
1556.5975669300310074
 31
0.0
  0
TEXT
  5
24CF
  8
0
 62
     7
 10
4009.4261960829949203
 20
1556.5975669300310074
 30
0.0
 40
38.0
  1
MWP250KT-S1
  7
TITLE5
 72
     1
 11
4207.569053225852258
 21
1556.5975669300310074
 31
0.0
  0
TEXT
  5
24D0
  8
0
 62
     7
 10
2793.6588659792050748
 20
3640.5420336072252212
 30
0.0
 40
38.0
  1
MWP250KT-S1
  7
TITLE5
 72
     1
 11
2991.8017231220619578
 21
3640.5420336072252212
 31
0.0
  0
LINE
  5
24D1
  8
0
 62
     7
 10
3053.0092347702320694
 20
3469.1758696424722075
 30
0.0
 11
3013.7092347702318875
 21
3508.4758696424692062
 31
0.0
  0
LINE
  5
24D2
  8
0
 62
     7
 10
2974.4092347702321604
 20
3469.1758696424722075
 30
0.0
 11
3013.7092347702318875
 21
3508.4758696424692062
 31
0.0
  0
LINE
  5
24D3
  8
0
 62
     7
 10
2999.0092347702320694
 20
3413.6758696424722075
 30
0.0
 11
3028.4092347702321604
 21
3413.6758696424722075
 31
0.0
  0
LINE
  5
24D4
  8
0
 62
     7
 10
3028.4092347702321604
 20
3413.6758696424722075
 30
0.0
 11
3028.4092347702321604
 21
3469.1758696424722075
 31
0.0
  0
LINE
  5
24D5
  8
0
 62
     7
 10
3028.4092347702321604
 20
3469.1758696424722075
 30
0.0
 11
3053.0092347702320694
 21
3469.1758696424722075
 31
0.0
  0
LINE
  5
24D6
  8
0
 62
     7
 10
2999.0092347702320694
 20
3413.6758696424722075
 30
0.0
 11
2999.0092347702320694
 21
3469.1758696424722075
 31
0.0
  0
LINE
  5
24D7
  8
0
 62
     7
 10
2999.0092347702320694
 20
3469.1758696424722075
 30
0.0
 11
2974.4092347702321604
 21
3469.1758696424722075
 31
0.0
  0
LINE
  5
24E8
  8
CLEAR
 10
3443.3740818312789997
 20
3068.7939502689978326
 30
0.0
 11
2496.4244570851078606
 21
3068.7939502689969231
 31
0.0
  0
LINE
  5
24EB
  8
CLEAR
 10
1754.024457085107997
 20
3568.7939502689969231
 30
0.0
 11
1754.024457085107997
 21
4337.6307774706338023
 31
0.0
  0
LINE
  5
24EC
  8
CLEAR
 10
2505.9876298834719819
 20
5089.5939502689980145
 30
0.0
 11
3435.7740818312649935
 21
5089.5939502689980145
 31
0.0
  0
LINE
  5
24EE
  8
CLEAR
 10
2505.224457085108952
 20
2890.6359358634449563
 30
0.0
 11
3434.5740818312610827
 21
2890.6359358634449563
 31
0.0
  0
LINE
  5
24EF
  8
CLEAR
 10
2505.224457085108952
 20
2890.6359358634449563
 30
0.0
 11
2505.224457085108952
 21
2143.467566542366967
 31
0.0
  0
LINE
  5
24F0
  8
CLEAR
 10
2496.4244570851078606
 20
3068.7939502689969231
 30
0.0
 11
2496.4244570851078606
 21
3534.6150340005410726
 31
0.0
  0
LINE
  5
24F1
  8
CLEAR
 10
1754.024457085107997
 20
3568.7939502689969231
 30
0.0
 11
2462.8468826245189121
 21
3568.7939502689969231
 31
0.0
  0
LINE
  5
24F2
  8
CLEAR
 10
3435.7740818312649935
 20
5089.5939502689980145
 30
0.0
 11
3438.7244570851062235
 21
4389.9339022001795456
 31
0.0
  0
LINE
  5
24F3
  8
CLEAR
 10
3434.5740818312610827
 20
2890.6359358634449563
 30
0.0
 11
3438.7244570851048593
 21
2143.467566542366967
 31
0.0
  0
LINE
  5
24F4
  8
CLEAR
 10
3443.3740818312789997
 20
3068.7939502689978326
 30
0.0
 11
3446.3244570851211392
 21
3534.6150340005410726
 31
0.0
  0
LINE
  5
24F5
  8
CLEAR
 10
1754.024457085107997
 20
4337.6307774706338023
 30
0.0
 11
2462.8468826245189121
 21
4337.6307774706338023
 31
0.0
  0
LINE
  5
24F6
  8
CLEAR
 10
2505.9876298834719819
 20
5089.5939502689980145
 30
0.0
 11
2505.9876298834719819
 21
4389.9339022001795456
 31
0.0
  0
TEXT
  5
2500
  8
0
 62
     7
 10
2669.7064850268238843
 20
2813.4827479211098762
 30
0.0
 40
38.0
  1
1000 MIN. CLEARANCE
  7
TITLE5
 72
     1
 11
2991.8017231220619578
 21
2813.4827479211098762
 31
0.0
  0
TEXT
  5
250F
  8
0
 62
     7
 10
2684.1826755030137974
 20
3102.5996605113541591
 30
0.0
 40
38.0
  1
500 MIN. CLEARANCE
  7
TITLE5
 72
     1
 11
2991.8017231220619578
 21
3102.5996605113541591
 31
0.0
  0
TEXT
  5
2510
  8
0
 62
     7
 10
2703.879347582185801
 20
5022.4065718828078388
 30
0.0
 40
38.0
  1
750 MIN. CLEARANCE
  7
TITLE5
 72
     1
 11
3011.4983952012330519
 21
5022.4065718828078388
 31
0.0
  0
TEXT
  5
254D
  8
0
 62
     7
 10
1829.6043896252149352
 20
3642.6166410662531234
 30
0.0
 40
38.0
  1
750 MIN. CLEARANCE
 50
90.0
  7
TITLE5
 72
     1
 11
1829.6043896252149352
 21
3950.2356886853008291
 31
0.0
  0
TEXT
  5
2599
  8
0
 62
     7
 10
4188.3230888548250732
 20
2383.84650105334822
 30
0.0
 40
32.3999999999999986
  1
Water Conns:
  7
TITLE3
  0
TEXT
  5
259B
  8
0
 62
     7
 10
4186.5170445297735569
 20
2330.5007562050968772
 30
0.0
 40
32.3999999999999986
  1
2x 1 1/2" Union Connectors
  7
TITLE3
  0
LINE
  5
25E9
  8
DIMENSION
 10
3496.4244570851078606
 20
4248.7075576818469926
 30
0.0
 11
3496.4244570851069511
 21
4465.4599091091558876
 31
0.0
  0
LINE
  5
25EA
  8
DIMENSION
 10
2496.4244570851078606
 20
3630.3350612468470899
 30
0.0
 11
2496.4244570851078606
 21
4465.4599091091558876
 31
0.0
  0
LINE
  5
25EB
  8
DIMENSION
 10
3469.9630676330662027
 20
4428.1069679326874393
 30
0.0
 11
3106.3838191600339087
 21
4428.1069679326874393
 31
0.0
  0
LINE
  5
25EC
  8
DIMENSION
 10
2525.8362217909898391
 20
4428.1069679326874393
 30
0.0
 11
2855.8298048485671643
 21
4428.1069679326874393
 31
0.0
  0
SOLID
  5
25ED
  8
DIMENSION
 10
3467.0126923792249727
 20
4433.0089287170003445
 30
0.0
 11
3467.0126923792249727
 21
4423.2050071483718057
 31
0.0
 12
3496.4244570851069511
 22
4428.1069679326874393
 32
0.0
 13
3496.4244570851069511
 23
4428.1069679326874393
 33
0.0
  0
SOLID
  5
25EE
  8
DIMENSION
 10
2525.8362217909898391
 20
4433.0089287170003445
 30
0.0
 11
2525.8362217909898391
 21
4423.2050071483718057
 31
0.0
 12
2496.4244570851078606
 22
4428.1069679326874393
 32
0.0
 13
2496.4244570851078606
 23
4428.1069679326874393
 33
0.0
  0
INSERT
  5
25EF
  8
0
  2
*U8
 10
0.0
 20
0.0
 30
0.0
  0
LINE
  5
25F0
  8
DIMENSION
 10
1330.2624185752349604
 20
710.5359358634449336
 30
0.0
 11
1155.6044385994550794
 21
710.5359358634449336
 31
0.0
  0
LINE
  5
25F1
  8
DIMENSION
 10
1464.7486562357150888
 20
1909.3359358634459113
 30
0.0
 11
1155.6044385994550794
 21
1909.3359358634459113
 31
0.0
  0
LINE
  5
25F2
  8
DIMENSION
 10
1192.9573797759260287
 20
739.9477005693272531
 30
0.0
 11
1192.9573797759260287
 21
1196.1598847025809391
 31
0.0
  0
LINE
  5
25F3
  8
DIMENSION
 10
1192.9573797759248919
 20
1879.9241711575639329
 30
0.0
 11
1192.9573797759248919
 21
1451.0786350456630771
 31
0.0
  0
SOLID
  5
25F4
  8
DIMENSION
 10
1188.0554189916119867
 20
739.9477005693272531
 30
0.0
 11
1197.8593405602389339
 21
739.9477005693272531
 31
0.0
 12
1192.9573797759260287
 22
710.5359358634449336
 32
0.0
 13
1192.9573797759260287
 23
710.5359358634449336
 33
0.0
  0
SOLID
  5
25F5
  8
DIMENSION
 10
1188.0554189916119867
 20
1879.9241711575639329
 30
0.0
 11
1197.8593405602389339
 21
1879.9241711575639329
 31
0.0
 12
1192.9573797759248919
 22
1909.3359358634459113
 32
0.0
 13
1192.9573797759248919
 23
1909.3359358634459113
 33
0.0
  0
INSERT
  5
25F6
  8
0
  2
*U9
 10
0.0
 20
0.0
 30
0.0
  0
LINE
  5
25F7
  8
DIMENSION
 10
1342.9383009281709747
 20
1907.3118182163859728
 30
0.0
 11
1342.9383009281709747
 21
2114.0741711575628869
 31
0.0
  0
LINE
  5
25F8
  8
DIMENSION
 10
2113.7383009281720661
 20
1907.3118182163859728
 30
0.0
 11
2113.7383009281720661
 21
2114.0741711575628869
 31
0.0
  0
LINE
  5
25F9
  8
DIMENSION
 10
1372.3500656340529531
 20
2076.721229981092165
 30
0.0
 11
1604.8389858157279377
 21
2076.721229981092165
 31
0.0
  0
LINE
  5
25FA
  8
DIMENSION
 10
2084.3265362222900876
 20
2076.721229981092165
 30
0.0
 11
1827.5402976150689938
 21
2076.721229981092165
 31
0.0
  0
SOLID
  5
25FB
  8
DIMENSION
 10
1372.3500656340529531
 20
2081.6231907654068891
 30
0.0
 11
1372.3500656340529531
 21
2071.8192691967788051
 31
0.0
 12
1342.9383009281709747
 22
2076.721229981092165
 32
0.0
 13
1342.9383009281709747
 23
2076.721229981092165
 33
0.0
  0
SOLID
  5
25FC
  8
DIMENSION
 10
2084.3265362222900876
 20
2081.6231907654068891
 30
0.0
 11
2084.3265362222900876
 21
2071.8192691967788051
 31
0.0
 12
2113.7383009281720661
 22
2076.721229981092165
 32
0.0
 13
2113.7383009281720661
 23
2076.721229981092165
 33
0.0
  0
INSERT
  5
25FD
  8
0
  2
*U10
 10
0.0
 20
0.0
 30
0.0
  0
LINE
  5
25FE
  8
DIMENSION
 10
2504.0244570851091339
 20
1907.3118182163859728
 30
0.0
 11
2504.0244570851091339
 21
2114.0741711575628869
 31
0.0
  0
LINE
  5
25FF
  8
DIMENSION
 10
3439.0244570851082244
 20
1907.3118182163859728
 30
0.0
 11
3439.0244570851082244
 21
2114.0741711575628869
 31
0.0
  0
LINE
  5
2600
  8
DIMENSION
 10
2533.4362217909902029
 20
2076.721229981092165
 30
0.0
 11
2849.1099615933239875
 21
2076.721229981092165
 31
0.0
  0
LINE
  5
2601
  8
DIMENSION
 10
3409.6126923792257912
 20
2076.721229981092165
 30
0.0
 11
3085.103966925154964
 21
2076.721229981092165
 31
0.0
  0
SOLID
  5
2602
  8
DIMENSION
 10
2533.4362217909902029
 20
2081.6231907654068891
 30
0.0
 11
2533.4362217909902029
 21
2071.8192691967788051
 31
0.0
 12
2504.0244570851091339
 22
2076.721229981092165
 32
0.0
 13
2504.0244570851091339
 23
2076.721229981092165
 33
0.0
  0
SOLID
  5
2603
  8
DIMENSION
 10
3409.6126923792257912
 20
2081.6231907654068891
 30
0.0
 11
3409.6126923792257912
 21
2071.8192691967788051
 31
0.0
 12
3439.0244570851082244
 22
2076.721229981092165
 32
0.0
 13
3439.0244570851082244
 23
2076.721229981092165
 33
0.0
  0
INSERT
  5
2604
  8
0
  2
*U11
 10
0.0
 20
0.0
 30
0.0
  0
LINE
  5
2605
  8
DIMENSION
 10
2541.4249570851061435
 20
655.3100535105038489
 30
0.0
 11
2541.4249570851061435
 21
600.3993024289618461
 31
0.0
  0
LINE
  5
2606
  8
DIMENSION
 10
3401.424957085107053
 20
655.3100535105036215
 30
0.0
 11
3401.424957085107053
 21
600.3993024289618461
 31
0.0
  0
LINE
  5
2607
  8
DIMENSION
 10
2570.8367217909890314
 20
637.7522436054324544
 30
0.0
 11
2771.2464015176487919
 21
637.7522436054324544
 31
0.0
  0
LINE
  5
2608
  8
DIMENSION
 10
3372.0131923792241651
 20
637.7522436054324544
 30
0.0
 11
3143.1514278711138104
 21
637.7522436054324544
 31
0.0
  0
SOLID
  5
2609
  8
DIMENSION
 10
2570.8367217909890314
 20
642.6542043897461554
 30
0.0
 11
2570.8367217909890314
 21
632.8502828211187534
 31
0.0
 12
2541.4249570851061435
 22
637.7522436054324544
 32
0.0
 13
2541.4249570851061435
 23
637.7522436054324544
 33
0.0
  0
SOLID
  5
260A
  8
DIMENSION
 10
3372.0131923792241651
 20
642.6542043897461554
 30
0.0
 11
3372.0131923792241651
 21
632.8502828211187534
 31
0.0
 12
3401.424957085107053
 22
637.7522436054324544
 32
0.0
 13
3401.424957085107053
 23
637.7522436054324544
 33
0.0
  0
LINE
  5
260C
  8
DIMENSION
 10
2496.4244570851078606
 20
750.5472463244029768
 30
0.0
 11
2496.4244570851078606
 21
600.3993024289618461
 31
0.0
  0
LINE
  5
260D
  8
DIMENSION
 10
2541.4239570851059398
 20
655.3100535105036215
 30
0.0
 11
2541.4239570851059398
 21
600.3993024289618461
 31
0.0
  0
LINE
  5
260E
  8
DIMENSION
 10
2570.8357217909888277
 20
637.7522436054324544
 30
0.0
 11
2605.2474864968708061
 21
637.7522436054324544
 31
0.0
  0
LINE
  5
260F
  8
DIMENSION
 10
2467.0126923792249727
 20
637.7522436054324544
 30
0.0
 11
2416.6595129961110615
 21
637.7522436054324544
 31
0.0
  0
SOLID
  5
2610
  8
DIMENSION
 10
2570.8357217909888277
 20
642.6542043897461554
 30
0.0
 11
2570.8357217909888277
 21
632.8502828211187534
 31
0.0
 12
2541.4239570851059398
 22
637.7522436054324544
 32
0.0
 13
2541.4239570851059398
 23
637.7522436054324544
 33
0.0
  0
SOLID
  5
2611
  8
DIMENSION
 10
2467.0126923792249727
 20
642.6542043897461554
 30
0.0
 11
2467.0126923792249727
 21
632.8502828211187534
 31
0.0
 12
2496.4244570851078606
 22
637.7522436054324544
 32
0.0
 13
2496.4244570851078606
 23
637.7522436054324544
 33
0.0
  0
INSERT
  5
2612
  8
0
  2
*U12
 10
0.0
 20
0.0
 30
0.0
  0
LINE
  5
2613
  8
DIMENSION
 10
3446.424957085107053
 20
750.5472463244028631
 30
0.0
 11
3446.424957085107053
 21
600.3993024289618461
 31
0.0
  0
LINE
  5
2614
  8
DIMENSION
 10
3401.425957085106802
 20
655.3100535105036215
 30
0.0
 11
3401.425957085106802
 21
600.3993024289618461
 31
0.0
  0
LINE
  5
2615
  8
DIMENSION
 10
3372.014192379223914
 20
637.7522436054324544
 30
0.0
 11
3338.7014276733420957
 21
637.7522436054324544
 31
0.0
  0
LINE
  5
2616
  8
DIMENSION
 10
3471.6863465371461643
 20
637.7522436054324544
 30
0.0
 11
3522.039525920260985
 21
637.7522436054324544
 31
0.0
  0
SOLID
  5
2617
  8
DIMENSION
 10
3372.014192379223914
 20
642.6542043897461554
 30
0.0
 11
3372.014192379223914
 21
632.8502828211187534
 31
0.0
 12
3401.425957085106802
 22
637.7522436054324544
 32
0.0
 13
3401.425957085106802
 23
637.7522436054324544
 33
0.0
  0
SOLID
  5
2618
  8
DIMENSION
 10
3471.6863465371461643
 20
642.6542043897461554
 30
0.0
 11
3471.6863465371461643
 21
632.8502828211187534
 31
0.0
 12
3446.424957085107053
 22
637.7522436054324544
 32
0.0
 13
3446.424957085107053
 23
637.7522436054324544
 33
0.0
  0
INSERT
  5
2619
  8
0
  2
*U13
 10
0.0
 20
0.0
 30
0.0
  0
LINE
  5
261A
  8
DIMENSION
 10
3822.4055235892687961
 20
655.3100535105037352
 30
0.0
 11
3822.4055235892687961
 21
600.3993024289618461
 31
0.0
  0
LINE
  5
261B
  8
DIMENSION
 10
4538.4055235892701603
 20
655.3100535105043036
 30
0.0
 11
4538.4055235892701603
 21
600.3993024289618461
 31
0.0
  0
LINE
  5
261C
  8
DIMENSION
 10
3851.8172882951521387
 20
637.7522436054324544
 30
0.0
 11
3980.3745213621141374
 21
637.7522436054324544
 31
0.0
  0
LINE
  5
261D
  8
DIMENSION
 10
4508.9937588833881819
 20
637.7522436054324544
 30
0.0
 11
4340.9860550820430944
 21
637.7522436054324544
 31
0.0
  0
SOLID
  5
261E
  8
DIMENSION
 10
3851.8172882951521387
 20
642.6542043897461554
 30
0.0
 11
3851.8172882951521387
 21
632.8502828211187534
 31
0.0
 12
3822.4055235892687961
 22
637.7522436054324544
 32
0.0
 13
3822.4055235892687961
 23
637.7522436054324544
 33
0.0
  0
SOLID
  5
261F
  8
DIMENSION
 10
4508.9937588833881819
 20
642.6542043897461554
 30
0.0
 11
4508.9937588833881819
 21
632.8502828211187534
 31
0.0
 12
4538.4055235892701603
 22
637.7522436054324544
 32
0.0
 13
4538.4055235892701603
 23
637.7522436054324544
 33
0.0
  0
LINE
  5
2621
  8
DIMENSION
 10
4417.6060235892373385
 20
1453.1329701892950652
 30
0.0
 11
4417.6060235892564378
 21
1526.1105675714379686
 31
0.0
  0
LINE
  5
2622
  8
DIMENSION
 10
4447.0177882951365973
 20
1488.7576263949679287
 30
0.0
 11
4535.1942588833726404
 21
1488.7576263949679287
 31
0.0
  0
LINE
  5
2623
  8
DIMENSION
 10
4564.6060235892546189
 20
1488.7576263949679287
 30
0.0
 11
4631.2598028861229977
 21
1488.7576263949679287
 31
0.0
  0
SOLID
  5
2624
  8
DIMENSION
 10
4447.0177882951365973
 20
1493.6595871792819707
 30
0.0
 11
4447.0177882951365973
 21
1483.8556656106538867
 31
0.0
 12
4417.6060235892564378
 22
1488.7576263949679287
 32
0.0
 13
4417.6060235892564378
 23
1488.7576263949679287
 33
0.0
  0
SOLID
  5
2625
  8
DIMENSION
 10
4535.1942588833726404
 20
1493.6595871792819707
 30
0.0
 11
4535.1942588833726404
 21
1483.8556656106538867
 31
0.0
 12
4564.6060235892546189
 22
1488.7576263949679287
 32
0.0
 13
4564.6060235892546189
 23
1488.7576263949679287
 33
0.0
  0
INSERT
  5
2626
  8
0
  2
*U14
 10
0.0
 20
0.0
 30
0.0
  0
LINE
  5
2634
  8
DIMENSION
 10
4578.481905942218873
 20
710.5359358634449336
 30
0.0
 11
4699.8720729947517611
 21
710.5359358634449336
 31
0.0
  0
LINE
  5
2635
  8
DIMENSION
 10
4430.0937564250289142
 20
890.5359358634485716
 30
0.0
 11
4699.8720729947517611
 21
890.535935863448799
 31
0.0
  0
LINE
  5
2636
  8
DIMENSION
 10
4662.5191318182805844
 20
739.9477005693272531
 30
0.0
 11
4662.5191318182805844
 21
861.1241711575662521
 31
0.0
  0
LINE
  5
2637
  8
DIMENSION
 10
4662.5191318182805844
 20
710.5359358634449336
 30
0.0
 11
4662.5191318182805844
 21
678.1787240409076958
 31
0.0
  0
SOLID
  5
2638
  8
DIMENSION
 10
4657.6171710339676793
 20
739.9477005693272531
 30
0.0
 11
4667.4210926025953086
 21
739.9477005693272531
 31
0.0
 12
4662.5191318182805844
 22
710.5359358634449336
 32
0.0
 13
4662.5191318182805844
 23
710.5359358634449336
 33
0.0
  0
SOLID
  5
2639
  8
DIMENSION
 10
4657.6171710339676793
 20
861.1241711575662521
 30
0.0
 11
4667.4210926025953086
 21
861.1241711575662521
 31
0.0
 12
4662.5191318182805844
 22
890.535935863448799
 32
0.0
 13
4662.5191318182805844
 23
890.535935863448799
 33
0.0
  0
LINE
  5
263B
  8
DIMENSION
 10
3795.0060235892810852
 20
1907.3118182163859728
 30
0.0
 11
3795.0060235892810852
 21
2114.0741711575628869
 31
0.0
  0
LINE
  5
263C
  8
DIMENSION
 10
4598.3224056597809977
 20
1573.2467562119559261
 30
0.0
 11
4598.3224056597809977
 21
2114.0741711575628869
 31
0.0
  0
LINE
  5
263D
  8
DIMENSION
 10
3824.4177882951630636
 20
2076.721229981092165
 30
0.0
 11
4097.1609898831684404
 21
2076.721229981092165
 31
0.0
  0
LINE
  5
263E
  8
DIMENSION
 10
4568.9106409538990192
 20
2076.721229981092165
 30
0.0
 11
4325.9416798823858699
 21
2076.721229981092165
 31
0.0
  0
SOLID
  5
263F
  8
DIMENSION
 10
3824.4177882951630636
 20
2081.6231907654068891
 30
0.0
 11
3824.4177882951630636
 21
2071.8192691967788051
 31
0.0
 12
3795.0060235892810852
 22
2076.721229981092165
 32
0.0
 13
3795.0060235892810852
 23
2076.721229981092165
 33
0.0
  0
SOLID
  5
2640
  8
DIMENSION
 10
4568.9106409538990192
 20
2081.6231907654068891
 30
0.0
 11
4568.9106409538990192
 21
2071.8192691967788051
 31
0.0
 12
4598.3224056597809977
 22
2076.721229981092165
 32
0.0
 13
4598.3224056597809977
 23
2076.721229981092165
 33
0.0
  0
INSERT
  5
2641
  8
0
  2
*U15
 10
0.0
 20
0.0
 30
0.0
  0
TEXT
  5
2642
  8
DIMENSION
 10
2775.2119456728269142
 20
624.9078383498391531
 30
0.0
 40
32.3999999999999986
  1
860 Mtg. Ctrs.
  7
TITLE3
  0
TEXT
  5
2643
  8
DIMENSION
 10
3987.4005522869351807
 20
624.9078383503061787
 30
0.0
 40
32.3999999999999986
  1
716 Mtg. Ctrs.
  7
TITLE3
  0
INSERT
  5
2696
  8
0
  2
*U16
 10
0.0
 20
0.0
 30
0.0
  0
LINE
  5
2697
  8
DIMENSION
 10
4662.5191318182805844
 20
678.1787240409076958
 30
0.0
 11
4691.8156575261482431
 21
678.1787240409076958
 31
0.0
  0
LINE
  5
2718
  8
0
 10
3401.424957085107053
 20
674.1359358634449563
 30
0.0
 11
3401.424957085107053
 21
710.5359358634450473
 31
0.0
  0
CIRCLE
  5
278F
  8
VISIBLE
 10
4417.6060235892564378
 20
1440.5359358634439104
 30
0.0
 40
40.0
  0
CIRCLE
  5
2790
  8
VISIBLE
 10
4417.6060235892546189
 20
890.5359358634449336
 30
0.0
 40
40.0
  0
LINE
  5
27EF
  8
DIMENSION
 10
4662.7385001570746681
 20
921.2639106020953932
 30
0.0
 11
4662.7385001570746681
 21
1057.9645297064369061
 31
0.0
  0
SOLID
  5
27F0
  8
DIMENSION
 10
4657.8365393727617629
 20
921.2639106020953932
 30
0.0
 11
4667.6404609413903017
 21
921.2639106020953932
 31
0.0
 12
4662.7385001570746681
 22
891.85214589621296
 32
0.0
 13
4662.7385001570746681
 23
891.85214589621296
 33
0.0
  0
LINE
  5
27F1
  8
DIMENSION
 10
4417.6060235892564378
 20
1440.5359358634439104
 30
0.0
 11
4699.8720729947526706
 21
1440.5359358634439104
 31
0.0
  0
LINE
  5
27F2
  8
DIMENSION
 10
4662.7385001570746681
 20
1412.4403811903300721
 30
0.0
 11
4662.7385001570746681
 21
1296.9369440895350181
 31
0.0
  0
SOLID
  5
27F3
  8
DIMENSION
 10
4657.8365393727617629
 20
1412.4403811903300721
 30
0.0
 11
4667.6404609413893922
 21
1412.4403811903300721
 31
0.0
 12
4662.7385001570746681
 22
1441.8521458962120505
 32
0.0
 13
4662.7385001570746681
 23
1441.8521458962120505
 33
0.0
  0
INSERT
  5
27F4
  8
0
  2
*U17
 10
0.0
 20
0.0
 30
0.0
  0
LINE
  5
2802
  8
VISIBLE
 10
3496.4244570851069511
 20
1479.0359358634439104
 30
0.0
 11
3496.4244570851069511
 21
1402.0359358634439104
 31
0.0
  0
LINE
  5
2803
  8
VISIBLE
 10
3496.4244570851069511
 20
1402.0359358634439104
 30
0.0
 11
3494.9244570851069511
 21
1400.5359358634439104
 31
0.0
  0
LINE
  5
2804
  8
VISIBLE
 10
3496.4244570851069511
 20
1479.0359358634439104
 30
0.0
 11
3494.9244570851069511
 21
1480.5359358634439104
 31
0.0
  0
LINE
  5
2805
  8
VISIBLE
 10
3494.9244570851069511
 20
1400.5359358634439104
 30
0.0
 11
3438.7244570851048593
 21
1400.5359358634439104
 31
0.0
  0
LINE
  5
2806
  8
VISIBLE
 10
3494.9244570851069511
 20
1480.5359358634439104
 30
0.0
 11
3438.7244570851048593
 21
1480.5359358634439104
 31
0.0
  0
ENDSEC
  0
EOF
